999
DXF file: C:\Users\sesa63760\Dev\_Creo\CAD\MCADID0004818_3D-CAD\drw0001_4.dxf
999
Pro/ENGINEER 2019471 by Parametric Technology Corporation
  0
SECTION
  2
HEADER
  9
$ACADVER
  1
AC1024
  9
$DWGCODEPAGE
  3
ANSI_1252
  9
$EXTMAX
 10
66.4946304502
 20
94.0424059224
 30
0.0
  9
$EXTMIN
 10
0.0
 20
0.0
 30
0.0
  9
$LIMMIN
 10
0.0
 20
0.0
  9
$LIMMAX
 10
66.4946304502
 20
94.0424059224
  9
$VIEWCTR
 10
33.2473152251
 20
47.0212029612
  9
$VIEWSIZE
 40
94.0424059224
  9
$CLAYER
  8
0
  9
$LTSCALE
 40
6.1301716453
  9
$CELTYPE
  6
BYLAYER
  9
$DIMSCALE
 40
1.0
  9
$DIMASZ
 40
0.7916027435
  9
$DIMEXO
 40
1.0
  9
$DIMDLI
 40
4.2353913186
  9
$DIMEXE
 40
1.0
  9
$DIMCEN
 40
1.0031189965
  9
$DIMLFAC
 40
1.0
  9
$DIMBLK
  1
_FILLED
  9
$DIMALT
 70
0
  9
$DIMALTF
 40
0.0393700787
  9
$DIMTXT
 40
1.1082438408
  9
$DIMTOL
 70
1
  9
$DIMLIM
 70
0
  9
$DIMTFAC
 40
1.0
  9
$DIMTP
 40
0.01
  9
$DIMTM
 40
0.01
  9
$DIMGAP
 40
0.625
  9
$DIMDSEP
 70
46
  9
$AUNITS
 70
0
  9
$PDMODE
 70
3
  9
$PDSIZE
 40
0.3125
  9
$HANDSEED
  5
263
  9
$TILEMODE
 70
1
  9
$MEASUREMENT
 70
1
  9
$INSUNITS
 70
4
  0
ENDSEC
  0
SECTION
  2
CLASSES
  0
CLASS
  1
ACDBDICTIONARYWDFLT
  2
AcDbDictionaryWithDefault
  3
AutoCAD 2000
 90
0
 91
1
280
0
281
0
  0
CLASS
  1
ACDBPLACEHOLDER
  2
AcDbPlaceHolder
  3
AutoCAD 2000
 90
0
 91
1
280
0
281
0
  0
CLASS
  1
LAYOUT
  2
AcDbLayout
  3
AutoCAD 2000
 90
0
 91
0
280
0
281
0
  0
ENDSEC
  0
SECTION
  2
TABLES
  0
TABLE
  2
VPORT
  5
8
100
AcDbSymbolTable
 70
2
  0
VPORT
  5
1F4
100
AcDbSymbolTableRecord
100
AcDbViewportTableRecord
  2
*ACTIVE
 70
0
 10
0.0
 20
0.0
 11
1.0
 21
1.0
 12
33.2473152251
 22
47.0212029612
 13
0.0
 23
0.0
 14
1.0
 24
1.0
 15
0.0
 25
0.0
 16
0.0
 26
0.0
 36
1.0
 17
0.0
 27
0.0
 37
0.0
 40
94.0424059224
 41
0.7070707071
 42
50.0
 43
0.0
 44
0.0
 50
0.0
 51
0.0
 71
0
 72
100
 73
1
 74
1
 75
0
 76
0
 77
0
 78
0
  0
ENDTAB
  0
TABLE
  2
LTYPE
  5
5
100
AcDbSymbolTable
 70
6
  0
LTYPE
  5
14
100
AcDbSymbolTableRecord
100
AcDbLinetypeTableRecord
  2
BYBLOCK
 70
0
  3

 72
65
 73
0
 40
0.0
  0
LTYPE
  5
15
100
AcDbSymbolTableRecord
100
AcDbLinetypeTableRecord
  2
BYLAYER
 70
0
  3

 72
65
 73
0
 40
0.0
  0
LTYPE
  5
16
100
AcDbSymbolTableRecord
100
AcDbLinetypeTableRecord
  2
CONTINUOUS
 70
64
  3
Solid line
 72
65
 73
0
 40
0.0
  0
LTYPE
  5
1F5
100
AcDbSymbolTableRecord
100
AcDbLinetypeTableRecord
  2
CENTER
 70
64
  3
____ _ ____ _ ____ _ ____ _ ____ _ ____ _ ____
 72
65
 73
4
 40
0.6
 49
0.375
 74
0
 49
-0.075
 74
0
 49
0.075
 74
0
 49
-0.075
 74
0
  0
LTYPE
  5
1F6
100
AcDbSymbolTableRecord
100
AcDbLinetypeTableRecord
  2
HIDDEN
 70
64
  3
- - - - - - - - - - - - - - - - - - - -
 72
65
 73
2
 40
0.2
 49
0.1
 74
0
 49
-0.1
 74
0
  0
LTYPE
  5
1F7
100
AcDbSymbolTableRecord
100
AcDbLinetypeTableRecord
  2
PHANTOM
 70
64
  3
_____ _ _ _____ _ _ _____ _ _ _____
 72
65
 73
6
 40
0.8
 49
0.45
 74
0
 49
-0.05
 74
0
 49
0.1
 74
0
 49
-0.05
 74
0
 49
0.1
 74
0
 49
-0.05
 74
0
  0
LTYPE
  5
1F8
100
AcDbSymbolTableRecord
100
AcDbLinetypeTableRecord
  2
DOT
 70
64
  3
. . . . . . . . . . . . . . . . . . . .
 72
65
 73
2
 40
0.2
 49
0.1
 74
0
 49
-0.1
 74
0
  0
LTYPE
  5
1F9
100
AcDbSymbolTableRecord
100
AcDbLinetypeTableRecord
  2
DASHED
 70
64
  3
- - - - - - - - - - - - - - - - - - - -
 72
65
 73
2
 40
0.2
 49
0.1
 74
0
 49
-0.1
 74
0
  0
ENDTAB
  0
TABLE
  2
LAYER
  5
2
100
AcDbSymbolTable
 70
36
  0
LAYER
  5
10
100
AcDbSymbolTableRecord
100
AcDbLayerTableRecord
  2
0
 70
0
 62
7
  6
CONTINUOUS
370
-3
390
F
  0
LAYER
  5
1FA
100
AcDbSymbolTableRecord
100
AcDbLayerTableRecord
  2
DEFAULT_1
 70
0
 62
7
  6
CENTER
370
-3
390
F
  0
LAYER
  5
1FB
100
AcDbSymbolTableRecord
100
AcDbLayerTableRecord
  2
DEFAULT_2
 70
0
 62
7
  6
HIDDEN
370
-3
390
F
  0
LAYER
  5
1FC
100
AcDbSymbolTableRecord
100
AcDbLayerTableRecord
  2
DEFAULT_3
 70
0
 62
7
  6
PHANTOM
370
-3
390
F
  0
LAYER
  5
1FD
100
AcDbSymbolTableRecord
100
AcDbLayerTableRecord
  2
00_COMPONENTS
 70
0
 62
7
  6
CONTINUOUS
370
-3
390
F
  0
LAYER
  5
1FE
100
AcDbSymbolTableRecord
100
AcDbLayerTableRecord
  2
01_1_DEFAULT_DATUMS
 70
0
 62
7
  6
CONTINUOUS
370
-3
390
F
  0
LAYER
  5
1FF
100
AcDbSymbolTableRecord
100
AcDbLayerTableRecord
  2
01_PLANES
 70
0
 62
7
  6
CONTINUOUS
370
-3
390
F
  0
LAYER
  5
200
100
AcDbSymbolTableRecord
100
AcDbLayerTableRecord
  2
02_COORD_SYS
 70
0
 62
7
  6
CONTINUOUS
370
-3
390
F
  0
LAYER
  5
201
100
AcDbSymbolTableRecord
100
AcDbLayerTableRecord
  2
03_AXES
 70
0
 62
7
  6
CONTINUOUS
370
-3
390
F
  0
LAYER
  5
202
100
AcDbSymbolTableRecord
100
AcDbLayerTableRecord
  2
04_POINTS
 70
0
 62
7
  6
CONTINUOUS
370
-3
390
F
  0
LAYER
  5
203
100
AcDbSymbolTableRecord
100
AcDbLayerTableRecord
  2
05_CURVES
 70
0
 62
7
  6
CONTINUOUS
370
-3
390
F
  0
LAYER
  5
204
100
AcDbSymbolTableRecord
100
AcDbLayerTableRecord
  2
06_SURFS
 70
0
 62
7
  6
CONTINUOUS
370
-3
390
F
  0
LAYER
  5
205
100
AcDbSymbolTableRecord
100
AcDbLayerTableRecord
  2
07_COSMETICS
 70
0
 62
7
  6
CONTINUOUS
370
-3
390
F
  0
LAYER
  5
206
100
AcDbSymbolTableRecord
100
AcDbLayerTableRecord
  2
10_NOTES
 70
0
 62
7
  6
CONTINUOUS
370
-3
390
F
  0
LAYER
  5
207
100
AcDbSymbolTableRecord
100
AcDbLayerTableRecord
  2
11_NOTES_PUB
 70
0
 62
7
  6
CONTINUOUS
370
-3
390
F
  0
LAYER
  5
208
100
AcDbSymbolTableRecord
100
AcDbLayerTableRecord
  2
13_REF_GTOL
 70
0
 62
7
  6
CONTINUOUS
370
-3
390
F
  0
LAYER
  5
209
100
AcDbSymbolTableRecord
100
AcDbLayerTableRecord
  2
16_MISC
 70
0
 62
7
  6
CONTINUOUS
370
-3
390
F
  0
LAYER
  5
20A
100
AcDbSymbolTableRecord
100
AcDbLayerTableRecord
  2
17_NO_PRINT
 70
0
 62
7
  6
CONTINUOUS
370
-3
390
F
  0
LAYER
  5
20B
100
AcDbSymbolTableRecord
100
AcDbLayerTableRecord
  2
18_DATUM_CAMS_JOINTS
 70
0
 62
7
  6
CONTINUOUS
370
-3
390
F
  0
LAYER
  5
20C
100
AcDbSymbolTableRecord
100
AcDbLayerTableRecord
  2
19_DATUM_FUNCTIONAL
 70
0
 62
7
  6
CONTINUOUS
370
-3
390
F
  0
LAYER
  5
20D
100
AcDbSymbolTableRecord
100
AcDbLayerTableRecord
  2
20_DATUM_KINEMATIC_SCHEME
 70
0
 62
7
  6
CONTINUOUS
370
-3
390
F
  0
ENDTAB
  0
TABLE
  2
STYLE
  5
3
100
AcDbSymbolTable
 70
1
  0
STYLE
  5
11
100
AcDbSymbolTableRecord
100
AcDbTextStyleTableRecord
  2
STANDARD
 70
0
 40
0.0
 41
1.0
 50
0.0
 71
0
 42
0.2
  3
ARIAL.TTF
  4

  0
STYLE
  5
20E
100
AcDbSymbolTableRecord
100
AcDbTextStyleTableRecord
  2
TEXTSTYLE_1
 70
0
 40
0.0
 41
0.8
 50
0.0
 71
0
 42
0.2
  3
gdt
  4

  0
ENDTAB
  0
TABLE
  2
VIEW
  5
6
100
AcDbSymbolTable
 70
0
  0
ENDTAB
  0
TABLE
  2
UCS
  5
7
100
AcDbSymbolTable
 70
0
  0
ENDTAB
  0
TABLE
  2
APPID
  5
9
100
AcDbSymbolTable
 70
1
  0
APPID
  5
20F
100
AcDbSymbolTableRecord
100
AcDbRegAppTableRecord
  2
ACAD
 70
0
  0
ENDTAB
  0
TABLE
  2
BLOCK_RECORD
  5
1
100
AcDbSymbolTable
 70
0
  0
BLOCK_RECORD
  5
210
100
AcDbSymbolTableRecord
100
AcDbBlockTableRecord
  2
*Model_Space
  0
BLOCK_RECORD
  5
211
100
AcDbSymbolTableRecord
100
AcDbBlockTableRecord
  2
*Paper_Space
  0
BLOCK_RECORD
  5
212
100
AcDbSymbolTableRecord
100
AcDbBlockTableRecord
  2
_FILLED
  0
ENDTAB
  0
TABLE
  2
DIMSTYLE
  5
A
100
AcDbSymbolTable
 70
1
100
AcDbDimStyleTable
 71
0
  0
DIMSTYLE
105
213
100
AcDbSymbolTableRecord
100
AcDbDimStyleTableRecord
  2
STANDARD
 70
0
  3

  4

 40
1.0
 41
0.7916027435
 42
1.0
 43
0.38
 44
1.0
 45
0.0
 46
0.0
 47
0.01
 48
0.01
140
1.1082438408
141
0.09
142
0.0
143
25.4
144
1.0
145
0.0
146
1.0
147
0.625
 71
1
 72
0
 73
0
 74
0
 75
0
 76
0
 77
1
 78
8
 79
2
170
0
171
1
172
0
173
0
174
0
175
0
176
0
177
0
178
0
270
2
179
2
271
2
272
2
273
2
274
2
275
0
280
0
281
0
282
0
283
1
284
8
285
0
286
0
287
3
288
0
340
11
278
46
341
212
342
212
343
212
344
212
  0
ENDTAB
  0
ENDSEC
  0
SECTION
  2
BLOCKS
  0
BLOCK
  5
20
100
AcDbEntity
  8
0
100
AcDbBlockBegin
  2
*Model_Space
 70
0
 10
0.0
 20
0.0
 30
0.0
  3
*Model_Space
  1

  0
ENDBLK
  5
21
100
AcDbEntity
  8
0
100
AcDbBlockEnd
  0
BLOCK
  5
1C
100
AcDbEntity
  8
0
100
AcDbBlockBegin
  2
*Paper_Space
 70
0
 10
0.0
 20
0.0
 30
0.0
  3
*Paper_Space
  1

  0
ENDBLK
  5
1D
100
AcDbEntity
  8
0
100
AcDbBlockEnd
  0
BLOCK
  5
214
100
AcDbEntity
  8
0
100
AcDbBlockBegin
  2
_FILLED
 70
64
 10
0.0
 20
0.0
  3
_FILLED
  1

  0
SOLID
  5
215
100
AcDbEntity
  8
0
  6
BYBLOCK
 62
0
100
AcDbTrace
 10
0.0
 20
0.0
 11
-1.0
 21
0.25
 12
-1.0
 22
-0.25
 13
-1.0
 23
-0.25
  0
ENDBLK
  5
216
100
AcDbEntity
  8
0
  6
BYBLOCK
 62
0
100
AcDbBlockEnd
  0
ENDSEC
  0
SECTION
  2
ENTITIES
  0
LINE
  5
217
100
AcDbEntity
  8
0
100
AcDbLine
 62
7
  6
BYLAYER
 10
60.1420319209
 20
38.7339511682
 11
60.3766114258
 21
38.7840957062
  0
LINE
  5
218
100
AcDbEntity
  8
0
100
AcDbLine
 62
7
  6
BYLAYER
 10
60.1224119171
 20
38.7334628459
 11
60.1425377784
 21
38.7341823425
  0
LINE
  5
219
100
AcDbEntity
  8
0
100
AcDbLine
 62
7
  6
BYLAYER
 10
60.1151570743
 20
38.7334350798
 11
60.1420319209
 21
38.7339511682
  0
LINE
  5
21A
100
AcDbEntity
  8
0
100
AcDbLine
 62
7
  6
BYLAYER
 10
31.5151570743
 20
38.7334350798
 11
60.1151570743
 21
38.7334350798
  0
LINE
  5
21B
100
AcDbEntity
  8
0
100
AcDbLine
 62
7
  6
BYLAYER
 10
59.615157267
 20
39.0334350798
 11
35.8151570277
 21
39.0334350798
  0
LINE
  5
21C
100
AcDbEntity
  8
0
100
AcDbLine
 62
7
  6
BYLAYER
 10
30.8151570743
 20
39.7334350798
 11
60.8151570743
 21
39.7334350798
  0
LINE
  5
21D
100
AcDbEntity
  8
0
100
AcDbLine
 62
7
  6
BYLAYER
 10
60.8151570743
 20
39.8334350798
 11
30.8151570743
 21
39.8334350798
  0
LINE
  5
21E
100
AcDbEntity
  8
0
100
AcDbLine
 62
7
  6
BYLAYER
 10
35.3151570743
 20
43.0334350798
 11
10.597737463
 21
43.0334350798
  0
LINE
  5
21F
100
AcDbEntity
  8
0
100
AcDbLine
 62
7
  6
BYLAYER
 10
30.8151570743
 20
39.4334354925
 11
30.8151570743
 21
43.0334350798
  0
LINE
  5
220
100
AcDbEntity
  8
0
100
AcDbLine
 62
7
  6
BYLAYER
 10
30.8151570743
 20
50.4334350798
 11
30.8151570743
 21
54.0334350798
  0
LINE
  5
221
100
AcDbEntity
  8
0
100
AcDbLine
 62
7
  6
BYLAYER
 10
35.8151570179
 20
38.7334350798
 11
35.8151570743
 21
39.7334350798
  0
LINE
  5
222
100
AcDbEntity
  8
0
100
AcDbLine
 62
7
  6
BYLAYER
 10
35.8151570743
 20
53.7334350798
 11
35.8151570715
 21
54.7334350798
  0
LINE
  5
223
100
AcDbEntity
  8
0
100
AcDbLine
 62
7
  6
BYLAYER
 10
35.3151570743
 20
50.4334350798
 11
10.597737463
 21
50.4334350798
  0
LINE
  5
224
100
AcDbEntity
  8
0
100
AcDbLine
 62
7
  6
BYLAYER
 10
30.8151570743
 20
53.6334350798
 11
60.8151570743
 21
53.6334350798
  0
LINE
  5
225
100
AcDbEntity
  8
0
100
AcDbLine
 62
7
  6
BYLAYER
 10
60.8151570743
 20
53.7334350798
 11
30.8151570743
 21
53.7334350798
  0
LINE
  5
226
100
AcDbEntity
  8
0
100
AcDbLine
 62
7
  6
BYLAYER
 10
42.8151570743
 20
46.7334350798
 11
42.8151570743
 21
53.6334350798
  0
LINE
  5
227
100
AcDbEntity
  8
0
100
AcDbLine
 62
7
  6
BYLAYER
 10
35.8151570279
 20
54.4334350798
 11
59.6151572738
 21
54.4334350798
  0
LINE
  5
228
100
AcDbEntity
  8
0
100
AcDbLine
 62
7
  6
BYLAYER
 10
31.515157074
 20
54.7334350798
 11
60.1151570746
 21
54.7334350798
  0
LINE
  5
229
100
AcDbEntity
  8
0
100
AcDbLine
 62
7
  6
BYLAYER
 10
60.1217764883
 20
54.733330757
 11
60.1151571215
 21
54.7334350798
  0
LINE
  5
22A
100
AcDbEntity
  8
0
100
AcDbLine
 62
7
  6
BYLAYER
 10
60.1462398225
 20
54.7325303964
 11
60.1217802726
 21
54.7334292166
  0
LINE
  5
22B
100
AcDbEntity
  8
0
100
AcDbLine
 62
7
  6
BYLAYER
 10
48.8151570743
 20
46.7334350798
 11
48.8151570743
 21
53.6334350798
  0
LINE
  5
22C
100
AcDbEntity
  8
0
100
AcDbLine
 62
7
  6
BYLAYER
 10
59.6151570743
 20
39.7334350798
 11
59.6151570859
 21
38.7334350798
  0
LINE
  5
22D
100
AcDbEntity
  8
0
100
AcDbLine
 62
7
  6
BYLAYER
 10
59.6151570743
 20
53.7334350798
 11
59.6151573145
 21
54.7334350798
  0
LINE
  5
22E
100
AcDbEntity
  8
0
100
AcDbLine
 62
7
  6
BYLAYER
 10
60.8151570743
 20
39.4334350798
 11
60.8151570743
 21
54.0334339734
  0
ARC
  5
22F
100
AcDbEntity
  8
0
100
AcDbCircle
 62
7
  6
BYLAYER
 10
35.3151570743
 20
46.7334350798
 40
3.7
100
AcDbArc
 50
270.0
 51
90.0
  0
ARC
  5
230
100
AcDbEntity
  8
0
100
AcDbCircle
 62
7
  6
BYLAYER
 10
35.2327694203
 20
47.562818818
 40
3.1106748887
100
AcDbArc
 50
38.4390604344
 51
42.4208581384
  0
ARC
  5
231
100
AcDbEntity
  8
0
100
AcDbCircle
 62
7
  6
BYLAYER
 10
35.2626604993
 20
45.8785850769
 40
3.0714304957
100
AcDbArc
 50
317.5536932363
 51
321.5863881909
  0
ARC
  5
232
100
AcDbEntity
  8
0
100
AcDbCircle
 62
7
  6
BYLAYER
 10
45.8151570743
 20
46.7334350798
 40
3.0
100
AcDbArc
 50
180.0
 51
360.0
  0
ARC
  5
233
100
AcDbEntity
  8
0
100
AcDbCircle
 62
7
  6
BYLAYER
 10
35.3975352445
 20
47.7115194058
 40
2.8887343367
100
AcDbArc
 50
42.448111177
 51
46.4374712879
  0
ARC
  5
234
100
AcDbEntity
  8
0
100
AcDbCircle
 62
7
  6
BYLAYER
 10
35.4201139754
 20
45.7332069206
 40
2.8571285893
100
AcDbArc
 50
313.5407025906
 51
317.5739638637
  0
ARC
  5
235
100
AcDbEntity
  8
0
100
AcDbCircle
 62
7
  6
BYLAYER
 10
58.2151570743
 20
41.4334350798
 40
1.7
100
AcDbArc
 50
270.0
 51
291.1981809489
  0
ARC
  5
236
100
AcDbEntity
  8
0
100
AcDbCircle
 62
7
  6
BYLAYER
 10
58.2151570743
 20
52.0334350798
 40
1.7
100
AcDbArc
 50
68.8018190511
 51
90.0
  0
ARC
  5
237
100
AcDbEntity
  8
0
100
AcDbCircle
 62
7
  6
BYLAYER
 10
33.4151570743
 20
41.4334350798
 40
1.7
100
AcDbArc
 50
248.8018190511
 51
270.0
  0
ARC
  5
238
100
AcDbEntity
  8
0
100
AcDbCircle
 62
7
  6
BYLAYER
 10
33.4151570743
 20
52.0334350798
 40
1.7
100
AcDbArc
 50
90.0
 51
111.1981809489
  0
ARC
  5
239
100
AcDbEntity
  8
0
100
AcDbCircle
 62
7
  6
BYLAYER
 10
60.1151570743
 20
39.4334350798
 40
0.7
100
AcDbArc
 50
291.9320179484
 51
360.0
  0
ARC
  5
23A
100
AcDbEntity
  8
0
100
AcDbCircle
 62
7
  6
BYLAYER
 10
31.5151570743
 20
54.0334350798
 40
0.7
100
AcDbArc
 50
90.0
 51
180.0
  0
ARC
  5
23B
100
AcDbEntity
  8
0
100
AcDbCircle
 62
7
  6
BYLAYER
 10
60.1151570743
 20
54.0334350798
 40
0.7
100
AcDbArc
 50
359.9999547222
 51
90.0
  0
ARC
  5
23C
100
AcDbEntity
  8
0
100
AcDbCircle
 62
7
  6
BYLAYER
 10
60.1151570743
 20
39.4334350798
 40
0.7
100
AcDbArc
 50
270.0
 51
272.9282366897
  0
ARC
  5
23D
100
AcDbEntity
  8
0
100
AcDbCircle
 62
7
  6
BYLAYER
 10
31.5151570743
 20
39.4334350798
 40
0.7
100
AcDbArc
 50
179.9999831099
 51
270.0
  0
ARC
  5
23E
100
AcDbEntity
  8
0
100
AcDbCircle
 62
7
  6
BYLAYER
 10
60.1900261565
 20
39.0409679553
 40
0.3004584968
100
AcDbArc
 50
261.1619383559
 51
275.663899014
  0
ARC
  5
23F
100
AcDbEntity
  8
0
100
AcDbCircle
 62
7
  6
BYLAYER
 10
31.4400434157
 20
54.4261030791
 40
0.3002334046
100
AcDbArc
 50
94.359766235
 51
100.7771083187
  0
ARC
  5
240
100
AcDbEntity
  8
0
100
AcDbCircle
 62
7
  6
BYLAYER
 10
60.1907810771
 20
54.4294009112
 40
0.2968901063
100
AcDbArc
 50
79.2006387644
 51
82.8002393894
  0
ARC
  5
241
100
AcDbEntity
  8
0
100
AcDbCircle
 62
7
  6
BYLAYER
 10
60.1152167972
 20
38.9377315659
 40
0.204295229
100
AcDbArc
 50
272.0173516884
 51
276.9707079361
  0
ARC
  5
242
100
AcDbEntity
  8
0
100
AcDbCircle
 62
7
  6
BYLAYER
 10
60.1152329855
 20
54.5293752651
 40
0.2040583092
100
AcDbArc
 50
81.8769210774
 51
88.1616943783
  0
SPLINE
  5
243
100
AcDbEntity
  8
0
100
AcDbSpline
 62
7
  6
BYLAYER
 70
0
 71
3
 72
18
 73
14
 74
0
 42
0.0000001
 43
0.0000001
 44
0.0000000001
 40
0.0
 40
0.0
 40
0.0
 40
0.0
 40
0.0578765487
 40
0.1159429213
 40
0.1743792252
 40
0.2333495497
 40
0.2929914128
 40
0.3534147538
 40
0.4767146424
 40
0.603591223
 40
0.7336913862
 40
0.8661991897
 40
1.0
 40
1.0
 40
1.0
 40
1.0
 10
10.5977374683
 20
43.0334519826
 30
0.0
 10
10.4932809624
 20
43.0334520697
 30
0.0
 10
10.2838290201
 20
43.0453729886
 30
0.0
 10
9.9730500026
 20
43.0989354988
 30
0.0
 10
9.6683033534
 20
43.1875342294
 30
0.0
 10
9.3726365533
 20
43.3103842993
 30
0.0
 10
9.0888356582
 20
43.466208629
 30
0.0
 10
8.7277261887
 20
43.7174571205
 30
0.0
 10
8.3196667798
 20
44.1078120663
 30
0.0
 10
7.9223198339
 20
44.6722499624
 30
0.0
 10
7.6276502707
 20
45.3146759694
 30
0.0
 10
7.4464801887
 20
46.0103011053
 30
0.0
 10
7.4057973186
 20
46.4919492715
 30
0.0
 10
7.4057973186
 20
46.7334350798
 30
0.0
  0
SPLINE
  5
244
100
AcDbEntity
  8
0
100
AcDbSpline
 62
7
  6
BYLAYER
 70
0
 71
3
 72
18
 73
14
 74
0
 42
0.0000001
 43
0.0000001
 44
0.0000000001
 40
0.0
 40
0.0
 40
0.0
 40
0.0
 40
0.133798666
 40
0.2663045807
 40
0.3964040725
 40
0.5232810061
 40
0.646582232
 40
0.7070064196
 40
0.7666490752
 40
0.8256200774
 40
0.8840568372
 40
0.9421234526
 40
1.0
 40
1.0
 40
1.0
 40
1.0
 10
7.4057973186
 20
46.7334350798
 30
0.0
 10
7.4057973186
 20
46.9749170159
 30
0.0
 10
7.446478538
 20
47.4565579079
 30
0.0
 10
7.6276443019
 20
48.1521752384
 30
0.0
 10
7.9223078706
 20
48.7945994789
 30
0.0
 10
8.3196523103
 20
49.3590414826
 30
0.0
 10
8.7277129451
 20
49.7494017818
 30
0.0
 10
9.0888252974
 20
50.0006556134
 30
0.0
 10
9.3726296904
 20
50.1564823237
 30
0.0
 10
9.6682993552
 20
50.2793345407
 30
0.0
 10
9.97304834
 20
50.3679342663
 30
0.0
 10
10.2838285839
 20
50.4214969408
 30
0.0
 10
10.4932809549
 20
50.4334182641
 30
0.0
 10
10.5977374576
 20
50.433418177
 30
0.0
  0
SPLINE
  5
245
100
AcDbEntity
  8
0
100
AcDbSpline
 62
7
  6
BYLAYER
 70
0
 71
3
 72
11
 73
7
 74
0
 42
0.0000001
 43
0.0000001
 44
0.0000000001
 40
0.0
 40
0.0
 40
0.0
 40
0.0
 40
0.2322733953
 40
0.4790741405
 40
0.7366598215
 40
1.0
 40
1.0
 40
1.0
 40
1.0
 10
37.6692671748
 20
43.9702010487
 30
0.0
 10
37.8112258339
 20
44.1489782722
 30
0.0
 10
38.0651884039
 20
44.5495904103
 30
0.0
 10
38.338818041
 20
45.2233801477
 30
0.0
 10
38.5077754426
 20
45.9618044403
 30
0.0
 10
38.5456696693
 20
46.4746179517
 30
0.0
 10
38.5456696693
 20
46.7334350798
 30
0.0
  0
SPLINE
  5
246
100
AcDbEntity
  8
0
100
AcDbSpline
 62
7
  6
BYLAYER
 70
0
 71
3
 72
21
 73
17
 74
0
 42
0.0000001
 43
0.0000001
 44
0.0000000001
 40
0.0
 40
0.0
 40
0.0
 40
0.0
 40
0.1608943337
 40
0.3172138833
 40
0.3923459002
 40
0.4647955742
 40
0.5341370166
 40
0.6000210899
 40
0.6621840015
 40
0.7204648722
 40
0.7748380965
 40
0.8254343926
 40
0.8725845177
 40
0.916835899
 40
0.9589773625
 40
1.0
 40
1.0
 40
1.0
 40
1.0
 10
15.8654531431
 20
46.7334350798
 30
0.0
 10
15.8654531431
 20
46.4925206681
 30
0.0
 10
15.8887867835
 20
46.0172294499
 30
0.0
 10
15.9767117104
 20
45.435191922
 30
0.0
 10
16.0822004027
 20
44.9923129603
 30
0.0
 10
16.1760934911
 20
44.6811520392
 30
0.0
 10
16.2849214741
 20
44.3896077934
 30
0.0
 10
16.4076421396
 20
44.1204328391
 30
0.0
 10
16.5431163174
 20
43.8761652063
 30
0.0
 10
16.6901210325
 20
43.6591083701
 30
0.0
 10
16.8473270064
 20
43.4712918108
 30
0.0
 10
17.0134237016
 20
43.3145490555
 30
0.0
 10
17.1869696092
 20
43.1904223368
 30
0.0
 10
17.3665704943
 20
43.1004170735
 30
0.0
 10
17.5504138785
 20
43.0457141557
 30
0.0
 10
17.6752624628
 20
43.0334464218
 30
0.0
 10
17.7366875258
 20
43.0334464218
 30
0.0
  0
SPLINE
  5
247
100
AcDbEntity
  8
0
100
AcDbSpline
 62
7
  6
BYLAYER
 70
0
 71
3
 72
11
 73
7
 74
0
 42
0.0000001
 43
0.0000001
 44
0.0000000001
 40
0.0
 40
0.0
 40
0.0
 40
0.0
 40
0.2633401785
 40
0.5209258595
 40
0.7677266047
 40
1.0
 40
1.0
 40
1.0
 40
1.0
 10
38.5456696693
 20
46.7334350798
 30
0.0
 10
38.5456696693
 20
46.9922522079
 30
0.0
 10
38.5077754426
 20
47.5050657193
 30
0.0
 10
38.338818041
 20
48.2434900118
 30
0.0
 10
38.0651884039
 20
48.9172797493
 30
0.0
 10
37.8112258339
 20
49.3178918873
 30
0.0
 10
37.6692671748
 20
49.4966691109
 30
0.0
  0
SPLINE
  5
248
100
AcDbEntity
  8
0
100
AcDbSpline
 62
7
  6
BYLAYER
 70
0
 71
3
 72
21
 73
17
 74
0
 42
0.0000001
 43
0.0000001
 44
0.0000000001
 40
0.0
 40
0.0
 40
0.0
 40
0.0
 40
0.0410226375
 40
0.083164101
 40
0.1274154823
 40
0.1745656074
 40
0.2251619035
 40
0.2795351278
 40
0.3378159985
 40
0.3999789101
 40
0.4658629834
 40
0.5352044258
 40
0.6076540998
 40
0.6827861167
 40
0.8391056663
 40
1.0
 40
1.0
 40
1.0
 40
1.0
 10
17.7366875258
 20
50.4334237378
 30
0.0
 10
17.6752624628
 20
50.4334237378
 30
0.0
 10
17.5504138785
 20
50.4211560039
 30
0.0
 10
17.3665704943
 20
50.366453086
 30
0.0
 10
17.1869696092
 20
50.2764478228
 30
0.0
 10
17.0134237016
 20
50.1523211041
 30
0.0
 10
16.8473270064
 20
49.9955783488
 30
0.0
 10
16.6901210325
 20
49.8077617895
 30
0.0
 10
16.5431163174
 20
49.5907049533
 30
0.0
 10
16.4076421396
 20
49.3464373205
 30
0.0
 10
16.2849214741
 20
49.0772623661
 30
0.0
 10
16.1760934911
 20
48.7857181204
 30
0.0
 10
16.0822004027
 20
48.4745571993
 30
0.0
 10
15.9767117104
 20
48.0316782376
 30
0.0
 10
15.8887867835
 20
47.4496407097
 30
0.0
 10
15.8654531431
 20
46.9743494915
 30
0.0
 10
15.8654531431
 20
46.7334350798
 30
0.0
  0
SPLINE
  5
249
100
AcDbEntity
  8
0
100
AcDbSpline
 62
7
  6
BYLAYER
 70
0
 71
3
 72
13
 73
9
 74
0
 42
0.0000001
 43
0.0000001
 44
0.0000000001
 40
0.0
 40
0.0
 40
0.0
 40
0.0
 40
0.2401406904
 40
0.3691671989
 40
0.5005904635
 40
0.6319136259
 40
0.7606691695
 40
1.0
 40
1.0
 40
1.0
 40
1.0
 10
30.9293781054
 20
54.1339616527
 30
0.0
 10
30.9279314902
 20
54.2084146948
 30
0.0
 10
30.9476401238
 20
54.3248893143
 30
0.0
 10
31.0177103239
 20
54.4642708356
 30
0.0
 10
31.0932035434
 20
54.5606609414
 30
0.0
 10
31.1877555019
 20
54.6383157886
 30
0.0
 10
31.3251988762
 20
54.7113461448
 30
0.0
 10
31.4409415043
 20
54.7334351233
 30
0.0
 10
31.5151574631
 20
54.7334350826
 30
0.0
  0
SPLINE
  5
24A
100
AcDbEntity
  8
0
100
AcDbSpline
 62
7
  6
BYLAYER
 70
0
 71
3
 72
13
 73
9
 74
0
 42
0.0000001
 43
0.0000001
 44
0.0000000001
 40
0.0
 40
0.0
 40
0.0
 40
0.0
 40
0.3813669847
 40
0.6835367769
 40
0.8022166355
 40
0.8965457236
 40
0.9636442406
 40
1.0
 40
1.0
 40
1.0
 40
1.0
 10
30.9293752038
 20
54.1339604399
 30
0.0
 10
30.9106639621
 20
54.1268759358
 30
0.0
 10
30.8783455197
 20
54.1106057184
 30
0.0
 10
30.8453832424
 20
54.0837570195
 30
0.0
 10
30.8281629344
 20
54.0628474829
 30
0.0
 10
30.8203506555
 20
54.0503170632
 30
0.0
 10
30.8163700071
 20
54.0407163377
 30
0.0
 10
30.8151574453
 20
54.0353423807
 30
0.0
 10
30.8151570743
 20
54.0334350617
 30
0.0
  0
SPLINE
  5
24B
100
AcDbEntity
  8
0
100
AcDbSpline
 62
7
  6
BYLAYER
 70
0
 71
3
 72
11
 73
7
 74
0
 42
0.0000001
 43
0.0000001
 44
0.0000000001
 40
0.0
 40
0.0
 40
0.0
 40
0.0
 40
0.3200393449
 40
0.5946605778
 40
0.8218824775
 40
1.0
 40
1.0
 40
1.0
 40
1.0
 10
31.5151570285
 20
54.2684285649
 30
0.0
 10
31.4518262807
 20
54.2579040731
 30
0.0
 10
31.3343529506
 20
54.2371078221
 30
0.0
 10
31.1728706498
 20
54.2036725483
 30
0.0
 10
31.0404973853
 20
54.1706763364
 30
0.0
 10
30.962777468
 20
54.1463767407
 30
0.0
 10
30.9293801393
 20
54.1336781549
 30
0.0
  0
SPLINE
  5
24C
100
AcDbEntity
  8
0
100
AcDbSpline
 62
7
  6
BYLAYER
 70
0
 71
3
 72
14
 73
10
 74
0
 42
0.0000001
 43
0.0000001
 44
0.0000000001
 40
0.0
 40
0.0
 40
0.0
 40
0.0
 40
0.2973940458
 40
0.4398336748
 40
0.5749312674
 40
0.7004304686
 40
0.8142562448
 40
0.9146274557
 40
1.0
 40
1.0
 40
1.0
 40
1.0
 10
35.8151570511
 20
54.4334350798
 30
0.0
 10
35.3882449305
 20
54.4334350972
 30
0.0
 10
34.7568469881
 20
54.431933096
 30
0.0
 10
33.9315879048
 20
54.421209798
 30
0.0
 10
33.3531654896
 20
54.4078232637
 30
0.0
 10
32.8160313423
 20
54.3877464955
 30
0.0
 10
32.3291414324
 20
54.3598056978
 30
0.0
 10
31.9006433298
 20
54.3228082971
 30
0.0
 10
31.6360331143
 20
54.2886312816
 30
0.0
 10
31.5151571689
 20
54.2684253969
 30
0.0
  0
SPLINE
  5
24D
100
AcDbEntity
  8
0
100
AcDbSpline
 62
7
  6
BYLAYER
 70
0
 71
3
 72
14
 73
10
 74
0
 42
0.0000001
 43
0.0000001
 44
0.0000000001
 40
0.0
 40
0.0
 40
0.0
 40
0.0
 40
0.0853732292
 40
0.1857443837
 40
0.2995699738
 40
0.4250689771
 40
0.5601663881
 40
0.7026059054
 40
1.0
 40
1.0
 40
1.0
 40
1.0
 10
31.5151567102
 20
39.1984434897
 30
0.0
 10
31.6360305274
 20
39.1782177482
 30
0.0
 10
31.9006392022
 20
39.1440141894
 30
0.0
 10
32.3291372607
 20
39.1069995971
 30
0.0
 10
32.8160273618
 20
39.0790572471
 30
0.0
 10
33.3531619821
 20
39.0589911865
 30
0.0
 10
33.9315850123
 20
39.0456217565
 30
0.0
 10
34.7568453743
 20
39.0349238324
 30
0.0
 10
35.3882441868
 20
39.0334350625
 30
0.0
 10
35.815157051
 20
39.0334350797
 30
0.0
  0
SPLINE
  5
24E
100
AcDbEntity
  8
0
100
AcDbSpline
 62
7
  6
BYLAYER
 70
0
 71
3
 72
11
 73
7
 74
0
 42
0.0000001
 43
0.0000001
 44
0.0000000001
 40
0.0
 40
0.0
 40
0.0
 40
0.0
 40
0.1780987388
 40
0.4053165441
 40
0.6799449868
 40
1.0
 40
1.0
 40
1.0
 40
1.0
 10
30.9293369646
 20
39.333237269
 30
0.0
 10
30.9627350238
 20
39.3205426656
 30
0.0
 10
31.0404581605
 20
39.2962465007
 30
0.0
 10
31.1728383686
 20
39.2632437216
 30
0.0
 10
31.3343345284
 20
39.2297883056
 30
0.0
 10
31.4518189661
 20
39.2089706659
 30
0.0
 10
31.5151562573
 20
39.1984331065
 30
0.0
  0
SPLINE
  5
24F
100
AcDbEntity
  8
0
100
AcDbSpline
 62
7
  6
BYLAYER
 70
0
 71
3
 72
13
 73
9
 74
0
 42
0.0000001
 43
0.0000001
 44
0.0000000001
 40
0.0
 40
0.0
 40
0.0
 40
0.0
 40
0.0363595212
 40
0.1034654916
 40
0.1978031671
 40
0.3164897345
 40
0.6186575475
 40
1.0
 40
1.0
 40
1.0
 40
1.0
 10
30.8151570742
 20
39.4334354641
 30
0.0
 10
30.8151573646
 20
39.4315286552
 30
0.0
 10
30.8163693403
 20
39.4261560556
 30
0.0
 10
30.8203483392
 20
39.4165576941
 30
0.0
 10
30.8281576456
 20
39.4040304546
 30
0.0
 10
30.8453711268
 20
39.3831273793
 30
0.0
 10
30.8783206888
 20
39.3562892233
 30
0.0
 10
30.9106278988
 20
39.3400290481
 30
0.0
 10
30.9293319476
 20
39.3329501375
 30
0.0
  0
SPLINE
  5
250
100
AcDbEntity
  8
0
100
AcDbSpline
 62
7
  6
BYLAYER
 70
0
 71
3
 72
13
 73
9
 74
0
 42
0.0000001
 43
0.0000001
 44
0.0000000001
 40
0.0
 40
0.0
 40
0.0
 40
0.0
 40
0.3546767318
 40
0.6466442487
 40
0.7659847161
 40
0.8651068543
 40
0.9427888404
 40
1.0
 40
1.0
 40
1.0
 40
1.0
 10
60.326032919
 20
39.089405893
 30
0.0
 10
60.397429159
 20
39.1064281961
 30
0.0
 10
60.5247071791
 20
39.152159852
 30
0.0
 10
60.6595053459
 20
39.2377847824
 30
0.0
 10
60.739062541
 20
39.3074837253
 30
0.0
 10
60.7801526179
 20
39.35329753
 30
0.0
 10
60.8065078003
 20
39.3940372124
 30
0.0
 10
60.8151570743
 20
39.4215957022
 30
0.0
 10
60.8151570743
 20
39.4334350798
 30
0.0
  0
SPLINE
  5
251
100
AcDbEntity
  8
0
100
AcDbSpline
 62
7
  6
BYLAYER
 70
0
 71
3
 72
9
 73
5
 74
0
 42
0.0000001
 43
0.0000001
 44
0.0000000001
 40
0.0
 40
0.0
 40
0.0
 40
0.0
 40
0.2603518782
 40
1.0
 40
1.0
 40
1.0
 40
1.0
 10
60.1151569436
 20
39.0518861686
 30
0.0
 10
60.133612733
 20
39.0541372505
 30
0.0
 10
60.2043389953
 20
39.0641297405
 30
0.0
 10
60.2744255873
 20
39.0781495626
 30
0.0
 10
60.326032919
 20
39.089405893
 30
0.0
  0
SPLINE
  5
252
100
AcDbEntity
  8
0
100
AcDbSpline
 62
7
  6
BYLAYER
 70
0
 71
3
 72
9
 73
5
 74
0
 42
0.0000001
 43
0.0000001
 44
0.0000000001
 40
0.0
 40
0.0
 40
0.0
 40
0.0
 40
0.5117585765
 40
1.0
 40
1.0
 40
1.0
 40
1.0
 10
59.6151571706
 20
39.0334350795
 30
0.0
 10
59.7005452491
 20
39.0334337807
 30
0.0
 10
59.8673579912
 20
39.0331124618
 30
0.0
 10
60.0342927656
 20
39.0420170922
 30
0.0
 10
60.1151569436
 20
39.0518861686
 30
0.0
  0
SPLINE
  5
253
100
AcDbEntity
  8
0
100
AcDbSpline
 62
7
  6
BYLAYER
 70
0
 71
3
 72
13
 73
9
 74
0
 42
0.0000001
 43
0.0000001
 44
0.0000000001
 40
0.0
 40
0.0
 40
0.0
 40
0.0
 40
0.2401655183
 40
0.3691989757
 40
0.5006246573
 40
0.6319450286
 40
0.7606933757
 40
1.0
 40
1.0
 40
1.0
 40
1.0
 10
30.9293317961
 20
39.3329472558
 30
0.0
 10
30.9278864516
 20
39.2584823403
 30
0.0
 10
30.9476019308
 20
39.1419913221
 30
0.0
 10
31.0176879833
 20
39.0025961021
 30
0.0
 10
31.0931915668
 20
38.906202881
 30
0.0
 10
31.1877503087
 20
38.8285494159
 30
0.0
 10
31.3251942883
 20
38.7555246767
 30
0.0
 10
31.4409326111
 20
38.7334365631
 30
0.0
 10
31.5151451962
 20
38.7334350799
 30
0.0
  0
SPLINE
  5
254
100
AcDbEntity
  8
0
100
AcDbSpline
 62
7
  6
BYLAYER
 70
0
 71
3
 72
14
 73
10
 74
0
 42
0.0000001
 43
0.0000001
 44
0.0000000001
 40
0.0
 40
0.0
 40
0.0
 40
0.0
 40
0.2513679301
 40
0.3835330288
 40
0.5155633758
 40
0.6448314233
 40
0.7695346693
 40
0.8880188084
 40
1.0
 40
1.0
 40
1.0
 40
1.0
 10
31.5151571311
 20
39.1984434322
 30
0.0
 10
31.5124040298
 20
39.141133861
 30
0.0
 10
31.5231251316
 20
39.0518253922
 30
0.0
 10
31.5693982369
 20
38.9430198392
 30
0.0
 10
31.6203157628
 20
38.8681786005
 30
0.0
 10
31.6853047226
 20
38.8076507665
 30
0.0
 10
31.7589709603
 20
38.763834172
 30
0.0
 10
31.8367583909
 20
38.7388495559
 30
0.0
 10
31.8895040371
 20
38.7334350818
 30
0.0
 10
31.915064159
 20
38.7334350798
 30
0.0
  0
SPLINE
  5
255
100
AcDbEntity
  8
0
100
AcDbSpline
 62
7
  6
BYLAYER
 70
0
 71
3
 72
10
 73
6
 74
0
 42
0.0000001
 43
0.0000001
 44
0.0000000001
 40
0.0
 40
0.0
 40
0.0
 40
0.0
 40
0.5261167015
 40
0.7781422742
 40
1.0
 40
1.0
 40
1.0
 40
1.0
 10
60.1151563689
 20
39.0518860866
 30
0.0
 10
60.121451608
 20
39.0060031684
 30
0.0
 10
60.1229322381
 20
38.9363920425
 30
0.0
 10
60.1046287998
 20
38.8499696447
 30
0.0
 10
60.0878161592
 20
38.8112463682
 30
0.0
 10
60.0774630202
 20
38.7946868545
 30
0.0
  0
SPLINE
  5
256
100
AcDbEntity
  8
0
100
AcDbSpline
 62
7
  6
BYLAYER
 70
0
 71
3
 72
10
 73
6
 74
0
 42
0.0000001
 43
0.0000001
 44
0.0000000001
 40
0.0
 40
0.0
 40
0.0
 40
0.0
 40
0.551926207
 40
0.7838421454
 40
1.0
 40
1.0
 40
1.0
 40
1.0
 10
60.0774630202
 20
38.7946868545
 30
0.0
 10
60.0660022537
 20
38.7763557261
 30
0.0
 10
60.0447984638
 20
38.7520079199
 30
0.0
 10
60.0085826418
 20
38.7358724901
 30
0.0
 10
59.9909355118
 20
38.7334350798
 30
0.0
 10
59.9824686045
 20
38.7334350798
 30
0.0
  0
SPLINE
  5
257
100
AcDbEntity
  8
0
100
AcDbSpline
 62
7
  6
BYLAYER
 70
0
 71
3
 72
11
 73
7
 74
0
 42
0.0000001
 43
0.0000001
 44
0.0000000001
 40
0.0
 40
0.0
 40
0.0
 40
0.0
 40
0.2518165751
 40
0.5099047482
 40
0.7628265679
 40
1.0
 40
1.0
 40
1.0
 40
1.0
 10
60.3260329292
 20
39.0894058015
 30
0.0
 10
60.3310461554
 20
39.0644931848
 30
0.0
 10
60.3369434826
 20
39.0130631431
 30
0.0
 10
60.3310755316
 20
38.9357732531
 30
0.0
 10
60.3088240707
 20
38.8628926389
 30
0.0
 10
60.2819391198
 20
38.8203822292
 30
0.0
 10
60.2660576573
 20
38.8024760716
 30
0.0
  0
SPLINE
  5
258
100
AcDbEntity
  8
0
100
AcDbSpline
 62
7
  6
BYLAYER
 70
0
 71
3
 72
9
 73
5
 74
0
 42
0.0000001
 43
0.0000001
 44
0.0000000001
 40
0.0
 40
0.0
 40
0.0
 40
0.0
 40
0.5208033046
 40
1.0
 40
1.0
 40
1.0
 40
1.0
 10
60.2660576573
 20
38.8024760716
 30
0.0
 10
60.2492997808
 20
38.783581768
 30
0.0
 10
60.2106696996
 20
38.7521706464
 30
0.0
 10
60.1630758853
 20
38.7377691122
 30
0.0
 10
60.1400104534
 20
38.7349464205
 30
0.0
  0
SPLINE
  5
259
100
AcDbEntity
  8
0
100
AcDbSpline
 62
7
  6
BYLAYER
 70
0
 71
3
 72
9
 73
5
 74
0
 42
0.0000001
 43
0.0000001
 44
0.0000000001
 40
0.0
 40
0.0
 40
0.0
 40
0.0
 40
0.4882386204
 40
1.0
 40
1.0
 40
1.0
 40
1.0
 10
60.1151569367
 20
54.4149839921
 30
0.0
 10
60.0342932053
 20
54.4248528545
 30
0.0
 10
59.8673584694
 20
54.4337577954
 30
0.0
 10
59.7005457186
 20
54.4334363711
 30
0.0
 10
59.6151571741
 20
54.4334350801
 30
0.0
  0
SPLINE
  5
25A
100
AcDbEntity
  8
0
100
AcDbSpline
 62
7
  6
BYLAYER
 70
0
 71
3
 72
9
 73
5
 74
0
 42
0.0000001
 43
0.0000001
 44
0.0000000001
 40
0.0
 40
0.0
 40
0.0
 40
0.0
 40
0.2391032353
 40
1.0
 40
1.0
 40
1.0
 40
1.0
 10
60.3260329238
 20
54.3774642651
 30
0.0
 10
60.3093513621
 20
54.3811028276
 30
0.0
 10
60.2395053729
 20
54.395914233
 30
0.0
 10
60.1690909837
 20
54.4084055783
 30
0.0
 10
60.1151569367
 20
54.4149839921
 30
0.0
  0
SPLINE
  5
25B
100
AcDbEntity
  8
0
100
AcDbSpline
 62
7
  6
BYLAYER
 70
0
 71
3
 72
15
 73
11
 74
0
 42
0.0000001
 43
0.0000001
 44
0.0000000001
 40
0.0
 40
0.0
 40
0.0
 40
0.0
 40
0.0258247472
 40
0.0568708014
 40
0.1350150369
 40
0.2341207975
 40
0.3532998975
 40
0.4910367597
 40
0.6454471755
 40
1.0
 40
1.0
 40
1.0
 40
1.0
 10
60.8151570743
 20
54.0334353038
 30
0.0
 10
60.8151571863
 20
54.0387830188
 30
0.0
 10
60.8132981608
 20
54.0505549417
 30
0.0
 10
60.8036463622
 20
54.0768959926
 30
0.0
 10
60.7802517515
 20
54.1136407218
 30
0.0
 10
60.7391053223
 20
54.1593680231
 30
0.0
 10
60.6835507604
 20
54.2080574631
 30
0.0
 10
60.6143420979
 20
54.2579359912
 30
0.0
 10
60.497803709
 20
54.3244242074
 30
0.0
 10
60.3971880788
 20
54.3593698095
 30
0.0
 10
60.3260329238
 20
54.3774642651
 30
0.0
  0
SPLINE
  5
25C
100
AcDbEntity
  8
0
100
AcDbSpline
 62
7
  6
BYLAYER
 70
0
 71
3
 72
14
 73
10
 74
0
 42
0.0000001
 43
0.0000001
 44
0.0000000001
 40
0.0
 40
0.0
 40
0.0
 40
0.0
 40
0.2513765077
 40
0.3835446334
 40
0.5155764849
 40
0.6448439797
 40
0.7695446113
 40
0.888024363
 40
1.0
 40
1.0
 40
1.0
 40
1.0
 10
31.5151571973
 20
54.268424066
 30
0.0
 10
31.5124065057
 20
54.3257344888
 30
0.0
 10
31.5231306521
 20
54.4150430991
 30
0.0
 10
31.5694053112
 20
54.5238484165
 30
0.0
 10
31.6203220982
 20
54.5986888098
 30
0.0
 10
31.6853083147
 20
54.659216129
 30
0.0
 10
31.7589703019
 20
54.7030328021
 30
0.0
 10
31.8367524984
 20
54.7280185116
 30
0.0
 10
31.8894945833
 20
54.7334343136
 30
0.0
 10
31.9150528926
 20
54.7334350796
 30
0.0
  0
SPLINE
  5
25D
100
AcDbEntity
  8
0
100
AcDbSpline
 62
7
  6
BYLAYER
 70
0
 71
3
 72
10
 73
6
 74
0
 42
0.0000001
 43
0.0000001
 44
0.0000000001
 40
0.0
 40
0.0
 40
0.0
 40
0.0
 40
0.5249384151
 40
0.7773386989
 40
1.0
 40
1.0
 40
1.0
 40
1.0
 10
60.1151576152
 20
54.4149838853
 30
0.0
 10
60.1214385965
 20
54.4607648971
 30
0.0
 10
60.1229277519
 20
54.5302971832
 30
0.0
 10
60.1046959175
 20
54.6167370321
 30
0.0
 10
60.0878494196
 20
54.6555638688
 30
0.0
 10
60.0774592003
 20
54.6721840353
 30
0.0
  0
SPLINE
  5
25E
100
AcDbEntity
  8
0
100
AcDbSpline
 62
7
  6
BYLAYER
 70
0
 71
3
 72
10
 73
6
 74
0
 42
0.0000001
 43
0.0000001
 44
0.0000000001
 40
0.0
 40
0.0
 40
0.0
 40
0.0
 40
0.5511667945
 40
0.7833261258
 40
1.0
 40
1.0
 40
1.0
 40
1.0
 10
60.0774592003
 20
54.6721840353
 30
0.0
 10
60.0660151611
 20
54.6904898891
 30
0.0
 10
60.044836935
 20
54.7148238515
 30
0.0
 10
60.0086332603
 20
54.7309841118
 30
0.0
 10
59.9909567108
 20
54.7334350798
 30
0.0
 10
59.9824698081
 20
54.7334350798
 30
0.0
  0
SPLINE
  5
25F
100
AcDbEntity
  8
0
100
AcDbSpline
 62
7
  6
BYLAYER
 70
0
 71
3
 72
11
 73
7
 74
0
 42
0.0000001
 43
0.0000001
 44
0.0000000001
 40
0.0
 40
0.0
 40
0.0
 40
0.0
 40
0.2518121771
 40
0.5098967929
 40
0.762819784
 40
1.0
 40
1.0
 40
1.0
 40
1.0
 10
60.326038144
 20
54.3774626265
 30
0.0
 10
60.3310507608
 20
54.4023716424
 30
0.0
 10
60.3369479984
 20
54.4537942023
 30
0.0
 10
60.3310845047
 20
54.5310737899
 30
0.0
 10
60.3088415882
 20
54.603947085
 30
0.0
 10
60.2819661007
 20
54.6464565308
 30
0.0
 10
60.2660892628
 20
54.6643636678
 30
0.0
  0
SPLINE
  5
260
100
AcDbEntity
  8
0
100
AcDbSpline
 62
7
  6
BYLAYER
 70
0
 71
3
 72
9
 73
5
 74
0
 42
0.0000001
 43
0.0000001
 44
0.0000000001
 40
0.0
 40
0.0
 40
0.0
 40
0.0
 40
0.5204149497
 40
1.0
 40
1.0
 40
1.0
 40
1.0
 10
60.2660892628
 20
54.6643636678
 30
0.0
 10
60.2498053674
 20
54.6827299162
 30
0.0
 10
60.2124516161
 20
54.7134228079
 30
0.0
 10
60.1664586534
 20
54.7281856794
 30
0.0
 10
60.1440664257
 20
54.731386221
 30
0.0
  0
ENDSEC
  0
SECTION
  2
OBJECTS
  0
DICTIONARY
  5
C
100
AcDbDictionary
280
0
281
1
  3
ACAD_GROUP
350
D
  3
ACAD_MLINESTYLE
350
17
  3
ACAD_LAYOUT
350
1A
  3
ACAD_PLOTSETTINGS
350
19
  3
ACAD_PLOTSTYLENAME
350
E
  0
DICTIONARY
  5
D
102
{ACAD_REACTORS
330
C
102
}
100
AcDbDictionary
280
0
281
1
  0
ACDBDICTIONARYWDFLT
  5
E
102
{ACAD_REACTORS
330
C
102
}
100
AcDbDictionary
281
1
  3
Normal
350
F
100
AcDbDictionaryWithDefault
340
F
  0
DICTIONARY
  5
17
102
{ACAD_REACTORS
330
C
102
}
100
AcDbDictionary
280
0
281
1
  3
Standard
350
18
  0
DICTIONARY
  5
19
102
{ACAD_REACTORS
330
C
102
}
100
AcDbDictionary
281
1
  0
DICTIONARY
  5
1A
102
{ACAD_REACTORS
330
C
102
}
100
AcDbDictionary
281
1
  3
Model
350
261
  3
Layout1
350
262
  0
ACDBPLACEHOLDER
  5
F
102
{ACAD_REACTORS
330
E
102
}
  0
MLINESTYLE
  5
18
102
{ACAD_REACTORS
330
17
102
}
100
AcDbMlineStyle
  2
STANDARD
 70
0
  3

 62
256
 51
90.0
 52
90.0
 71
2
 49
0.5
 62
256
  6
BYLAYER
 49
-0.5
 62
256
  6
BYLAYER
  0
LAYOUT
  5
261
102
{ACAD_REACTORS
330
1A
102
}
100
AcDbPlotSettings
  1

  2
none_device
  4

  6

 40
0.0
 41
0.0
 42
0.0
 43
0.0
 44
210.0
 45
297.0
 46
0.0
 47
0.0
 48
0.0
 49
0.0
140
0.0
141
0.0
142
1.0
143
1.0
 70
1024
 72
1
 73
0
 74
0
  7

 75
0
147
1.0
148
0.0
149
0.0
100
AcDbLayout
  1
Model
 70
0
 71
0
 10
0.0
 20
0.0
 11
210.0
 21
297.0
 12
0.0
 22
0.0
 32
0.0
 14
0.0
 24
0.0
 34
0.0
 15
0.0
 25
0.0
 35
0.0
146
0.0
 13
0.0
 23
0.0
 33
0.0
 16
1.0
 26
0.0
 36
0.0
 17
0.0
 27
1.0
 37
0.0
 76
0
330
210
345
0
346
0
  0
LAYOUT
  5
262
102
{ACAD_REACTORS
330
1A
102
}
100
AcDbPlotSettings
  1

  2
none_device
  4

  6

 40
0.0
 41
0.0
 42
0.0
 43
0.0
 44
210.0
 45
297.0
 46
0.0
 47
0.0
 48
0.0
 49
0.0
140
0.0
141
0.0
142
1.0
143
1.0
 70
0
 72
1
 73
0
 74
0
  7

 75
0
147
1.0
148
0.0
149
0.0
100
AcDbLayout
  1
Layout1
 70
0
 71
1
 10
0.0
 20
0.0
 11
210.0
 21
297.0
 12
0.0
 22
0.0
 32
0.0
 14
0.0
 24
0.0
 34
0.0
 15
0.0
 25
0.0
 35
0.0
146
0.0
 13
0.0
 23
0.0
 33
0.0
 16
1.0
 26
0.0
 36
0.0
 17
0.0
 27
1.0
 37
0.0
 76
0
330
211
345
0
346
0
  0
ENDSEC
  0
EOF
