999
DXF file: C:\Users\sesa63760\Dev\_Creo\CAD\MCADID0004772_3D-CAD\drw0001_7.dxf
999
Pro/ENGINEER 2019471 by Parametric Technology Corporation
  0
SECTION
  2
HEADER
  9
$ACADVER
  1
AC1024
  9
$DWGCODEPAGE
  3
ANSI_1252
  9
$EXTMAX
 10
129.152020202
 20
182.6578571429
 30
0.0
  9
$EXTMIN
 10
0.0
 20
0.0
 30
0.0
  9
$LIMMIN
 10
0.0
 20
0.0
  9
$LIMMAX
 10
129.152020202
 20
182.6578571429
  9
$VIEWCTR
 10
64.576010101
 20
91.3289285714
  9
$VIEWSIZE
 40
182.6578571429
  9
$CLAYER
  8
0
  9
$LTSCALE
 40
11.9065862434
  9
$CELTYPE
  6
BYLAYER
  9
$DIMSCALE
 40
1.0
  9
$DIMASZ
 40
1.53752405
  9
$DIMEXO
 40
1.0
  9
$DIMDLI
 40
8.2263686772
  9
$DIMEXE
 40
1.0
  9
$DIMCEN
 40
1.9483504762
  9
$DIMLFAC
 40
1.0
  9
$DIMBLK
  1
_FILLED
  9
$DIMALT
 70
0
  9
$DIMALTF
 40
0.0393700787
  9
$DIMTXT
 40
2.15253367
  9
$DIMTOL
 70
1
  9
$DIMLIM
 70
0
  9
$DIMTFAC
 40
1.0
  9
$DIMTP
 40
0.01
  9
$DIMTM
 40
0.01
  9
$DIMGAP
 40
0.625
  9
$DIMDSEP
 70
46
  9
$AUNITS
 70
0
  9
$PDMODE
 70
3
  9
$PDSIZE
 40
0.3125
  9
$HANDSEED
  5
28D
  9
$TILEMODE
 70
1
  9
$MEASUREMENT
 70
1
  9
$INSUNITS
 70
4
  0
ENDSEC
  0
SECTION
  2
CLASSES
  0
CLASS
  1
ACDBDICTIONARYWDFLT
  2
AcDbDictionaryWithDefault
  3
AutoCAD 2000
 90
0
 91
1
280
0
281
0
  0
CLASS
  1
ACDBPLACEHOLDER
  2
AcDbPlaceHolder
  3
AutoCAD 2000
 90
0
 91
1
280
0
281
0
  0
CLASS
  1
LAYOUT
  2
AcDbLayout
  3
AutoCAD 2000
 90
0
 91
0
280
0
281
0
  0
ENDSEC
  0
SECTION
  2
TABLES
  0
TABLE
  2
VPORT
  5
8
100
AcDbSymbolTable
 70
2
  0
VPORT
  5
1F4
100
AcDbSymbolTableRecord
100
AcDbViewportTableRecord
  2
*ACTIVE
 70
0
 10
0.0
 20
0.0
 11
1.0
 21
1.0
 12
64.576010101
 22
91.3289285714
 13
0.0
 23
0.0
 14
1.0
 24
1.0
 15
0.0
 25
0.0
 16
0.0
 26
0.0
 36
1.0
 17
0.0
 27
0.0
 37
0.0
 40
182.6578571429
 41
0.7070707071
 42
50.0
 43
0.0
 44
0.0
 50
0.0
 51
0.0
 71
0
 72
100
 73
1
 74
1
 75
0
 76
0
 77
0
 78
0
  0
ENDTAB
  0
TABLE
  2
LTYPE
  5
5
100
AcDbSymbolTable
 70
6
  0
LTYPE
  5
14
100
AcDbSymbolTableRecord
100
AcDbLinetypeTableRecord
  2
BYBLOCK
 70
0
  3

 72
65
 73
0
 40
0.0
  0
LTYPE
  5
15
100
AcDbSymbolTableRecord
100
AcDbLinetypeTableRecord
  2
BYLAYER
 70
0
  3

 72
65
 73
0
 40
0.0
  0
LTYPE
  5
16
100
AcDbSymbolTableRecord
100
AcDbLinetypeTableRecord
  2
CONTINUOUS
 70
64
  3
Solid line
 72
65
 73
0
 40
0.0
  0
LTYPE
  5
1F5
100
AcDbSymbolTableRecord
100
AcDbLinetypeTableRecord
  2
CENTER
 70
64
  3
____ _ ____ _ ____ _ ____ _ ____ _ ____ _ ____
 72
65
 73
4
 40
0.6
 49
0.375
 74
0
 49
-0.075
 74
0
 49
0.075
 74
0
 49
-0.075
 74
0
  0
LTYPE
  5
1F6
100
AcDbSymbolTableRecord
100
AcDbLinetypeTableRecord
  2
HIDDEN
 70
64
  3
- - - - - - - - - - - - - - - - - - - -
 72
65
 73
2
 40
0.2
 49
0.1
 74
0
 49
-0.1
 74
0
  0
LTYPE
  5
1F7
100
AcDbSymbolTableRecord
100
AcDbLinetypeTableRecord
  2
PHANTOM
 70
64
  3
_____ _ _ _____ _ _ _____ _ _ _____
 72
65
 73
6
 40
0.8
 49
0.45
 74
0
 49
-0.05
 74
0
 49
0.1
 74
0
 49
-0.05
 74
0
 49
0.1
 74
0
 49
-0.05
 74
0
  0
LTYPE
  5
1F8
100
AcDbSymbolTableRecord
100
AcDbLinetypeTableRecord
  2
DOT
 70
64
  3
. . . . . . . . . . . . . . . . . . . .
 72
65
 73
2
 40
0.2
 49
0.1
 74
0
 49
-0.1
 74
0
  0
LTYPE
  5
1F9
100
AcDbSymbolTableRecord
100
AcDbLinetypeTableRecord
  2
DASHED
 70
64
  3
- - - - - - - - - - - - - - - - - - - -
 72
65
 73
2
 40
0.2
 49
0.1
 74
0
 49
-0.1
 74
0
  0
ENDTAB
  0
TABLE
  2
LAYER
  5
2
100
AcDbSymbolTable
 70
36
  0
LAYER
  5
10
100
AcDbSymbolTableRecord
100
AcDbLayerTableRecord
  2
0
 70
0
 62
7
  6
CONTINUOUS
370
-3
390
F
  0
LAYER
  5
1FA
100
AcDbSymbolTableRecord
100
AcDbLayerTableRecord
  2
DEFAULT_1
 70
0
 62
7
  6
CENTER
370
-3
390
F
  0
LAYER
  5
1FB
100
AcDbSymbolTableRecord
100
AcDbLayerTableRecord
  2
DEFAULT_2
 70
0
 62
7
  6
HIDDEN
370
-3
390
F
  0
LAYER
  5
1FC
100
AcDbSymbolTableRecord
100
AcDbLayerTableRecord
  2
DEFAULT_3
 70
0
 62
7
  6
PHANTOM
370
-3
390
F
  0
LAYER
  5
1FD
100
AcDbSymbolTableRecord
100
AcDbLayerTableRecord
  2
00_COMPONENTS
 70
0
 62
7
  6
CONTINUOUS
370
-3
390
F
  0
LAYER
  5
1FE
100
AcDbSymbolTableRecord
100
AcDbLayerTableRecord
  2
01_1_DEFAULT_DATUMS
 70
0
 62
7
  6
CONTINUOUS
370
-3
390
F
  0
LAYER
  5
1FF
100
AcDbSymbolTableRecord
100
AcDbLayerTableRecord
  2
01_PLANES
 70
0
 62
7
  6
CONTINUOUS
370
-3
390
F
  0
LAYER
  5
200
100
AcDbSymbolTableRecord
100
AcDbLayerTableRecord
  2
02_COORD_SYS
 70
0
 62
7
  6
CONTINUOUS
370
-3
390
F
  0
LAYER
  5
201
100
AcDbSymbolTableRecord
100
AcDbLayerTableRecord
  2
03_AXES
 70
0
 62
7
  6
CONTINUOUS
370
-3
390
F
  0
LAYER
  5
202
100
AcDbSymbolTableRecord
100
AcDbLayerTableRecord
  2
04_POINTS
 70
0
 62
7
  6
CONTINUOUS
370
-3
390
F
  0
LAYER
  5
203
100
AcDbSymbolTableRecord
100
AcDbLayerTableRecord
  2
05_CURVES
 70
0
 62
7
  6
CONTINUOUS
370
-3
390
F
  0
LAYER
  5
204
100
AcDbSymbolTableRecord
100
AcDbLayerTableRecord
  2
06_SURFS
 70
0
 62
7
  6
CONTINUOUS
370
-3
390
F
  0
LAYER
  5
205
100
AcDbSymbolTableRecord
100
AcDbLayerTableRecord
  2
07_COSMETICS
 70
0
 62
7
  6
CONTINUOUS
370
-3
390
F
  0
LAYER
  5
206
100
AcDbSymbolTableRecord
100
AcDbLayerTableRecord
  2
10_NOTES
 70
0
 62
7
  6
CONTINUOUS
370
-3
390
F
  0
LAYER
  5
207
100
AcDbSymbolTableRecord
100
AcDbLayerTableRecord
  2
11_NOTES_PUB
 70
0
 62
7
  6
CONTINUOUS
370
-3
390
F
  0
LAYER
  5
208
100
AcDbSymbolTableRecord
100
AcDbLayerTableRecord
  2
13_REF_GTOL
 70
0
 62
7
  6
CONTINUOUS
370
-3
390
F
  0
LAYER
  5
209
100
AcDbSymbolTableRecord
100
AcDbLayerTableRecord
  2
16_MISC
 70
0
 62
7
  6
CONTINUOUS
370
-3
390
F
  0
LAYER
  5
20A
100
AcDbSymbolTableRecord
100
AcDbLayerTableRecord
  2
17_NO_PRINT
 70
0
 62
7
  6
CONTINUOUS
370
-3
390
F
  0
LAYER
  5
20B
100
AcDbSymbolTableRecord
100
AcDbLayerTableRecord
  2
18_DATUM_CAMS_JOINTS
 70
0
 62
7
  6
CONTINUOUS
370
-3
390
F
  0
LAYER
  5
20C
100
AcDbSymbolTableRecord
100
AcDbLayerTableRecord
  2
19_DATUM_FUNCTIONAL
 70
0
 62
7
  6
CONTINUOUS
370
-3
390
F
  0
LAYER
  5
20D
100
AcDbSymbolTableRecord
100
AcDbLayerTableRecord
  2
20_DATUM_KINEMATIC_SCHEME
 70
0
 62
7
  6
CONTINUOUS
370
-3
390
F
  0
ENDTAB
  0
TABLE
  2
STYLE
  5
3
100
AcDbSymbolTable
 70
1
  0
STYLE
  5
11
100
AcDbSymbolTableRecord
100
AcDbTextStyleTableRecord
  2
STANDARD
 70
0
 40
0.0
 41
1.0
 50
0.0
 71
0
 42
0.2
  3
ARIAL.TTF
  4

  0
STYLE
  5
20E
100
AcDbSymbolTableRecord
100
AcDbTextStyleTableRecord
  2
TEXTSTYLE_1
 70
0
 40
0.0
 41
0.8
 50
0.0
 71
0
 42
0.2
  3
gdt
  4

  0
ENDTAB
  0
TABLE
  2
VIEW
  5
6
100
AcDbSymbolTable
 70
0
  0
ENDTAB
  0
TABLE
  2
UCS
  5
7
100
AcDbSymbolTable
 70
0
  0
ENDTAB
  0
TABLE
  2
APPID
  5
9
100
AcDbSymbolTable
 70
1
  0
APPID
  5
20F
100
AcDbSymbolTableRecord
100
AcDbRegAppTableRecord
  2
ACAD
 70
0
  0
ENDTAB
  0
TABLE
  2
BLOCK_RECORD
  5
1
100
AcDbSymbolTable
 70
0
  0
BLOCK_RECORD
  5
210
100
AcDbSymbolTableRecord
100
AcDbBlockTableRecord
  2
*Model_Space
  0
BLOCK_RECORD
  5
211
100
AcDbSymbolTableRecord
100
AcDbBlockTableRecord
  2
*Paper_Space
  0
BLOCK_RECORD
  5
212
100
AcDbSymbolTableRecord
100
AcDbBlockTableRecord
  2
_FILLED
  0
ENDTAB
  0
TABLE
  2
DIMSTYLE
  5
A
100
AcDbSymbolTable
 70
1
100
AcDbDimStyleTable
 71
0
  0
DIMSTYLE
105
213
100
AcDbSymbolTableRecord
100
AcDbDimStyleTableRecord
  2
STANDARD
 70
0
  3

  4

 40
1.0
 41
1.53752405
 42
1.0
 43
0.38
 44
1.0
 45
0.0
 46
0.0
 47
0.01
 48
0.01
140
2.15253367
141
0.09
142
0.0
143
25.4
144
1.0
145
0.0
146
1.0
147
0.625
 71
1
 72
0
 73
0
 74
0
 75
0
 76
0
 77
1
 78
8
 79
2
170
0
171
1
172
0
173
0
174
0
175
0
176
0
177
0
178
0
270
2
179
2
271
2
272
2
273
2
274
2
275
0
280
0
281
0
282
0
283
1
284
8
285
0
286
0
287
3
288
0
340
11
278
46
341
212
342
212
343
212
344
212
  0
ENDTAB
  0
ENDSEC
  0
SECTION
  2
BLOCKS
  0
BLOCK
  5
20
100
AcDbEntity
  8
0
100
AcDbBlockBegin
  2
*Model_Space
 70
0
 10
0.0
 20
0.0
 30
0.0
  3
*Model_Space
  1

  0
ENDBLK
  5
21
100
AcDbEntity
  8
0
100
AcDbBlockEnd
  0
BLOCK
  5
1C
100
AcDbEntity
  8
0
100
AcDbBlockBegin
  2
*Paper_Space
 70
0
 10
0.0
 20
0.0
 30
0.0
  3
*Paper_Space
  1

  0
ENDBLK
  5
1D
100
AcDbEntity
  8
0
100
AcDbBlockEnd
  0
BLOCK
  5
214
100
AcDbEntity
  8
0
100
AcDbBlockBegin
  2
_FILLED
 70
64
 10
0.0
 20
0.0
  3
_FILLED
  1

  0
SOLID
  5
215
100
AcDbEntity
  8
0
  6
BYBLOCK
 62
0
100
AcDbTrace
 10
0.0
 20
0.0
 11
-1.0
 21
0.25
 12
-1.0
 22
-0.25
 13
-1.0
 23
-0.25
  0
ENDBLK
  5
216
100
AcDbEntity
  8
0
  6
BYBLOCK
 62
0
100
AcDbBlockEnd
  0
ENDSEC
  0
SECTION
  2
ENTITIES
  0
LINE
  5
217
100
AcDbEntity
  8
0
100
AcDbLine
 62
7
  6
BYLAYER
 10
71.7995719701
 20
13.5260714286
 11
57.7995910891
 21
13.5260714286
  0
LINE
  5
218
100
AcDbEntity
  8
0
100
AcDbLine
 62
7
  6
BYLAYER
 10
78.5495815296
 20
22.8260714286
 11
51.0495815296
 21
22.8260714286
  0
LINE
  5
219
100
AcDbEntity
  8
0
100
AcDbLine
 62
7
  6
BYLAYER
 10
78.3995815296
 20
23.0260714286
 11
75.1995815296
 21
23.0260714286
  0
LINE
  5
21A
100
AcDbEntity
  8
0
100
AcDbLine
 62
7
  6
BYLAYER
 10
54.3995815296
 20
23.0260714286
 11
51.1995815296
 21
23.0260714286
  0
LINE
  5
21B
100
AcDbEntity
  8
0
100
AcDbLine
 62
7
  6
BYLAYER
 10
78.7995815296
 20
23.4260714286
 11
74.7995815296
 21
23.4260714286
  0
LINE
  5
21C
100
AcDbEntity
  8
0
100
AcDbLine
 62
7
  6
BYLAYER
 10
54.7995815296
 20
23.4260714286
 11
50.7995815296
 21
23.4260714286
  0
LINE
  5
21D
100
AcDbEntity
  8
0
100
AcDbLine
 62
7
  6
BYLAYER
 10
56.7171447652
 20
23.6260714286
 11
72.8820188034
 21
23.6260714286
  0
LINE
  5
21E
100
AcDbEntity
  8
0
100
AcDbLine
 62
7
  6
BYLAYER
 10
81.0995815296
 20
23.8260714286
 11
78.7995815296
 21
23.8260714286
  0
LINE
  5
21F
100
AcDbEntity
  8
0
100
AcDbLine
 62
7
  6
BYLAYER
 10
48.4995815296
 20
23.8260714286
 11
50.7995815296
 21
23.8260714286
  0
LINE
  5
220
100
AcDbEntity
  8
0
100
AcDbLine
 62
7
  6
BYLAYER
 10
56.5995815296
 20
23.8260714286
 11
72.9995815295
 21
23.8260714286
  0
LINE
  5
221
100
AcDbEntity
  8
0
100
AcDbLine
 62
7
  6
BYLAYER
 10
81.2995815296
 20
24.0260714286
 11
78.7995815296
 21
24.026056239
  0
LINE
  5
222
100
AcDbEntity
  8
0
100
AcDbLine
 62
7
  6
BYLAYER
 10
73.1995815296
 20
24.0260714286
 11
56.3995815296
 21
24.0260714286
  0
LINE
  5
223
100
AcDbEntity
  8
0
100
AcDbLine
 62
7
  6
BYLAYER
 10
50.7995815296
 20
24.0260714283
 11
48.2995815296
 21
24.0260714286
  0
LINE
  5
224
100
AcDbEntity
  8
0
100
AcDbLine
 62
7
  6
BYLAYER
 10
81.0995865671
 20
28.2260714558
 11
78.7995815296
 21
28.226070436
  0
LINE
  5
225
100
AcDbEntity
  8
0
100
AcDbLine
 62
7
  6
BYLAYER
 10
50.7995815296
 20
28.2260704212
 11
48.4995763891
 21
28.2260714299
  0
LINE
  5
226
100
AcDbEntity
  8
0
100
AcDbLine
 62
7
  6
BYLAYER
 10
56.3995815296
 20
28.226062107
 11
54.7995815296
 21
28.2260714286
  0
LINE
  5
227
100
AcDbEntity
  8
0
100
AcDbLine
 62
7
  6
BYLAYER
 10
81.0995812072
 20
28.4260714286
 11
73.3995816165
 21
28.4260714286
  0
LINE
  5
228
100
AcDbEntity
  8
0
100
AcDbLine
 62
7
  6
BYLAYER
 10
56.1995815297
 20
28.4260714286
 11
48.4995818519
 21
28.4260714286
  0
LINE
  5
229
100
AcDbEntity
  8
0
100
AcDbLine
 62
7
  6
BYLAYER
 10
74.7995815296
 20
28.2260714286
 11
73.1995815296
 21
28.2260620967
  0
LINE
  5
22A
100
AcDbEntity
  8
0
100
AcDbLine
 62
7
  6
BYLAYER
 10
81.1078855825
 20
28.226010708
 11
81.0995815296
 21
28.2260714931
  0
LINE
  5
22B
100
AcDbEntity
  8
0
100
AcDbLine
 62
7
  6
BYLAYER
 10
81.2995815296
 20
28.6260714286
 11
73.3996746407
 21
28.626071428
  0
LINE
  5
22C
100
AcDbEntity
  8
0
100
AcDbLine
 62
7
  6
BYLAYER
 10
56.1994972724
 20
28.6260714281
 11
48.2995815296
 21
28.6260714286
  0
LINE
  5
22D
100
AcDbEntity
  8
0
100
AcDbLine
 62
7
  6
BYLAYER
 10
56.3997540054
 20
28.2260107067
 11
56.3995815296
 21
28.2260714932
  0
LINE
  5
22E
100
AcDbEntity
  8
0
100
AcDbLine
 62
7
  6
BYLAYER
 10
51.1995815296
 20
23.0260714286
 11
50.7995815296
 21
23.4260714286
  0
LINE
  5
22F
100
AcDbEntity
  8
0
100
AcDbLine
 62
7
  6
BYLAYER
 10
48.2995815296
 20
42.8260714286
 11
81.2995815296
 21
42.8260714286
  0
LINE
  5
230
100
AcDbEntity
  8
0
100
AcDbLine
 62
7
  6
BYLAYER
 10
48.2995815296
 20
43.0260714286
 11
81.2995815296
 21
43.0260714286
  0
LINE
  5
231
100
AcDbEntity
  8
0
100
AcDbLine
 62
7
  6
BYLAYER
 10
64.2995815296
 20
43.4260714286
 11
65.2995815296
 21
43.4260714286
  0
LINE
  5
232
100
AcDbEntity
  8
0
100
AcDbLine
 62
7
  6
BYLAYER
 10
64.2995815296
 20
44.0260714286
 11
65.2995815296
 21
44.0260714286
  0
LINE
  5
233
100
AcDbEntity
  8
0
100
AcDbLine
 62
7
  6
BYLAYER
 10
48.2995815296
 20
48.5260714286
 11
81.2995815296
 21
48.5260714286
  0
LINE
  5
234
100
AcDbEntity
  8
0
100
AcDbLine
 62
7
  6
BYLAYER
 10
48.7995816545
 20
49.0260714286
 11
80.7995814047
 21
49.0260714286
  0
LINE
  5
235
100
AcDbEntity
  8
0
100
AcDbLine
 62
7
  6
BYLAYER
 10
71.1955204808
 20
49.4953378183
 11
58.4377402895
 21
49.4953378183
  0
LINE
  5
236
100
AcDbEntity
  8
0
100
AcDbLine
 62
7
  6
BYLAYER
 10
58.6648896898
 20
52.0916673446
 11
70.9683710805
 21
52.0916673446
  0
LINE
  5
237
100
AcDbEntity
  8
0
100
AcDbLine
 62
7
  6
BYLAYER
 10
60.5576629102
 20
53.8260714286
 11
69.0755437454
 21
53.8260714286
  0
LINE
  5
238
100
AcDbEntity
  8
0
100
AcDbLine
 62
7
  6
BYLAYER
 10
68.2201834913
 20
53.9725183224
 11
61.413077279
 21
53.9725183224
  0
LINE
  5
239
100
AcDbEntity
  8
0
100
AcDbLine
 62
7
  6
BYLAYER
 10
67.91661262
 20
55.0260714286
 11
61.7166481503
 21
55.0260714286
  0
LINE
  5
23A
100
AcDbEntity
  8
0
100
AcDbLine
 62
7
  6
BYLAYER
 10
75.1995815296
 20
23.0260714286
 11
74.7995815296
 21
23.4260714286
  0
LINE
  5
23B
100
AcDbEntity
  8
0
100
AcDbLine
 62
7
  6
BYLAYER
 10
61.716819194
 20
70.0260714286
 11
62.05113027
 21
70.0260714286
  0
LINE
  5
23C
100
AcDbEntity
  8
0
100
AcDbLine
 62
7
  6
BYLAYER
 10
63.435184424
 20
70.0260714286
 11
67.91661262
 21
70.0260714286
  0
LINE
  5
23D
100
AcDbEntity
  8
0
100
AcDbLine
 62
7
  6
BYLAYER
 10
67.1666303851
 20
55.0260714286
 11
68.2201834913
 21
53.9725183224
  0
LINE
  5
23E
100
AcDbEntity
  8
0
100
AcDbLine
 62
7
  6
BYLAYER
 10
48.2995815296
 20
48.5260714286
 11
48.2995815296
 21
43.0260714286
  0
LINE
  5
23F
100
AcDbEntity
  8
0
100
AcDbLine
 62
7
  6
BYLAYER
 10
48.2995815296
 20
24.0260714286
 11
48.2995815296
 21
42.8260714286
  0
LINE
  5
240
100
AcDbEntity
  8
0
100
AcDbLine
 62
7
  6
BYLAYER
 10
48.4995815296
 20
23.8260714286
 11
48.4995654809
 21
28.4260714286
  0
LINE
  5
241
100
AcDbEntity
  8
0
100
AcDbLine
 62
7
  6
BYLAYER
 10
62.9166303852
 20
71.4260714286
 11
61.7166303852
 21
71.4260714286
  0
LINE
  5
242
100
AcDbEntity
  8
0
100
AcDbLine
 62
7
  6
BYLAYER
 10
49.7995815296
 20
28.4260714286
 11
49.7995815296
 21
49.0260714286
  0
LINE
  5
243
100
AcDbEntity
  8
0
100
AcDbLine
 62
7
  6
BYLAYER
 10
50.7995815296
 20
23.4260714286
 11
50.7995815296
 21
28.4260714286
  0
LINE
  5
244
100
AcDbEntity
  8
0
100
AcDbLine
 62
7
  6
BYLAYER
 10
51.0495815296
 20
23.1760714286
 11
51.0495815296
 21
22.8260714286
  0
LINE
  5
245
100
AcDbEntity
  8
0
100
AcDbLine
 62
7
  6
BYLAYER
 10
54.7995815296
 20
28.4260714286
 11
54.7995815296
 21
23.4260714286
  0
LINE
  5
246
100
AcDbEntity
  8
0
100
AcDbLine
 62
7
  6
BYLAYER
 10
56.1995792067
 20
28.4260714286
 11
56.1995716726
 21
28.6260714283
  0
LINE
  5
247
100
AcDbEntity
  8
0
100
AcDbLine
 62
7
  6
BYLAYER
 10
56.3228790206
 20
28.226056308
 11
56.3228790206
 21
24.0260714174
  0
LINE
  5
248
100
AcDbEntity
  8
0
100
AcDbLine
 62
7
  6
BYLAYER
 10
56.3995815296
 20
24.0260632851
 11
56.3995815296
 21
28.2260714558
  0
LINE
  5
249
100
AcDbEntity
  8
0
100
AcDbLine
 62
7
  6
BYLAYER
 10
56.5995815296
 20
23.8260714286
 11
56.5995806005
 21
28.2252007746
  0
LINE
  5
24A
100
AcDbEntity
  8
0
100
AcDbLine
 62
7
  6
BYLAYER
 10
57.7995815296
 20
13.5260714286
 11
57.7995815296
 21
22.8260714286
  0
LINE
  5
24B
100
AcDbEntity
  8
0
100
AcDbLine
 62
7
  6
BYLAYER
 10
61.7166303852
 20
170.0260714286
 11
61.7166303852
 21
71.4260714286
  0
LINE
  5
24C
100
AcDbEntity
  8
0
100
AcDbLine
 62
7
  6
BYLAYER
 10
61.7166303852
 20
55.0260714286
 11
61.7166303852
 21
70.0260714286
  0
LINE
  5
24D
100
AcDbEntity
  8
0
100
AcDbLine
 62
7
  6
BYLAYER
 10
62.9166303852
 20
71.4260714286
 11
62.9166303852
 21
170.0260714286
  0
LINE
  5
24E
100
AcDbEntity
  8
0
100
AcDbLine
 62
7
  6
BYLAYER
 10
64.2995815296
 20
43.0260714286
 11
64.2995815296
 21
44.0260714286
  0
LINE
  5
24F
100
AcDbEntity
  8
0
100
AcDbLine
 62
7
  6
BYLAYER
 10
65.2995815296
 20
43.0260714286
 11
65.2995815296
 21
44.0260714286
  0
LINE
  5
250
100
AcDbEntity
  8
0
100
AcDbLine
 62
7
  6
BYLAYER
 10
58.4377402895
 20
49.4953378183
 11
58.6648896898
 21
52.0916673446
  0
LINE
  5
251
100
AcDbEntity
  8
0
100
AcDbLine
 62
7
  6
BYLAYER
 10
70.9683710805
 20
52.0916673446
 11
71.1955204808
 21
49.4953378183
  0
LINE
  5
252
100
AcDbEntity
  8
0
100
AcDbLine
 62
7
  6
BYLAYER
 10
67.9166303852
 20
55.0260714286
 11
67.9166303852
 21
70.0260714286
  0
LINE
  5
253
100
AcDbEntity
  8
0
100
AcDbLine
 62
7
  6
BYLAYER
 10
71.7995815296
 20
13.5260714286
 11
71.7995815296
 21
22.8260714286
  0
LINE
  5
254
100
AcDbEntity
  8
0
100
AcDbLine
 62
7
  6
BYLAYER
 10
72.9995815302
 20
28.2259903412
 11
72.9995815296
 21
23.8260714286
  0
LINE
  5
255
100
AcDbEntity
  8
0
100
AcDbLine
 62
7
  6
BYLAYER
 10
73.1995815296
 20
28.2260714299
 11
73.1995815296
 21
24.0260714285
  0
LINE
  5
256
100
AcDbEntity
  8
0
100
AcDbLine
 62
7
  6
BYLAYER
 10
73.2762840385
 20
24.0260715075
 11
73.2762840385
 21
28.2260562914
  0
LINE
  5
257
100
AcDbEntity
  8
0
100
AcDbLine
 62
7
  6
BYLAYER
 10
73.3995923589
 20
28.6260714283
 11
73.3995842049
 21
28.4260714286
  0
LINE
  5
258
100
AcDbEntity
  8
0
100
AcDbLine
 62
7
  6
BYLAYER
 10
74.7995815296
 20
23.4260714286
 11
74.7995815296
 21
28.4260714286
  0
LINE
  5
259
100
AcDbEntity
  8
0
100
AcDbLine
 62
7
  6
BYLAYER
 10
78.5495815296
 20
22.8260714286
 11
78.5495815296
 21
23.1760714286
  0
LINE
  5
25A
100
AcDbEntity
  8
0
100
AcDbLine
 62
7
  6
BYLAYER
 10
78.7995815296
 20
28.4260714286
 11
78.7995815296
 21
23.4260714286
  0
LINE
  5
25B
100
AcDbEntity
  8
0
100
AcDbLine
 62
7
  6
BYLAYER
 10
79.7995815296
 20
49.0260714286
 11
79.7995815296
 21
28.4260714286
  0
LINE
  5
25C
100
AcDbEntity
  8
0
100
AcDbLine
 62
7
  6
BYLAYER
 10
81.0995815296
 20
23.8260714286
 11
81.0995976961
 21
28.4260714286
  0
LINE
  5
25D
100
AcDbEntity
  8
0
100
AcDbLine
 62
7
  6
BYLAYER
 10
81.2995815296
 20
24.0260714286
 11
81.2995815296
 21
42.8260714286
  0
LINE
  5
25E
100
AcDbEntity
  8
0
100
AcDbLine
 62
7
  6
BYLAYER
 10
81.2995815296
 20
43.0260714286
 11
81.2995815296
 21
48.5260714286
  0
LINE
  5
25F
100
AcDbEntity
  8
0
100
AcDbLine
 62
7
  6
BYLAYER
 10
61.413077279
 20
53.9725183224
 11
62.4666303852
 21
55.0260714286
  0
LINE
  5
260
100
AcDbEntity
  8
0
100
AcDbLine
 62
7
  6
BYLAYER
 10
54.7995815296
 20
23.4260714286
 11
54.3995815296
 21
23.0260714286
  0
LINE
  5
261
100
AcDbEntity
  8
0
100
AcDbLine
 62
7
  6
BYLAYER
 10
78.7995815296
 20
23.4260714286
 11
78.3995815296
 21
23.0260714286
  0
LINE
  5
262
100
AcDbEntity
  8
0
100
AcDbLine
 62
7
  6
BYLAYER
 10
61.7166303852
 20
170.0260714286
 11
62.9166303852
 21
170.0260714286
  0
ARC
  5
263
100
AcDbEntity
  8
0
100
AcDbCircle
 62
7
  6
BYLAYER
 10
64.8166303852
 20
71.4260714286
 40
3.1
100
AcDbArc
 50
180.0
 51
233.7506791171
  0
ARC
  5
264
100
AcDbEntity
  8
0
100
AcDbCircle
 62
7
  6
BYLAYER
 10
69.0756011545
 20
51.9260714286
 40
1.9
100
AcDbArc
 50
5.0000001459
 51
90.0
  0
ARC
  5
265
100
AcDbEntity
  8
0
100
AcDbCircle
 62
7
  6
BYLAYER
 10
60.5576596158
 20
51.9260714286
 40
1.9
100
AcDbArc
 50
90.0
 51
174.9999998541
  0
ARC
  5
266
100
AcDbEntity
  8
0
100
AcDbCircle
 62
7
  6
BYLAYER
 10
64.8166303852
 20
71.4260714286
 40
1.9
100
AcDbArc
 50
180.0
 51
227.463101637
  0
ARC
  5
267
100
AcDbEntity
  8
0
100
AcDbCircle
 62
7
  6
BYLAYER
 10
56.943448242
 20
49.6260714286
 40
1.5
100
AcDbArc
 50
333.1239780751
 51
355.0
  0
ARC
  5
268
100
AcDbEntity
  8
0
100
AcDbCircle
 62
7
  6
BYLAYER
 10
72.6898125283
 20
49.6260714286
 40
1.5
100
AcDbArc
 50
185.0
 51
206.8760219249
  0
ARC
  5
269
100
AcDbEntity
  8
0
100
AcDbCircle
 62
7
  6
BYLAYER
 10
80.7995815296
 20
48.5260714286
 40
0.5
100
AcDbArc
 50
0.0
 51
90.0
  0
ARC
  5
26A
100
AcDbEntity
  8
0
100
AcDbCircle
 62
7
  6
BYLAYER
 10
48.7995815296
 20
48.5260714286
 40
0.5
100
AcDbArc
 50
90.0
 51
180.0
  0
ARC
  5
26B
100
AcDbEntity
  8
0
100
AcDbCircle
 62
7
  6
BYLAYER
 10
68.5737371663
 20
54.3260714286
 40
0.5
100
AcDbArc
 50
225.0
 51
269.9999268757
  0
ARC
  5
26C
100
AcDbEntity
  8
0
100
AcDbCircle
 62
7
  6
BYLAYER
 10
61.059523604
 20
54.3260714286
 40
0.5
100
AcDbArc
 50
270.0000731243
 51
315.0
  0
ARC
  5
26D
100
AcDbEntity
  8
0
100
AcDbCircle
 62
7
  6
BYLAYER
 10
56.1996133507
 20
28.2261027954
 40
0.39995666
100
AcDbArc
 50
359.8707846698
 51
90.0166283049
  0
ARC
  5
26E
100
AcDbEntity
  8
0
100
AcDbCircle
 62
7
  6
BYLAYER
 10
73.399548069
 20
28.2261015025
 40
0.3999561309
100
AcDbArc
 50
89.9818685665
 51
180.0159240205
  0
ARC
  5
26F
100
AcDbEntity
  8
0
100
AcDbCircle
 62
7
  6
BYLAYER
 10
56.6710009617
 20
24.021684679
 40
0.3481495738
100
AcDbArc
 50
179.2780401819
 51
182.7736987984
  0
ARC
  5
270
100
AcDbEntity
  8
0
100
AcDbCircle
 62
7
  6
BYLAYER
 10
72.9927748456
 20
24.0157951505
 40
0.2836953725
100
AcDbArc
 50
357.854939302
 51
2.0758953029
  0
ARC
  5
271
100
AcDbEntity
  8
0
100
AcDbCircle
 62
7
  6
BYLAYER
 10
81.0995815296
 20
28.6260714286
 40
0.2
100
AcDbArc
 50
270.0
 51
359.9999999259
  0
ARC
  5
272
100
AcDbEntity
  8
0
100
AcDbCircle
 62
7
  6
BYLAYER
 10
56.1995815296
 20
28.2260714286
 40
0.2
100
AcDbArc
 50
0.0
 51
89.9993323679
  0
ARC
  5
273
100
AcDbEntity
  8
0
100
AcDbCircle
 62
7
  6
BYLAYER
 10
73.3995815296
 20
28.2260714286
 40
0.2
100
AcDbArc
 50
90.000655901
 51
180.0
  0
ARC
  5
274
100
AcDbEntity
  8
0
100
AcDbCircle
 62
7
  6
BYLAYER
 10
72.9995815296
 20
24.0260714286
 40
0.2
100
AcDbArc
 50
270.0
 51
359.9999999063
  0
ARC
  5
275
100
AcDbEntity
  8
0
100
AcDbCircle
 62
7
  6
BYLAYER
 10
48.4995815296
 20
42.8260714286
 40
0.2
100
AcDbArc
 50
90.0
 51
180.0
  0
ARC
  5
276
100
AcDbEntity
  8
0
100
AcDbCircle
 62
7
  6
BYLAYER
 10
48.4995815296
 20
28.6260714286
 40
0.2
100
AcDbArc
 50
180.0000000846
 51
270.0
  0
ARC
  5
277
100
AcDbEntity
  8
0
100
AcDbCircle
 62
7
  6
BYLAYER
 10
56.5995815296
 20
24.0260714286
 40
0.2
100
AcDbArc
 50
180.0046659361
 51
270.0
  0
ARC
  5
278
100
AcDbEntity
  8
0
100
AcDbCircle
 62
7
  6
BYLAYER
 10
48.4995815296
 20
24.0260714286
 40
0.2
100
AcDbArc
 50
180.0
 51
270.0
  0
ARC
  5
279
100
AcDbEntity
  8
0
100
AcDbCircle
 62
7
  6
BYLAYER
 10
81.0995815296
 20
24.0260714286
 40
0.2
100
AcDbArc
 50
270.0
 51
360.0
  0
ARC
  5
27A
100
AcDbEntity
  8
0
100
AcDbCircle
 62
7
  6
BYLAYER
 10
81.0995815296
 20
42.8260714286
 40
0.2
100
AcDbArc
 50
0.0
 51
90.0
  0
SPLINE
  5
27B
100
AcDbEntity
  8
0
100
AcDbSpline
 62
7
  6
BYLAYER
 70
0
 71
3
 72
11
 73
7
 74
0
 42
0.0000001
 43
0.0000001
 44
0.0000000001
 40
0.0
 40
0.0
 40
0.0
 40
0.0
 40
0.2313808698
 40
0.4762337468
 40
0.7347960354
 40
1.0
 40
1.0
 40
1.0
 40
1.0
 10
62.9836001072
 20
68.9260714286
 30
0.0
 10
63.1024192031
 20
68.8389518284
 30
0.0
 10
63.3865678692
 20
68.7102324934
 30
0.0
 10
63.8588647517
 20
68.6708953045
 30
0.0
 10
64.3457101972
 20
68.7469456328
 30
0.0
 10
64.6620549505
 20
68.8580673039
 30
0.0
 10
64.8166303852
 20
68.9260714286
 30
0.0
  0
SPLINE
  5
27C
100
AcDbEntity
  8
0
100
AcDbSpline
 62
7
  6
BYLAYER
 70
0
 71
3
 72
9
 73
5
 74
0
 42
0.0000001
 43
0.0000001
 44
0.0000000001
 40
0.0
 40
0.0
 40
0.0
 40
0.0
 40
0.2463285865
 40
1.0
 40
1.0
 40
1.0
 40
1.0
 10
63.435184424
 20
70.0260714286
 30
0.0
 10
63.5221174478
 20
69.9089139135
 30
0.0
 10
63.9066475922
 20
69.4576026369
 30
0.0
 10
64.4080608102
 20
69.1058180769
 30
0.0
 10
64.8166303852
 20
68.9260714286
 30
0.0
  0
SPLINE
  5
27D
100
AcDbEntity
  8
0
100
AcDbSpline
 62
7
  6
BYLAYER
 70
0
 71
3
 72
12
 73
8
 74
0
 42
0.0000001
 43
0.0000001
 44
0.0000000001
 40
0.0
 40
0.0
 40
0.0
 40
0.0
 40
0.3009916842
 40
0.5749115525
 40
0.6962725054
 40
0.8064687854
 40
1.0
 40
1.0
 40
1.0
 40
1.0
 10
56.3228790206
 20
28.2260714286
 30
0.0
 10
56.3228796196
 20
28.2517735685
 30
0.0
 10
56.3171296613
 20
28.3010365547
 30
0.0
 10
56.2953001992
 20
28.3573775276
 30
0.0
 10
56.269472207
 20
28.3923284651
 30
0.0
 10
56.2423622311
 20
28.4166649029
 30
0.0
 10
56.2161167773
 20
28.4260694013
 30
0.0
 10
56.1995908513
 20
28.426071428
 30
0.0
  0
SPLINE
  5
27E
100
AcDbEntity
  8
0
100
AcDbSpline
 62
7
  6
BYLAYER
 70
0
 71
3
 72
18
 73
14
 74
0
 42
0.0000001
 43
0.0000001
 44
0.0000000001
 40
0.0
 40
0.0
 40
0.0
 40
0.0
 40
0.2213970087
 40
0.4199788916
 40
0.5926035903
 40
0.7367398734
 40
0.8507886808
 40
0.8960522856
 40
0.9332627384
 40
0.9623379533
 40
0.9832017782
 40
0.9957786271
 40
1.0
 40
1.0
 40
1.0
 40
1.0
 10
56.3228790206
 20
24.0260714174
 30
0.0
 10
56.3285394635
 20
24.026149008
 30
0.0
 10
56.3392773087
 20
24.0262840454
 30
0.0
 10
56.3544290001
 20
24.0264076446
 30
0.0
 10
56.3676073441
 20
24.0264025951
 30
0.0
 10
56.3786191375
 20
24.0262737671
 30
0.0
 10
56.3863840814
 20
24.0261225856
 30
0.0
 10
56.3913970353
 20
24.0260485149
 30
0.0
 10
56.3942730864
 20
24.0259959439
 30
0.0
 10
56.3964391227
 20
24.0260351469
 30
0.0
 10
56.398179411
 20
24.0259189525
 30
0.0
 10
56.3988922874
 20
24.0261408943
 30
0.0
 10
56.399581809
 20
24.0259390607
 30
0.0
 10
56.3995815296
 20
24.0260469981
 30
0.0
  0
SPLINE
  5
27F
100
AcDbEntity
  8
0
100
AcDbSpline
 62
7
  6
BYLAYER
 70
0
 71
3
 72
17
 73
13
 74
0
 42
0.0000001
 43
0.0000001
 44
0.0000000001
 40
0.0
 40
0.0
 40
0.0
 40
0.0
 40
0.1943324318
 40
0.3819877326
 40
0.5546571557
 40
0.7058478594
 40
0.8299673413
 40
0.9223678129
 40
0.9553231158
 40
0.9791376207
 40
0.9938111728
 40
1.0
 40
1.0
 40
1.0
 40
1.0
 10
48.4995782182
 20
28.2260714312
 30
0.0
 10
48.4865977372
 20
28.226094107
 30
0.0
 10
48.4610835599
 20
28.2261795401
 30
0.0
 10
48.4240318561
 20
28.2261185469
 30
0.0
 10
48.3898764261
 20
28.2255314039
 30
0.0
 10
48.3599329822
 20
28.2252857492
 30
0.0
 10
48.3354254318
 20
28.2264284555
 30
0.0
 10
48.3187259372
 20
28.2276249528
 30
0.0
 10
48.3088636045
 20
28.2277977835
 30
0.0
 10
48.3039159667
 20
28.2274910599
 30
0.0
 10
48.3012872011
 20
28.227164471
 30
0.0
 10
48.2995815296
 20
28.2264796614
 30
0.0
 10
48.2995815296
 20
28.2260662766
 30
0.0
  0
SPLINE
  5
280
100
AcDbEntity
  8
0
100
AcDbSpline
 62
7
  6
BYLAYER
 70
0
 71
3
 72
14
 73
10
 74
0
 42
0.0000001
 43
0.0000001
 44
0.0000000001
 40
0.0
 40
0.0
 40
0.0
 40
0.0
 40
0.3733841225
 40
0.5430772639
 40
0.6928544673
 40
0.8173782579
 40
0.9122752353
 40
0.9738295386
 40
1.0
 40
1.0
 40
1.0
 40
1.0
 10
56.599581065
 20
28.2252854921
 30
0.0
 10
56.5747095098
 20
28.2252243406
 30
0.0
 10
56.5385338087
 20
28.2251690158
 30
0.0
 10
56.4923830626
 20
28.2253394355
 30
0.0
 10
56.4628059167
 20
28.2254627253
 30
0.0
 10
56.438220008
 20
28.2255673926
 30
0.0
 10
56.4194870407
 20
28.2254934772
 30
0.0
 10
56.407355778
 20
28.2258527064
 30
0.0
 10
56.4014738338
 20
28.2257259043
 30
0.0
 10
56.3997540054
 20
28.2260107067
 30
0.0
  0
SPLINE
  5
281
100
AcDbEntity
  8
0
100
AcDbSpline
 62
7
  6
BYLAYER
 70
0
 71
3
 72
13
 73
9
 74
0
 42
0.0000001
 43
0.0000001
 44
0.0000000001
 40
0.0
 40
0.0
 40
0.0
 40
0.0
 40
0.0857058498
 40
0.1819267277
 40
0.2930616675
 40
0.4196698638
 40
0.7070662561
 40
1.0
 40
1.0
 40
1.0
 40
1.0
 10
56.5995852499
 20
23.8260627186
 30
0.0
 10
56.6068096843
 20
23.8260624386
 30
0.0
 10
56.6222282815
 20
23.8235548718
 30
0.0
 10
56.6445962104
 20
23.8122949207
 30
0.0
 10
56.6655946681
 20
23.7931174176
 30
0.0
 10
56.6913857674
 20
23.7568191524
 30
0.0
 10
56.7118883971
 20
23.6997760378
 30
0.0
 10
56.7171448028
 20
23.6507637993
 30
0.0
 10
56.7171461042
 20
23.6260714286
 30
0.0
  0
SPLINE
  5
282
100
AcDbEntity
  8
0
100
AcDbSpline
 62
7
  6
BYLAYER
 70
0
 71
3
 72
13
 73
9
 74
0
 42
0.0000001
 43
0.0000001
 44
0.0000000001
 40
0.0
 40
0.0
 40
0.0
 40
0.0
 40
0.0857060097
 40
0.1819269342
 40
0.2930618111
 40
0.4196698912
 40
0.7070660997
 40
1.0
 40
1.0
 40
1.0
 40
1.0
 10
72.9995790448
 20
23.8260625394
 30
0.0
 10
72.9923546001
 20
23.826062268
 30
0.0
 10
72.9769359891
 20
23.8235547251
 30
0.0
 10
72.9545680364
 20
23.812294817
 30
0.0
 10
72.9335695723
 20
23.7931173528
 30
0.0
 10
72.9077784895
 20
23.7568191348
 30
0.0
 10
72.8872759257
 20
23.6997760282
 30
0.0
 10
72.8820196163
 20
23.6507638017
 30
0.0
 10
72.8820183656
 20
23.6260714286
 30
0.0
  0
SPLINE
  5
283
100
AcDbEntity
  8
0
100
AcDbSpline
 62
7
  6
BYLAYER
 70
0
 71
3
 72
18
 73
14
 74
0
 42
0.0000001
 43
0.0000001
 44
0.0000000001
 40
0.0
 40
0.0
 40
0.0
 40
0.0
 40
0.0042175527
 40
0.0167942085
 40
0.0376582983
 40
0.0667335251
 40
0.1039431605
 40
0.1492042876
 40
0.2632450579
 40
0.4073808565
 40
0.5800143348
 40
0.7786014873
 40
1.0
 40
1.0
 40
1.0
 40
1.0
 10
73.1995815296
 20
24.026071428
 30
0.0
 10
73.1995815296
 20
24.0259635925
 30
0.0
 10
73.2002709754
 20
24.0261767163
 30
0.0
 10
73.2009836212
 20
24.0259477352
 30
0.0
 10
73.202723899
 20
24.0260660473
 30
0.0
 10
73.204889823
 20
24.0260166341
 30
0.0
 10
73.2077658058
 20
24.0260547577
 30
0.0
 10
73.2127787129
 20
24.0260929702
 30
0.0
 10
73.220543928
 20
24.0261857402
 30
0.0
 10
73.2315556367
 20
24.0262625691
 30
0.0
 10
73.244733601
 20
24.0262671903
 30
0.0
 10
73.2598853282
 20
24.026195157
 30
0.0
 10
73.2706234432
 20
24.0261165606
 30
0.0
 10
73.2762840385
 20
24.0260715075
 30
0.0
  0
SPLINE
  5
284
100
AcDbEntity
  8
0
100
AcDbSpline
 62
7
  6
BYLAYER
 70
0
 71
3
 72
9
 73
5
 74
0
 42
0.0000001
 43
0.0000001
 44
0.0000000001
 40
0.0
 40
0.0
 40
0.0
 40
0.0
 40
0.492431533
 40
1.0
 40
1.0
 40
1.0
 40
1.0
 10
56.7171447652
 20
23.6260714286
 30
0.0
 10
56.6732703955
 20
23.62872526
 30
0.0
 10
56.5833278138
 20
23.6403149798
 30
0.0
 10
56.5037695291
 20
23.6864976106
 30
0.0
 10
56.4688764892
 20
23.7153953747
 30
0.0
  0
SPLINE
  5
285
100
AcDbEntity
  8
0
100
AcDbSpline
 62
7
  6
BYLAYER
 70
0
 71
3
 72
11
 73
7
 74
0
 42
0.0000001
 43
0.0000001
 44
0.0000000001
 40
0.0
 40
0.0
 40
0.0
 40
0.0
 40
0.2345071597
 40
0.4792210844
 40
0.7355080606
 40
1.0
 40
1.0
 40
1.0
 40
1.0
 10
56.4688764892
 20
23.7153953747
 30
0.0
 10
56.448838883
 20
23.7319901461
 30
0.0
 10
56.4109125351
 20
23.7697987714
 30
0.0
 10
56.3657065724
 20
23.8384404191
 30
0.0
 10
56.3344824786
 20
23.9180144694
 30
0.0
 10
56.3246706834
 20
23.975527463
 30
0.0
 10
56.3232592603
 20
24.004837279
 30
0.0
  0
SPLINE
  5
286
100
AcDbEntity
  8
0
100
AcDbSpline
 62
7
  6
BYLAYER
 70
0
 71
3
 72
12
 73
8
 74
0
 42
0.0000001
 43
0.0000001
 44
0.0000000001
 40
0.0
 40
0.0
 40
0.0
 40
0.0
 40
0.3009908304
 40
0.5749123093
 40
0.6962740311
 40
0.8064703491
 40
1.0
 40
1.0
 40
1.0
 40
1.0
 10
73.2762840389
 20
28.2260562914
 30
0.0
 10
73.2762834392
 20
28.2517598593
 30
0.0
 10
73.2820300524
 20
28.3010260457
 30
0.0
 10
73.3038593569
 20
28.357371269
 30
0.0
 10
73.3296878492
 20
28.392325213
 30
0.0
 10
73.3567985953
 20
28.4166638847
 30
0.0
 10
73.3830454402
 20
28.426069399
 30
0.0
 10
73.3995721977
 20
28.426071428
 30
0.0
  0
SPLINE
  5
287
100
AcDbEntity
  8
0
100
AcDbSpline
 62
7
  6
BYLAYER
 70
0
 71
3
 72
11
 73
7
 74
0
 42
0.0000001
 43
0.0000001
 44
0.0000000001
 40
0.0
 40
0.0
 40
0.0
 40
0.0
 40
0.26442842
 40
0.5207243225
 40
0.765302786
 40
1.0
 40
1.0
 40
1.0
 40
1.0
 10
73.2762714231
 20
24.0051765387
 30
0.0
 10
73.2751984598
 20
23.9760706278
 30
0.0
 10
73.2647697774
 20
23.9190320758
 30
0.0
 10
73.2341561166
 20
23.8400139271
 30
0.0
 10
73.1896581583
 20
23.7715790158
 30
0.0
 10
73.1521924794
 20
23.7338568161
 30
0.0
 10
73.1323944093
 20
23.717234357
 30
0.0
  0
SPLINE
  5
288
100
AcDbEntity
  8
0
100
AcDbSpline
 62
7
  6
BYLAYER
 70
0
 71
3
 72
9
 73
5
 74
0
 42
0.0000001
 43
0.0000001
 44
0.0000000001
 40
0.0
 40
0.0
 40
0.0
 40
0.0
 40
0.5078777052
 40
1.0
 40
1.0
 40
1.0
 40
1.0
 10
73.1323944093
 20
23.717234357
 30
0.0
 10
73.097315321
 20
23.6877819555
 30
0.0
 10
73.0172741717
 20
23.6405394388
 30
0.0
 10
72.9263387536
 20
23.6284335757
 30
0.0
 10
72.8820188034
 20
23.6260714286
 30
0.0
  0
SPLINE
  5
289
100
AcDbEntity
  8
0
100
AcDbSpline
 62
7
  6
BYLAYER
 70
0
 71
3
 72
21
 73
17
 74
0
 42
0.0000001
 43
0.0000001
 44
0.0000000001
 40
0.0
 40
0.0
 40
0.0
 40
0.0
 40
0.0012072922
 40
0.0047998882
 40
0.0107597846
 40
0.0190661795
 40
0.042633917
 40
0.0753335354
 40
0.1169390945
 40
0.1669979737
 40
0.2250002012
 40
0.2904358986
 40
0.4413109037
 40
0.614243219
 40
0.8031283086
 40
1.0
 40
1.0
 40
1.0
 40
1.0
 10
81.2995815296
 20
28.2252854921
 30
0.0
 10
81.2995814567
 20
28.2252083465
 30
0.0
 10
81.2990904602
 20
28.2253443708
 30
0.0
 10
81.2985802161
 20
28.2251850392
 30
0.0
 10
81.2973393563
 20
28.2252535525
 30
0.0
 10
81.2949819787
 20
28.2251909481
 30
0.0
 10
81.2908112928
 20
28.2252270862
 30
0.0
 10
81.2845784662
 20
28.2252322248
 30
0.0
 10
81.2766236441
 20
28.225288911
 30
0.0
 10
81.2670630767
 20
28.2253509944
 30
0.0
 10
81.2559759161
 20
28.2254191747
 30
0.0
 10
81.2384479447
 20
28.225498752
 30
0.0
 10
81.2135751847
 20
28.2255378775
 30
0.0
 10
81.1808143942
 20
28.2256003993
 30
0.0
 10
81.1451146091
 20
28.2257673547
 30
0.0
 10
81.1204653406
 20
28.2259241362
 30
0.0
 10
81.1078855825
 20
28.226010708
 30
0.0
  0
SPLINE
  5
28A
100
AcDbEntity
  8
0
100
AcDbSpline
 62
7
  6
BYLAYER
 70
0
 71
3
 72
21
 73
17
 74
0
 42
0.0000001
 43
0.0000001
 44
0.0000000001
 40
0.0
 40
0.0
 40
0.0
 40
0.0
 40
0.0012200624
 40
0.0048531244
 40
0.0108784754
 40
0.0192743022
 40
0.0430904686
 40
0.0761302175
 40
0.1181578444
 40
0.1686725387
 40
0.227114845
 40
0.2929450505
 40
0.4444175511
 40
0.6173573652
 40
0.8053195169
 40
1.0
 40
1.0
 40
1.0
 40
1.0
 10
73.1995815296
 20
28.2260714312
 30
0.0
 10
73.1995807586
 20
28.2261527923
 30
0.0
 10
73.1990637342
 20
28.2260021593
 30
0.0
 10
73.1985245187
 20
28.2261823355
 30
0.0
 10
73.1972159301
 20
28.2261112923
 30
0.0
 10
73.1947290992
 20
28.2261833365
 30
0.0
 10
73.190330827
 20
28.2261207764
 30
0.0
 10
73.1837595117
 20
28.2260209951
 30
0.0
 10
73.1753795926
 20
28.2257682672
 30
0.0
 10
73.1653163663
 20
28.2255289442
 30
0.0
 10
73.153659154
 20
28.2254042222
 30
0.0
 10
73.1352691244
 20
28.2255822614
 30
0.0
 10
73.1092683013
 20
28.2267628786
 30
0.0
 10
73.0751142785
 20
28.2279450448
 30
0.0
 10
73.0380540341
 20
28.2275638586
 30
0.0
 10
73.0125521722
 20
28.2266337551
 30
0.0
 10
72.9995815296
 20
28.226066276
 30
0.0
  0
ENDSEC
  0
SECTION
  2
OBJECTS
  0
DICTIONARY
  5
C
100
AcDbDictionary
280
0
281
1
  3
ACAD_GROUP
350
D
  3
ACAD_MLINESTYLE
350
17
  3
ACAD_LAYOUT
350
1A
  3
ACAD_PLOTSETTINGS
350
19
  3
ACAD_PLOTSTYLENAME
350
E
  0
DICTIONARY
  5
D
102
{ACAD_REACTORS
330
C
102
}
100
AcDbDictionary
280
0
281
1
  0
ACDBDICTIONARYWDFLT
  5
E
102
{ACAD_REACTORS
330
C
102
}
100
AcDbDictionary
281
1
  3
Normal
350
F
100
AcDbDictionaryWithDefault
340
F
  0
DICTIONARY
  5
17
102
{ACAD_REACTORS
330
C
102
}
100
AcDbDictionary
280
0
281
1
  3
Standard
350
18
  0
DICTIONARY
  5
19
102
{ACAD_REACTORS
330
C
102
}
100
AcDbDictionary
281
1
  0
DICTIONARY
  5
1A
102
{ACAD_REACTORS
330
C
102
}
100
AcDbDictionary
281
1
  3
Model
350
28B
  3
Layout1
350
28C
  0
ACDBPLACEHOLDER
  5
F
102
{ACAD_REACTORS
330
E
102
}
  0
MLINESTYLE
  5
18
102
{ACAD_REACTORS
330
17
102
}
100
AcDbMlineStyle
  2
STANDARD
 70
0
  3

 62
256
 51
90.0
 52
90.0
 71
2
 49
0.5
 62
256
  6
BYLAYER
 49
-0.5
 62
256
  6
BYLAYER
  0
LAYOUT
  5
28B
102
{ACAD_REACTORS
330
1A
102
}
100
AcDbPlotSettings
  1

  2
none_device
  4

  6

 40
0.0
 41
0.0
 42
0.0
 43
0.0
 44
210.0
 45
297.0
 46
0.0
 47
0.0
 48
0.0
 49
0.0
140
0.0
141
0.0
142
1.0
143
1.0
 70
1024
 72
1
 73
0
 74
0
  7

 75
0
147
1.0
148
0.0
149
0.0
100
AcDbLayout
  1
Model
 70
0
 71
0
 10
0.0
 20
0.0
 11
210.0
 21
297.0
 12
0.0
 22
0.0
 32
0.0
 14
0.0
 24
0.0
 34
0.0
 15
0.0
 25
0.0
 35
0.0
146
0.0
 13
0.0
 23
0.0
 33
0.0
 16
1.0
 26
0.0
 36
0.0
 17
0.0
 27
1.0
 37
0.0
 76
0
330
210
345
0
346
0
  0
LAYOUT
  5
28C
102
{ACAD_REACTORS
330
1A
102
}
100
AcDbPlotSettings
  1

  2
none_device
  4

  6

 40
0.0
 41
0.0
 42
0.0
 43
0.0
 44
210.0
 45
297.0
 46
0.0
 47
0.0
 48
0.0
 49
0.0
140
0.0
141
0.0
142
1.0
143
1.0
 70
0
 72
1
 73
0
 74
0
  7

 75
0
147
1.0
148
0.0
149
0.0
100
AcDbLayout
  1
Layout1
 70
0
 71
1
 10
0.0
 20
0.0
 11
210.0
 21
297.0
 12
0.0
 22
0.0
 32
0.0
 14
0.0
 24
0.0
 34
0.0
 15
0.0
 25
0.0
 35
0.0
146
0.0
 13
0.0
 23
0.0
 33
0.0
 16
1.0
 26
0.0
 36
0.0
 17
0.0
 27
1.0
 37
0.0
 76
0
330
211
345
0
346
0
  0
ENDSEC
  0
EOF
