999
DXF file: C:\Users\sesa63760\Dev\_Creo\CAD\MCADID0004756_3D-CAD\drw0001_6.dxf
999
Pro/ENGINEER 2019471 by Parametric Technology Corporation
  0
SECTION
  2
HEADER
  9
$ACADVER
  1
AC1024
  9
$DWGCODEPAGE
  3
ANSI_1252
  9
$EXTMAX
 10
29.0108939438
 20
41.0296928633
 30
0.0
  9
$EXTMIN
 10
0.0
 20
0.0
 30
0.0
  9
$LIMMIN
 10
0.0
 20
0.0
  9
$LIMMAX
 10
29.0108939438
 20
41.0296928633
  9
$VIEWCTR
 10
14.5054469719
 20
20.5148464317
  9
$VIEWSIZE
 40
41.0296928633
  9
$CLAYER
  8
0
  9
$LTSCALE
 40
2.6745281274
  9
$CELTYPE
  6
BYLAYER
  9
$DIMSCALE
 40
1.0
  9
$DIMASZ
 40
0.345367785
  9
$DIMEXO
 40
1.0
  9
$DIMDLI
 40
1.8478557971
  9
$DIMEXE
 40
1.0
  9
$DIMCEN
 40
0.4376500572
  9
$DIMLFAC
 40
1.0
  9
$DIMBLK
  1
_FILLED
  9
$DIMALT
 70
0
  9
$DIMALTF
 40
0.0393700787
  9
$DIMTXT
 40
0.4835148991
  9
$DIMTOL
 70
1
  9
$DIMLIM
 70
0
  9
$DIMTFAC
 40
1.0
  9
$DIMTP
 40
0.01
  9
$DIMTM
 40
0.01
  9
$DIMGAP
 40
0.625
  9
$DIMDSEP
 70
46
  9
$AUNITS
 70
0
  9
$PDMODE
 70
3
  9
$PDSIZE
 40
0.3125
  9
$HANDSEED
  5
283
  9
$TILEMODE
 70
1
  9
$MEASUREMENT
 70
1
  9
$INSUNITS
 70
4
  0
ENDSEC
  0
SECTION
  2
CLASSES
  0
CLASS
  1
ACDBDICTIONARYWDFLT
  2
AcDbDictionaryWithDefault
  3
AutoCAD 2000
 90
0
 91
1
280
0
281
0
  0
CLASS
  1
ACDBPLACEHOLDER
  2
AcDbPlaceHolder
  3
AutoCAD 2000
 90
0
 91
1
280
0
281
0
  0
CLASS
  1
LAYOUT
  2
AcDbLayout
  3
AutoCAD 2000
 90
0
 91
0
280
0
281
0
  0
ENDSEC
  0
SECTION
  2
TABLES
  0
TABLE
  2
VPORT
  5
8
100
AcDbSymbolTable
 70
2
  0
VPORT
  5
1F4
100
AcDbSymbolTableRecord
100
AcDbViewportTableRecord
  2
*ACTIVE
 70
0
 10
0.0
 20
0.0
 11
1.0
 21
1.0
 12
14.5054469719
 22
20.5148464317
 13
0.0
 23
0.0
 14
1.0
 24
1.0
 15
0.0
 25
0.0
 16
0.0
 26
0.0
 36
1.0
 17
0.0
 27
0.0
 37
0.0
 40
41.0296928633
 41
0.7070707071
 42
50.0
 43
0.0
 44
0.0
 50
0.0
 51
0.0
 71
0
 72
100
 73
1
 74
1
 75
0
 76
0
 77
0
 78
0
  0
ENDTAB
  0
TABLE
  2
LTYPE
  5
5
100
AcDbSymbolTable
 70
6
  0
LTYPE
  5
14
100
AcDbSymbolTableRecord
100
AcDbLinetypeTableRecord
  2
BYBLOCK
 70
0
  3

 72
65
 73
0
 40
0.0
  0
LTYPE
  5
15
100
AcDbSymbolTableRecord
100
AcDbLinetypeTableRecord
  2
BYLAYER
 70
0
  3

 72
65
 73
0
 40
0.0
  0
LTYPE
  5
16
100
AcDbSymbolTableRecord
100
AcDbLinetypeTableRecord
  2
CONTINUOUS
 70
64
  3
Solid line
 72
65
 73
0
 40
0.0
  0
LTYPE
  5
1F5
100
AcDbSymbolTableRecord
100
AcDbLinetypeTableRecord
  2
CENTER
 70
64
  3
____ _ ____ _ ____ _ ____ _ ____ _ ____ _ ____
 72
65
 73
4
 40
0.6
 49
0.375
 74
0
 49
-0.075
 74
0
 49
0.075
 74
0
 49
-0.075
 74
0
  0
LTYPE
  5
1F6
100
AcDbSymbolTableRecord
100
AcDbLinetypeTableRecord
  2
HIDDEN
 70
64
  3
- - - - - - - - - - - - - - - - - - - -
 72
65
 73
2
 40
0.2
 49
0.1
 74
0
 49
-0.1
 74
0
  0
LTYPE
  5
1F7
100
AcDbSymbolTableRecord
100
AcDbLinetypeTableRecord
  2
PHANTOM
 70
64
  3
_____ _ _ _____ _ _ _____ _ _ _____
 72
65
 73
6
 40
0.8
 49
0.45
 74
0
 49
-0.05
 74
0
 49
0.1
 74
0
 49
-0.05
 74
0
 49
0.1
 74
0
 49
-0.05
 74
0
  0
LTYPE
  5
1F8
100
AcDbSymbolTableRecord
100
AcDbLinetypeTableRecord
  2
DOT
 70
64
  3
. . . . . . . . . . . . . . . . . . . .
 72
65
 73
2
 40
0.2
 49
0.1
 74
0
 49
-0.1
 74
0
  0
LTYPE
  5
1F9
100
AcDbSymbolTableRecord
100
AcDbLinetypeTableRecord
  2
DASHED
 70
64
  3
- - - - - - - - - - - - - - - - - - - -
 72
65
 73
2
 40
0.2
 49
0.1
 74
0
 49
-0.1
 74
0
  0
ENDTAB
  0
TABLE
  2
LAYER
  5
2
100
AcDbSymbolTable
 70
36
  0
LAYER
  5
10
100
AcDbSymbolTableRecord
100
AcDbLayerTableRecord
  2
0
 70
0
 62
7
  6
CONTINUOUS
370
-3
390
F
  0
LAYER
  5
1FA
100
AcDbSymbolTableRecord
100
AcDbLayerTableRecord
  2
DEFAULT_1
 70
0
 62
7
  6
CENTER
370
-3
390
F
  0
LAYER
  5
1FB
100
AcDbSymbolTableRecord
100
AcDbLayerTableRecord
  2
DEFAULT_2
 70
0
 62
7
  6
HIDDEN
370
-3
390
F
  0
LAYER
  5
1FC
100
AcDbSymbolTableRecord
100
AcDbLayerTableRecord
  2
DEFAULT_3
 70
0
 62
7
  6
PHANTOM
370
-3
390
F
  0
LAYER
  5
1FD
100
AcDbSymbolTableRecord
100
AcDbLayerTableRecord
  2
00_COMPONENTS
 70
0
 62
7
  6
CONTINUOUS
370
-3
390
F
  0
LAYER
  5
1FE
100
AcDbSymbolTableRecord
100
AcDbLayerTableRecord
  2
01_1_DEFAULT_DATUMS
 70
0
 62
7
  6
CONTINUOUS
370
-3
390
F
  0
LAYER
  5
1FF
100
AcDbSymbolTableRecord
100
AcDbLayerTableRecord
  2
01_PLANES
 70
0
 62
7
  6
CONTINUOUS
370
-3
390
F
  0
LAYER
  5
200
100
AcDbSymbolTableRecord
100
AcDbLayerTableRecord
  2
02_COORD_SYS
 70
0
 62
7
  6
CONTINUOUS
370
-3
390
F
  0
LAYER
  5
201
100
AcDbSymbolTableRecord
100
AcDbLayerTableRecord
  2
03_AXES
 70
0
 62
7
  6
CONTINUOUS
370
-3
390
F
  0
LAYER
  5
202
100
AcDbSymbolTableRecord
100
AcDbLayerTableRecord
  2
04_POINTS
 70
0
 62
7
  6
CONTINUOUS
370
-3
390
F
  0
LAYER
  5
203
100
AcDbSymbolTableRecord
100
AcDbLayerTableRecord
  2
05_CURVES
 70
0
 62
7
  6
CONTINUOUS
370
-3
390
F
  0
LAYER
  5
204
100
AcDbSymbolTableRecord
100
AcDbLayerTableRecord
  2
06_SURFS
 70
0
 62
7
  6
CONTINUOUS
370
-3
390
F
  0
LAYER
  5
205
100
AcDbSymbolTableRecord
100
AcDbLayerTableRecord
  2
07_COSMETICS
 70
0
 62
7
  6
CONTINUOUS
370
-3
390
F
  0
LAYER
  5
206
100
AcDbSymbolTableRecord
100
AcDbLayerTableRecord
  2
10_NOTES
 70
0
 62
7
  6
CONTINUOUS
370
-3
390
F
  0
LAYER
  5
207
100
AcDbSymbolTableRecord
100
AcDbLayerTableRecord
  2
11_NOTES_PUB
 70
0
 62
7
  6
CONTINUOUS
370
-3
390
F
  0
LAYER
  5
208
100
AcDbSymbolTableRecord
100
AcDbLayerTableRecord
  2
13_REF_GTOL
 70
0
 62
7
  6
CONTINUOUS
370
-3
390
F
  0
LAYER
  5
209
100
AcDbSymbolTableRecord
100
AcDbLayerTableRecord
  2
16_MISC
 70
0
 62
7
  6
CONTINUOUS
370
-3
390
F
  0
LAYER
  5
20A
100
AcDbSymbolTableRecord
100
AcDbLayerTableRecord
  2
17_NO_PRINT
 70
0
 62
7
  6
CONTINUOUS
370
-3
390
F
  0
LAYER
  5
20B
100
AcDbSymbolTableRecord
100
AcDbLayerTableRecord
  2
18_DATUM_CAMS_JOINTS
 70
0
 62
7
  6
CONTINUOUS
370
-3
390
F
  0
LAYER
  5
20C
100
AcDbSymbolTableRecord
100
AcDbLayerTableRecord
  2
19_DATUM_FUNCTIONAL
 70
0
 62
7
  6
CONTINUOUS
370
-3
390
F
  0
LAYER
  5
20D
100
AcDbSymbolTableRecord
100
AcDbLayerTableRecord
  2
20_DATUM_KINEMATIC_SCHEME
 70
0
 62
7
  6
CONTINUOUS
370
-3
390
F
  0
ENDTAB
  0
TABLE
  2
STYLE
  5
3
100
AcDbSymbolTable
 70
1
  0
STYLE
  5
11
100
AcDbSymbolTableRecord
100
AcDbTextStyleTableRecord
  2
STANDARD
 70
0
 40
0.0
 41
1.0
 50
0.0
 71
0
 42
0.2
  3
ARIAL.TTF
  4

  0
STYLE
  5
20E
100
AcDbSymbolTableRecord
100
AcDbTextStyleTableRecord
  2
TEXTSTYLE_1
 70
0
 40
0.0
 41
0.8
 50
0.0
 71
0
 42
0.2
  3
gdt
  4

  0
ENDTAB
  0
TABLE
  2
VIEW
  5
6
100
AcDbSymbolTable
 70
0
  0
ENDTAB
  0
TABLE
  2
UCS
  5
7
100
AcDbSymbolTable
 70
0
  0
ENDTAB
  0
TABLE
  2
APPID
  5
9
100
AcDbSymbolTable
 70
1
  0
APPID
  5
20F
100
AcDbSymbolTableRecord
100
AcDbRegAppTableRecord
  2
ACAD
 70
0
  0
ENDTAB
  0
TABLE
  2
BLOCK_RECORD
  5
1
100
AcDbSymbolTable
 70
0
  0
BLOCK_RECORD
  5
210
100
AcDbSymbolTableRecord
100
AcDbBlockTableRecord
  2
*Model_Space
  0
BLOCK_RECORD
  5
211
100
AcDbSymbolTableRecord
100
AcDbBlockTableRecord
  2
*Paper_Space
  0
BLOCK_RECORD
  5
212
100
AcDbSymbolTableRecord
100
AcDbBlockTableRecord
  2
_FILLED
  0
ENDTAB
  0
TABLE
  2
DIMSTYLE
  5
A
100
AcDbSymbolTable
 70
1
100
AcDbDimStyleTable
 71
0
  0
DIMSTYLE
105
213
100
AcDbSymbolTableRecord
100
AcDbDimStyleTableRecord
  2
STANDARD
 70
0
  3

  4

 40
1.0
 41
0.345367785
 42
1.0
 43
0.38
 44
1.0
 45
0.0
 46
0.0
 47
0.01
 48
0.01
140
0.4835148991
141
0.09
142
0.0
143
25.4
144
1.0
145
0.0
146
1.0
147
0.625
 71
1
 72
0
 73
0
 74
0
 75
0
 76
0
 77
1
 78
8
 79
2
170
0
171
1
172
0
173
0
174
0
175
0
176
0
177
0
178
0
270
2
179
2
271
2
272
2
273
2
274
2
275
0
280
0
281
0
282
0
283
1
284
8
285
0
286
0
287
3
288
0
340
11
278
46
341
212
342
212
343
212
344
212
  0
ENDTAB
  0
ENDSEC
  0
SECTION
  2
BLOCKS
  0
BLOCK
  5
20
100
AcDbEntity
  8
0
100
AcDbBlockBegin
  2
*Model_Space
 70
0
 10
0.0
 20
0.0
 30
0.0
  3
*Model_Space
  1

  0
ENDBLK
  5
21
100
AcDbEntity
  8
0
100
AcDbBlockEnd
  0
BLOCK
  5
1C
100
AcDbEntity
  8
0
100
AcDbBlockBegin
  2
*Paper_Space
 70
0
 10
0.0
 20
0.0
 30
0.0
  3
*Paper_Space
  1

  0
ENDBLK
  5
1D
100
AcDbEntity
  8
0
100
AcDbBlockEnd
  0
BLOCK
  5
214
100
AcDbEntity
  8
0
100
AcDbBlockBegin
  2
_FILLED
 70
64
 10
0.0
 20
0.0
  3
_FILLED
  1

  0
SOLID
  5
215
100
AcDbEntity
  8
0
  6
BYBLOCK
 62
0
100
AcDbTrace
 10
0.0
 20
0.0
 11
-1.0
 21
0.25
 12
-1.0
 22
-0.25
 13
-1.0
 23
-0.25
  0
ENDBLK
  5
216
100
AcDbEntity
  8
0
  6
BYBLOCK
 62
0
100
AcDbBlockEnd
  0
ENDSEC
  0
SECTION
  2
ENTITIES
  0
LINE
  5
217
100
AcDbEntity
  8
0
100
AcDbLine
 62
7
  6
BYLAYER
 10
8.9066455081
 20
3.3898461056
 11
20.6064478587
 21
3.3898461056
  0
LINE
  5
218
100
AcDbEntity
  8
0
100
AcDbLine
 62
7
  6
BYLAYER
 10
21.1065466834
 20
3.8898461056
 11
8.4065466834
 21
3.8898461056
  0
LINE
  5
219
100
AcDbEntity
  8
0
100
AcDbLine
 62
7
  6
BYLAYER
 10
14.5480200078
 20
3.9069444737
 11
14.9650533269
 21
3.9069444737
  0
LINE
  5
21A
100
AcDbEntity
  8
0
100
AcDbLine
 62
7
  6
BYLAYER
 10
8.4065652892
 20
5.8898461056
 11
21.1065297143
 21
5.8898461056
  0
LINE
  5
21B
100
AcDbEntity
  8
0
100
AcDbLine
 62
7
  6
BYLAYER
 10
20.9065402345
 20
7.0898461056
 11
8.6065531323
 21
7.0898461056
  0
LINE
  5
21C
100
AcDbEntity
  8
0
100
AcDbLine
 62
7
  6
BYLAYER
 10
21.1065466834
 20
7.2898461056
 11
14.9650533269
 21
7.2898461056
  0
LINE
  5
21D
100
AcDbEntity
  8
0
100
AcDbLine
 62
7
  6
BYLAYER
 10
14.5480400399
 20
7.2898461056
 11
8.4065466834
 21
7.2898461056
  0
LINE
  5
21E
100
AcDbEntity
  8
0
100
AcDbLine
 62
7
  6
BYLAYER
 10
8.6065466834
 20
7.0898461056
 11
8.4065466834
 21
7.2898461056
  0
LINE
  5
21F
100
AcDbEntity
  8
0
100
AcDbLine
 62
7
  6
BYLAYER
 10
8.4065652892
 20
8.2398461056
 11
21.1065297143
 21
8.2398461056
  0
LINE
  5
220
100
AcDbEntity
  8
0
100
AcDbLine
 62
7
  6
BYLAYER
 10
21.5065446366
 20
9.5898461056
 11
8.0065486883
 21
9.5898461056
  0
LINE
  5
221
100
AcDbEntity
  8
0
100
AcDbLine
 62
7
  6
BYLAYER
 10
15.2615466834
 20
9.7898461056
 11
14.2515466834
 21
9.7898461056
  0
LINE
  5
222
100
AcDbEntity
  8
0
100
AcDbLine
 62
7
  6
BYLAYER
 10
4.9415921072
 20
22.5475050888
 11
4.9415921072
 21
19.7521871224
  0
LINE
  5
223
100
AcDbEntity
  8
0
100
AcDbLine
 62
7
  6
BYLAYER
 10
4.9415921072
 20
18.5475050888
 11
4.9415921072
 21
15.7521871224
  0
LINE
  5
224
100
AcDbEntity
  8
0
100
AcDbLine
 62
7
  6
BYLAYER
 10
9.7565466834
 20
29.6898461056
 11
8.7565466834
 21
28.6898461056
  0
LINE
  5
225
100
AcDbEntity
  8
0
100
AcDbLine
 62
7
  6
BYLAYER
 10
6.8065466834
 20
13.4898461056
 11
6.8065466834
 21
11.6898461056
  0
LINE
  5
226
100
AcDbEntity
  8
0
100
AcDbLine
 62
7
  6
BYLAYER
 10
22.7064431491
 20
11.6898461056
 11
6.8066502177
 21
11.6898461056
  0
LINE
  5
227
100
AcDbEntity
  8
0
100
AcDbLine
 62
7
  6
BYLAYER
 10
8.0065466834
 20
11.6898461056
 11
8.0065466834
 21
9.5898461056
  0
LINE
  5
228
100
AcDbEntity
  8
0
100
AcDbLine
 62
7
  6
BYLAYER
 10
24.5715012596
 20
15.7521871224
 11
23.2565466834
 21
15.3998461056
  0
LINE
  5
229
100
AcDbEntity
  8
0
100
AcDbLine
 62
7
  6
BYLAYER
 10
6.8065466834
 20
13.4898461056
 11
22.7065466834
 21
13.4898461056
  0
LINE
  5
22A
100
AcDbEntity
  8
0
100
AcDbLine
 62
7
  6
BYLAYER
 10
7.0066465002
 20
13.6898461056
 11
22.5064460923
 21
13.6898461056
  0
LINE
  5
22B
100
AcDbEntity
  8
0
100
AcDbLine
 62
7
  6
BYLAYER
 10
6.2565466834
 20
15.3998461056
 11
4.9415921072
 21
15.7521871224
  0
LINE
  5
22C
100
AcDbEntity
  8
0
100
AcDbLine
 62
7
  6
BYLAYER
 10
8.4065466834
 20
3.8898461056
 11
8.4065466834
 21
5.8898461056
  0
LINE
  5
22D
100
AcDbEntity
  8
0
100
AcDbLine
 62
7
  6
BYLAYER
 10
8.4065466834
 20
7.2898461056
 11
8.4065466834
 21
8.2398461056
  0
LINE
  5
22E
100
AcDbEntity
  8
0
100
AcDbLine
 62
7
  6
BYLAYER
 10
8.7565466834
 20
13.6898461056
 11
8.7565466834
 21
15.3998461056
  0
LINE
  5
22F
100
AcDbEntity
  8
0
100
AcDbLine
 62
7
  6
BYLAYER
 10
8.7565466834
 20
18.8998461056
 11
8.7565466834
 21
19.3998461056
  0
LINE
  5
230
100
AcDbEntity
  8
0
100
AcDbLine
 62
7
  6
BYLAYER
 10
8.7565466834
 20
22.8998461056
 11
8.7565466834
 21
28.6898461056
  0
LINE
  5
231
100
AcDbEntity
  8
0
100
AcDbLine
 62
7
  6
BYLAYER
 10
9.1565466834
 20
5.8898461056
 11
9.1565466834
 21
7.0898461056
  0
LINE
  5
232
100
AcDbEntity
  8
0
100
AcDbLine
 62
7
  6
BYLAYER
 10
9.2565466834
 20
8.2398461056
 11
9.2565466834
 21
9.5898461056
  0
LINE
  5
233
100
AcDbEntity
  8
0
100
AcDbLine
 62
7
  6
BYLAYER
 10
23.2565466834
 20
15.3998461056
 11
6.2565466834
 21
15.3998461056
  0
LINE
  5
234
100
AcDbEntity
  8
0
100
AcDbLine
 62
7
  6
BYLAYER
 10
9.8490693953
 20
22.5475050888
 11
9.8490693953
 21
19.7521871224
  0
LINE
  5
235
100
AcDbEntity
  8
0
100
AcDbLine
 62
7
  6
BYLAYER
 10
9.8490693953
 20
18.5475050888
 11
9.8490693953
 21
15.7521871224
  0
LINE
  5
236
100
AcDbEntity
  8
0
100
AcDbLine
 62
7
  6
BYLAYER
 10
11.2565466834
 20
29.6898461056
 11
11.2565466834
 21
36.5837929759
  0
LINE
  5
237
100
AcDbEntity
  8
0
100
AcDbLine
 62
7
  6
BYLAYER
 10
24.5715012596
 20
19.7521871224
 11
23.2565466834
 21
19.3998461056
  0
LINE
  5
238
100
AcDbEntity
  8
0
100
AcDbLine
 62
7
  6
BYLAYER
 10
6.2565466834
 20
19.3998461056
 11
4.9415921072
 21
19.7521871224
  0
LINE
  5
239
100
AcDbEntity
  8
0
100
AcDbLine
 62
7
  6
BYLAYER
 10
14.2515466834
 20
9.7898461056
 11
14.3051365219
 21
9.5898461056
  0
LINE
  5
23A
100
AcDbEntity
  8
0
100
AcDbLine
 62
7
  6
BYLAYER
 10
6.2565466834
 20
18.8998461056
 11
23.2565466834
 21
18.8998461056
  0
LINE
  5
23B
100
AcDbEntity
  8
0
100
AcDbLine
 62
7
  6
BYLAYER
 10
14.2515466834
 20
11.6898461056
 11
14.2515466834
 21
9.7898461056
  0
LINE
  5
23C
100
AcDbEntity
  8
0
100
AcDbLine
 62
7
  6
BYLAYER
 10
14.269939503
 20
9.7212031683
 11
14.269939503
 21
9.5898461056
  0
LINE
  5
23D
100
AcDbEntity
  8
0
100
AcDbLine
 62
7
  6
BYLAYER
 10
14.5480400399
 20
3.9069444737
 11
14.5480400399
 21
5.8898461056
  0
LINE
  5
23E
100
AcDbEntity
  8
0
100
AcDbLine
 62
7
  6
BYLAYER
 10
14.5480400399
 20
7.2898461056
 11
14.5480400399
 21
8.2398461056
  0
LINE
  5
23F
100
AcDbEntity
  8
0
100
AcDbLine
 62
7
  6
BYLAYER
 10
23.2565466834
 20
19.3998461056
 11
6.2565466834
 21
19.3998461056
  0
LINE
  5
240
100
AcDbEntity
  8
0
100
AcDbLine
 62
7
  6
BYLAYER
 10
14.9650533269
 20
3.9069444737
 11
14.9650533269
 21
5.8898461056
  0
LINE
  5
241
100
AcDbEntity
  8
0
100
AcDbLine
 62
7
  6
BYLAYER
 10
14.9650533269
 20
7.2898461056
 11
14.9650533269
 21
8.2398461056
  0
LINE
  5
242
100
AcDbEntity
  8
0
100
AcDbLine
 62
7
  6
BYLAYER
 10
15.2431538638
 20
9.7212031683
 11
15.2431538638
 21
9.5898461056
  0
LINE
  5
243
100
AcDbEntity
  8
0
100
AcDbLine
 62
7
  6
BYLAYER
 10
15.2615466834
 20
9.7898461056
 11
15.2615466834
 21
11.6898461056
  0
LINE
  5
244
100
AcDbEntity
  8
0
100
AcDbLine
 62
7
  6
BYLAYER
 10
4.9415921072
 20
18.5475050888
 11
6.2565466834
 21
18.8998461056
  0
LINE
  5
245
100
AcDbEntity
  8
0
100
AcDbLine
 62
7
  6
BYLAYER
 10
23.2565466834
 20
18.8998461056
 11
24.5715012596
 21
18.5475050888
  0
LINE
  5
246
100
AcDbEntity
  8
0
100
AcDbLine
 62
7
  6
BYLAYER
 10
6.2565466834
 20
22.8998461056
 11
23.2565466834
 21
22.8998461056
  0
LINE
  5
247
100
AcDbEntity
  8
0
100
AcDbLine
 62
7
  6
BYLAYER
 10
18.2565466834
 20
36.5837929759
 11
18.2565466834
 21
29.6898461056
  0
LINE
  5
248
100
AcDbEntity
  8
0
100
AcDbLine
 62
7
  6
BYLAYER
 10
15.2079568449
 20
9.5898461056
 11
15.2615466834
 21
9.7898461056
  0
LINE
  5
249
100
AcDbEntity
  8
0
100
AcDbLine
 62
7
  6
BYLAYER
 10
19.6640239715
 20
22.5475050888
 11
19.6640239715
 21
19.7521871224
  0
LINE
  5
24A
100
AcDbEntity
  8
0
100
AcDbLine
 62
7
  6
BYLAYER
 10
19.6640239715
 20
18.5475050888
 11
19.6640239715
 21
15.7521871224
  0
LINE
  5
24B
100
AcDbEntity
  8
0
100
AcDbLine
 62
7
  6
BYLAYER
 10
4.9415921072
 20
22.5475050888
 11
6.2565466834
 21
22.8998461056
  0
LINE
  5
24C
100
AcDbEntity
  8
0
100
AcDbLine
 62
7
  6
BYLAYER
 10
23.2565466834
 20
22.8998461056
 11
24.5715012596
 21
22.5475050888
  0
LINE
  5
24D
100
AcDbEntity
  8
0
100
AcDbLine
 62
7
  6
BYLAYER
 10
20.2565466834
 20
8.2398461056
 11
20.2565466834
 21
9.5898461056
  0
LINE
  5
24E
100
AcDbEntity
  8
0
100
AcDbLine
 62
7
  6
BYLAYER
 10
20.3565466834
 20
7.0898461056
 11
20.3565466834
 21
5.8898461056
  0
LINE
  5
24F
100
AcDbEntity
  8
0
100
AcDbLine
 62
7
  6
BYLAYER
 10
20.7565466834
 20
13.6898461056
 11
20.7565466834
 21
15.3998461056
  0
LINE
  5
250
100
AcDbEntity
  8
0
100
AcDbLine
 62
7
  6
BYLAYER
 10
20.7565466834
 20
18.8998461056
 11
20.7565466834
 21
19.3998461056
  0
LINE
  5
251
100
AcDbEntity
  8
0
100
AcDbLine
 62
7
  6
BYLAYER
 10
20.7565466834
 20
22.8998461056
 11
20.7565466834
 21
28.6898461056
  0
LINE
  5
252
100
AcDbEntity
  8
0
100
AcDbLine
 62
7
  6
BYLAYER
 10
21.1065466834
 20
3.8898461056
 11
21.1065466834
 21
5.8898461056
  0
LINE
  5
253
100
AcDbEntity
  8
0
100
AcDbLine
 62
7
  6
BYLAYER
 10
21.1065466834
 20
7.2898461056
 11
21.1065466834
 21
8.2398461056
  0
LINE
  5
254
100
AcDbEntity
  8
0
100
AcDbLine
 62
7
  6
BYLAYER
 10
21.5065466834
 20
11.6898461056
 11
21.5065466834
 21
9.5898461056
  0
LINE
  5
255
100
AcDbEntity
  8
0
100
AcDbLine
 62
7
  6
BYLAYER
 10
22.7065466834
 20
13.4898461056
 11
22.7065466834
 21
11.6898461056
  0
LINE
  5
256
100
AcDbEntity
  8
0
100
AcDbLine
 62
7
  6
BYLAYER
 10
8.7565466834
 20
28.6898461056
 11
20.7565466834
 21
28.6898461056
  0
LINE
  5
257
100
AcDbEntity
  8
0
100
AcDbLine
 62
7
  6
BYLAYER
 10
9.7566271691
 20
29.6898461056
 11
19.7564661977
 21
29.6898461056
  0
LINE
  5
258
100
AcDbEntity
  8
0
100
AcDbLine
 62
7
  6
BYLAYER
 10
24.5715012596
 20
22.5475050888
 11
24.5715012596
 21
19.7521871224
  0
LINE
  5
259
100
AcDbEntity
  8
0
100
AcDbLine
 62
7
  6
BYLAYER
 10
24.5715012596
 20
18.5475050888
 11
24.5715012596
 21
15.7521871224
  0
LINE
  5
25A
100
AcDbEntity
  8
0
100
AcDbLine
 62
7
  6
BYLAYER
 10
19.7565466834
 20
29.6898461056
 11
20.7565466834
 21
28.6898461056
  0
LINE
  5
25B
100
AcDbEntity
  8
0
100
AcDbLine
 62
7
  6
BYLAYER
 10
20.9065466834
 20
7.0898461056
 11
21.1065466834
 21
7.2898461056
  0
LINE
  5
25C
100
AcDbEntity
  8
0
100
AcDbLine
 62
7
  6
BYLAYER
 10
11.2565466834
 20
36.5837929759
 11
18.2565466834
 21
36.5837929759
  0
LINE
  5
25D
100
AcDbEntity
  8
0
100
AcDbLine
 62
7
  6
BYLAYER
 10
11.3517849342
 20
36.7541601419
 11
18.1613084326
 21
36.7541601419
  0
LINE
  5
25E
100
AcDbEntity
  8
0
100
AcDbLine
 62
7
  6
BYLAYER
 10
13.7565466834
 20
37.6398461056
 11
15.7565466834
 21
37.6398461056
  0
ARC
  5
25F
100
AcDbEntity
  8
0
100
AcDbCircle
 62
7
  6
BYLAYER
 10
14.7565466834
 20
31.2172298163
 40
6.5
100
AcDbArc
 50
98.8498830984
 51
121.5881338954
  0
ARC
  5
260
100
AcDbEntity
  8
0
100
AcDbCircle
 62
7
  6
BYLAYER
 10
14.7565466834
 20
31.2172298163
 40
6.5
100
AcDbArc
 50
58.4118661046
 51
81.1501169016
  0
ARC
  5
261
100
AcDbEntity
  8
0
100
AcDbCircle
 62
7
  6
BYLAYER
 10
20.6065466834
 20
3.8898461056
 40
0.5
100
AcDbArc
 50
270.0
 51
360.0
  0
ARC
  5
262
100
AcDbEntity
  8
0
100
AcDbCircle
 62
7
  6
BYLAYER
 10
8.9065466834
 20
3.8898461056
 40
0.5
100
AcDbArc
 50
180.0
 51
270.0
  0
ARC
  5
263
100
AcDbEntity
  8
0
100
AcDbCircle
 62
7
  6
BYLAYER
 10
11.4565466834
 20
36.5837929623
 40
0.2
100
AcDbArc
 50
121.5881355052
 51
180.0
  0
ARC
  5
264
100
AcDbEntity
  8
0
100
AcDbCircle
 62
7
  6
BYLAYER
 10
18.0565466834
 20
36.5837929623
 40
0.2
100
AcDbArc
 50
0.0
 51
58.4118644948
  0
ARC
  5
265
100
AcDbEntity
  8
0
100
AcDbCircle
 62
7
  6
BYLAYER
 10
7.0065466834
 20
13.4898461056
 40
0.2
100
AcDbArc
 50
90.0
 51
180.0
  0
ARC
  5
266
100
AcDbEntity
  8
0
100
AcDbCircle
 62
7
  6
BYLAYER
 10
22.5065466834
 20
13.4898461056
 40
0.2
100
AcDbArc
 50
0.0
 51
90.0
  0
SPLINE
  5
267
100
AcDbEntity
  8
0
100
AcDbSpline
 62
7
  6
BYLAYER
 70
0
 71
3
 72
11
 73
7
 74
0
 42
0.0000001
 43
0.0000001
 44
0.0000000001
 40
0.0
 40
0.0
 40
0.0
 40
0.0
 40
0.2500019724
 40
0.5000023334
 40
0.7500012115
 40
1.0
 40
1.0
 40
1.0
 40
1.0
 10
19.6640239715
 20
19.7521871224
 30
0.0
 10
19.2573541106
 20
19.697703692
 30
0.0
 10
18.4426299096
 20
19.5986999141
 30
0.0
 10
17.2166642937
 20
19.4862839741
 30
0.0
 10
15.9875265975
 20
19.4158618483
 30
0.0
 10
15.1668447856
 20
19.3998461056
 30
0.0
 10
14.7565466842
 20
19.3998461056
 30
0.0
  0
SPLINE
  5
268
100
AcDbEntity
  8
0
100
AcDbSpline
 62
7
  6
BYLAYER
 70
0
 71
3
 72
11
 73
7
 74
0
 42
0.0000001
 43
0.0000001
 44
0.0000000001
 40
0.0
 40
0.0
 40
0.0
 40
0.0
 40
0.24999879
 40
0.4999976682
 40
0.7499980293
 40
1.0
 40
1.0
 40
1.0
 40
1.0
 10
14.7565466842
 20
19.3998461056
 30
0.0
 10
14.3462485804
 20
19.3998461056
 30
0.0
 10
13.5255667666
 20
19.4158618573
 30
0.0
 10
12.2964290636
 20
19.486283939
 30
0.0
 10
11.0704634625
 20
19.598700008
 30
0.0
 10
10.2557392535
 20
19.6977036923
 30
0.0
 10
9.8490693953
 20
19.7521871224
 30
0.0
  0
SPLINE
  5
269
100
AcDbEntity
  8
0
100
AcDbSpline
 62
7
  6
BYLAYER
 70
0
 71
3
 72
11
 73
7
 74
0
 42
0.0000001
 43
0.0000001
 44
0.0000000001
 40
0.0
 40
0.0
 40
0.0
 40
0.0
 40
0.2528702685
 40
0.5034894095
 40
0.7522694284
 40
1.0
 40
1.0
 40
1.0
 40
1.0
 10
9.8490693953
 20
19.7521871224
 30
0.0
 10
9.6466864916
 20
19.6979587868
 30
0.0
 10
9.2411266165
 20
19.5992883582
 30
0.0
 10
8.6276766148
 20
19.4866180503
 30
0.0
 10
8.0121608133
 20
19.4159444298
 30
0.0
 10
7.6005943224
 20
19.3998461056
 30
0.0
 10
7.3953307517
 20
19.3998461056
 30
0.0
  0
SPLINE
  5
26A
100
AcDbEntity
  8
0
100
AcDbSpline
 62
7
  6
BYLAYER
 70
0
 71
3
 72
11
 73
7
 74
0
 42
0.0000001
 43
0.0000001
 44
0.0000000001
 40
0.0
 40
0.0
 40
0.0
 40
0.0
 40
0.2477305731
 40
0.4965105923
 40
0.7471297326
 40
1.0
 40
1.0
 40
1.0
 40
1.0
 10
7.3953307517
 20
22.8998461056
 30
0.0
 10
7.6005943237
 20
22.8998461056
 30
0.0
 10
8.0121608162
 20
22.8837477819
 30
0.0
 10
8.6276766181
 20
22.813074157
 30
0.0
 10
9.2411266189
 20
22.7004038522
 30
0.0
 10
9.6466864926
 20
22.6017334242
 30
0.0
 10
9.8490693953
 20
22.5475050888
 30
0.0
  0
SPLINE
  5
26B
100
AcDbEntity
  8
0
100
AcDbSpline
 62
7
  6
BYLAYER
 70
0
 71
3
 72
11
 73
7
 74
0
 42
0.0000001
 43
0.0000001
 44
0.0000000001
 40
0.0
 40
0.0
 40
0.0
 40
0.0
 40
0.2500019719
 40
0.5000023336
 40
0.7500012116
 40
1.0
 40
1.0
 40
1.0
 40
1.0
 10
9.8490693953
 20
22.5475050888
 30
0.0
 10
10.2557392553
 20
22.6019885191
 30
0.0
 10
11.0704634669
 20
22.700992204
 30
0.0
 10
12.2964290701
 20
22.8134082761
 30
0.0
 10
13.5255667712
 20
22.8838303534
 30
0.0
 10
14.3462485818
 20
22.8998461056
 30
0.0
 10
14.7565466829
 20
22.8998461056
 30
0.0
  0
SPLINE
  5
26C
100
AcDbEntity
  8
0
100
AcDbSpline
 62
7
  6
BYLAYER
 70
0
 71
3
 72
11
 73
7
 74
0
 42
0.0000001
 43
0.0000001
 44
0.0000000001
 40
0.0
 40
0.0
 40
0.0
 40
0.0
 40
0.2528702647
 40
0.5034894097
 40
0.7522694285
 40
1.0
 40
1.0
 40
1.0
 40
1.0
 10
4.9415921072
 20
22.5475050888
 30
0.0
 10
5.1439750078
 20
22.6017334236
 30
0.0
 10
5.549534903
 20
22.7004037625
 30
0.0
 10
6.1629848798
 20
22.8130741985
 30
0.0
 10
6.7785006922
 20
22.8837477723
 30
0.0
 10
7.1900671811
 20
22.8998461056
 30
0.0
 10
7.3953307517
 20
22.8998461056
 30
0.0
  0
SPLINE
  5
26D
100
AcDbEntity
  8
0
100
AcDbSpline
 62
7
  6
BYLAYER
 70
0
 71
3
 72
11
 73
7
 74
0
 42
0.0000001
 43
0.0000001
 44
0.0000000001
 40
0.0
 40
0.0
 40
0.0
 40
0.0
 40
0.2528702647
 40
0.5034894097
 40
0.7522694285
 40
1.0
 40
1.0
 40
1.0
 40
1.0
 10
19.6640239715
 20
22.5475050888
 30
0.0
 10
19.866406872
 20
22.6017334236
 30
0.0
 10
20.271966767
 20
22.7004037624
 30
0.0
 10
20.8854167435
 20
22.8130741984
 30
0.0
 10
21.5009325556
 20
22.8837477722
 30
0.0
 10
21.9124990443
 20
22.8998461056
 30
0.0
 10
22.1177626148
 20
22.8998461056
 30
0.0
  0
SPLINE
  5
26E
100
AcDbEntity
  8
0
100
AcDbSpline
 62
7
  6
BYLAYER
 70
0
 71
3
 72
11
 73
7
 74
0
 42
0.0000001
 43
0.0000001
 44
0.0000000001
 40
0.0
 40
0.0
 40
0.0
 40
0.0
 40
0.2499987901
 40
0.4999976683
 40
0.7499980287
 40
1.0
 40
1.0
 40
1.0
 40
1.0
 10
14.7565466829
 20
22.8998461056
 30
0.0
 10
15.166844787
 20
22.8998461056
 30
0.0
 10
15.987526602
 20
22.8838303635
 30
0.0
 10
17.2166643001
 20
22.8134082332
 30
0.0
 10
18.4426299139
 20
22.7009922963
 30
0.0
 10
19.2573541123
 20
22.601988519
 30
0.0
 10
19.6640239715
 20
22.5475050888
 30
0.0
  0
SPLINE
  5
26F
100
AcDbEntity
  8
0
100
AcDbSpline
 62
7
  6
BYLAYER
 70
0
 71
3
 72
11
 73
7
 74
0
 42
0.0000001
 43
0.0000001
 44
0.0000000001
 40
0.0
 40
0.0
 40
0.0
 40
0.0
 40
0.2477305731
 40
0.4965105923
 40
0.7471297326
 40
1.0
 40
1.0
 40
1.0
 40
1.0
 10
22.1177626148
 20
22.8998461056
 30
0.0
 10
22.3230261869
 20
22.8998461056
 30
0.0
 10
22.7345926796
 20
22.883747782
 30
0.0
 10
23.3501084818
 20
22.8130741571
 30
0.0
 10
23.9635584829
 20
22.7004038523
 30
0.0
 10
24.3691183568
 20
22.6017334242
 30
0.0
 10
24.5715012596
 20
22.5475050888
 30
0.0
  0
SPLINE
  5
270
100
AcDbEntity
  8
0
100
AcDbSpline
 62
7
  6
BYLAYER
 70
0
 71
3
 72
11
 73
7
 74
0
 42
0.0000001
 43
0.0000001
 44
0.0000000001
 40
0.0
 40
0.0
 40
0.0
 40
0.0
 40
0.2477305731
 40
0.4965105922
 40
0.7471297364
 40
1.0
 40
1.0
 40
1.0
 40
1.0
 10
7.3953307517
 20
19.3998461056
 30
0.0
 10
7.1900671798
 20
19.3998461056
 30
0.0
 10
6.7785006893
 20
19.4159444384
 30
0.0
 10
6.1629848765
 20
19.4866180166
 30
0.0
 10
5.5495349006
 20
19.5992884495
 30
0.0
 10
5.1439750068
 20
19.6979587879
 30
0.0
 10
4.9415921072
 20
19.7521871224
 30
0.0
  0
SPLINE
  5
271
100
AcDbEntity
  8
0
100
AcDbSpline
 62
7
  6
BYLAYER
 70
0
 71
3
 72
11
 73
7
 74
0
 42
0.0000001
 43
0.0000001
 44
0.0000000001
 40
0.0
 40
0.0
 40
0.0
 40
0.0
 40
0.2528702685
 40
0.5034894095
 40
0.7522694284
 40
1.0
 40
1.0
 40
1.0
 40
1.0
 10
24.5715012596
 20
19.7521871224
 30
0.0
 10
24.3691183558
 20
19.6979587867
 30
0.0
 10
23.9635584806
 20
19.5992883581
 30
0.0
 10
23.3501084785
 20
19.4866180502
 30
0.0
 10
22.7345926767
 20
19.4159444297
 30
0.0
 10
22.3230261856
 20
19.3998461056
 30
0.0
 10
22.1177626148
 20
19.3998461056
 30
0.0
  0
SPLINE
  5
272
100
AcDbEntity
  8
0
100
AcDbSpline
 62
7
  6
BYLAYER
 70
0
 71
3
 72
11
 73
7
 74
0
 42
0.0000001
 43
0.0000001
 44
0.0000000001
 40
0.0
 40
0.0
 40
0.0
 40
0.0
 40
0.2477305731
 40
0.4965105922
 40
0.7471297364
 40
1.0
 40
1.0
 40
1.0
 40
1.0
 10
22.1177626148
 20
19.3998461056
 30
0.0
 10
21.912499043
 20
19.3998461056
 30
0.0
 10
21.5009325527
 20
19.4159444385
 30
0.0
 10
20.8854167402
 20
19.4866180167
 30
0.0
 10
20.2719667647
 20
19.5992884496
 30
0.0
 10
19.866406871
 20
19.6979587879
 30
0.0
 10
19.6640239715
 20
19.7521871224
 30
0.0
  0
SPLINE
  5
273
100
AcDbEntity
  8
0
100
AcDbSpline
 62
7
  6
BYLAYER
 70
0
 71
3
 72
11
 73
7
 74
0
 42
0.0000001
 43
0.0000001
 44
0.0000000001
 40
0.0
 40
0.0
 40
0.0
 40
0.0
 40
0.2500019724
 40
0.5000023334
 40
0.7500012115
 40
1.0
 40
1.0
 40
1.0
 40
1.0
 10
19.6640239715
 20
15.7521871224
 30
0.0
 10
19.2573541106
 20
15.697703692
 30
0.0
 10
18.4426299096
 20
15.5986999141
 30
0.0
 10
17.2166642937
 20
15.4862839741
 30
0.0
 10
15.9875265975
 20
15.4158618483
 30
0.0
 10
15.1668447856
 20
15.3998461056
 30
0.0
 10
14.7565466842
 20
15.3998461056
 30
0.0
  0
SPLINE
  5
274
100
AcDbEntity
  8
0
100
AcDbSpline
 62
7
  6
BYLAYER
 70
0
 71
3
 72
11
 73
7
 74
0
 42
0.0000001
 43
0.0000001
 44
0.0000000001
 40
0.0
 40
0.0
 40
0.0
 40
0.0
 40
0.24999879
 40
0.4999976682
 40
0.7499980293
 40
1.0
 40
1.0
 40
1.0
 40
1.0
 10
14.7565466842
 20
15.3998461056
 30
0.0
 10
14.3462485804
 20
15.3998461056
 30
0.0
 10
13.5255667666
 20
15.4158618573
 30
0.0
 10
12.2964290636
 20
15.486283939
 30
0.0
 10
11.0704634625
 20
15.598700008
 30
0.0
 10
10.2557392535
 20
15.6977036923
 30
0.0
 10
9.8490693953
 20
15.7521871224
 30
0.0
  0
SPLINE
  5
275
100
AcDbEntity
  8
0
100
AcDbSpline
 62
7
  6
BYLAYER
 70
0
 71
3
 72
11
 73
7
 74
0
 42
0.0000001
 43
0.0000001
 44
0.0000000001
 40
0.0
 40
0.0
 40
0.0
 40
0.0
 40
0.2528702685
 40
0.5034894095
 40
0.7522694284
 40
1.0
 40
1.0
 40
1.0
 40
1.0
 10
9.8490693953
 20
15.7521871224
 30
0.0
 10
9.6466864916
 20
15.6979587868
 30
0.0
 10
9.2411266165
 20
15.5992883582
 30
0.0
 10
8.6276766148
 20
15.4866180503
 30
0.0
 10
8.0121608133
 20
15.4159444298
 30
0.0
 10
7.6005943224
 20
15.3998461056
 30
0.0
 10
7.3953307517
 20
15.3998461056
 30
0.0
  0
SPLINE
  5
276
100
AcDbEntity
  8
0
100
AcDbSpline
 62
7
  6
BYLAYER
 70
0
 71
3
 72
11
 73
7
 74
0
 42
0.0000001
 43
0.0000001
 44
0.0000000001
 40
0.0
 40
0.0
 40
0.0
 40
0.0
 40
0.2477305731
 40
0.4965105923
 40
0.7471297326
 40
1.0
 40
1.0
 40
1.0
 40
1.0
 10
7.3953307517
 20
18.8998461056
 30
0.0
 10
7.6005943237
 20
18.8998461056
 30
0.0
 10
8.0121608162
 20
18.8837477819
 30
0.0
 10
8.6276766181
 20
18.813074157
 30
0.0
 10
9.2411266189
 20
18.7004038522
 30
0.0
 10
9.6466864926
 20
18.6017334242
 30
0.0
 10
9.8490693953
 20
18.5475050888
 30
0.0
  0
SPLINE
  5
277
100
AcDbEntity
  8
0
100
AcDbSpline
 62
7
  6
BYLAYER
 70
0
 71
3
 72
11
 73
7
 74
0
 42
0.0000001
 43
0.0000001
 44
0.0000000001
 40
0.0
 40
0.0
 40
0.0
 40
0.0
 40
0.2500019719
 40
0.5000023336
 40
0.7500012116
 40
1.0
 40
1.0
 40
1.0
 40
1.0
 10
9.8490693953
 20
18.5475050888
 30
0.0
 10
10.2557392553
 20
18.6019885191
 30
0.0
 10
11.0704634669
 20
18.700992204
 30
0.0
 10
12.2964290701
 20
18.8134082761
 30
0.0
 10
13.5255667712
 20
18.8838303534
 30
0.0
 10
14.3462485818
 20
18.8998461056
 30
0.0
 10
14.7565466829
 20
18.8998461056
 30
0.0
  0
SPLINE
  5
278
100
AcDbEntity
  8
0
100
AcDbSpline
 62
7
  6
BYLAYER
 70
0
 71
3
 72
11
 73
7
 74
0
 42
0.0000001
 43
0.0000001
 44
0.0000000001
 40
0.0
 40
0.0
 40
0.0
 40
0.0
 40
0.2528702647
 40
0.5034894097
 40
0.7522694285
 40
1.0
 40
1.0
 40
1.0
 40
1.0
 10
4.9415921072
 20
18.5475050888
 30
0.0
 10
5.1439750078
 20
18.6017334236
 30
0.0
 10
5.549534903
 20
18.7004037625
 30
0.0
 10
6.1629848798
 20
18.8130741985
 30
0.0
 10
6.7785006922
 20
18.8837477723
 30
0.0
 10
7.1900671811
 20
18.8998461056
 30
0.0
 10
7.3953307517
 20
18.8998461056
 30
0.0
  0
SPLINE
  5
279
100
AcDbEntity
  8
0
100
AcDbSpline
 62
7
  6
BYLAYER
 70
0
 71
3
 72
11
 73
7
 74
0
 42
0.0000001
 43
0.0000001
 44
0.0000000001
 40
0.0
 40
0.0
 40
0.0
 40
0.0
 40
0.2528702647
 40
0.5034894097
 40
0.7522694285
 40
1.0
 40
1.0
 40
1.0
 40
1.0
 10
19.6640239715
 20
18.5475050888
 30
0.0
 10
19.866406872
 20
18.6017334236
 30
0.0
 10
20.271966767
 20
18.7004037624
 30
0.0
 10
20.8854167435
 20
18.8130741984
 30
0.0
 10
21.5009325556
 20
18.8837477722
 30
0.0
 10
21.9124990443
 20
18.8998461056
 30
0.0
 10
22.1177626148
 20
18.8998461056
 30
0.0
  0
SPLINE
  5
27A
100
AcDbEntity
  8
0
100
AcDbSpline
 62
7
  6
BYLAYER
 70
0
 71
3
 72
11
 73
7
 74
0
 42
0.0000001
 43
0.0000001
 44
0.0000000001
 40
0.0
 40
0.0
 40
0.0
 40
0.0
 40
0.2499987901
 40
0.4999976683
 40
0.7499980287
 40
1.0
 40
1.0
 40
1.0
 40
1.0
 10
14.7565466829
 20
18.8998461056
 30
0.0
 10
15.166844787
 20
18.8998461056
 30
0.0
 10
15.987526602
 20
18.8838303635
 30
0.0
 10
17.2166643001
 20
18.8134082332
 30
0.0
 10
18.4426299139
 20
18.7009922963
 30
0.0
 10
19.2573541123
 20
18.601988519
 30
0.0
 10
19.6640239715
 20
18.5475050888
 30
0.0
  0
SPLINE
  5
27B
100
AcDbEntity
  8
0
100
AcDbSpline
 62
7
  6
BYLAYER
 70
0
 71
3
 72
11
 73
7
 74
0
 42
0.0000001
 43
0.0000001
 44
0.0000000001
 40
0.0
 40
0.0
 40
0.0
 40
0.0
 40
0.2477305731
 40
0.4965105923
 40
0.7471297326
 40
1.0
 40
1.0
 40
1.0
 40
1.0
 10
22.1177626148
 20
18.8998461056
 30
0.0
 10
22.3230261869
 20
18.8998461056
 30
0.0
 10
22.7345926796
 20
18.883747782
 30
0.0
 10
23.3501084818
 20
18.8130741571
 30
0.0
 10
23.9635584829
 20
18.7004038523
 30
0.0
 10
24.3691183568
 20
18.6017334242
 30
0.0
 10
24.5715012596
 20
18.5475050888
 30
0.0
  0
SPLINE
  5
27C
100
AcDbEntity
  8
0
100
AcDbSpline
 62
7
  6
BYLAYER
 70
0
 71
3
 72
11
 73
7
 74
0
 42
0.0000001
 43
0.0000001
 44
0.0000000001
 40
0.0
 40
0.0
 40
0.0
 40
0.0
 40
0.2477305731
 40
0.4965105922
 40
0.7471297364
 40
1.0
 40
1.0
 40
1.0
 40
1.0
 10
7.3953307517
 20
15.3998461056
 30
0.0
 10
7.1900671798
 20
15.3998461056
 30
0.0
 10
6.7785006893
 20
15.4159444384
 30
0.0
 10
6.1629848765
 20
15.4866180166
 30
0.0
 10
5.5495349006
 20
15.5992884495
 30
0.0
 10
5.1439750068
 20
15.6979587879
 30
0.0
 10
4.9415921072
 20
15.7521871224
 30
0.0
  0
SPLINE
  5
27D
100
AcDbEntity
  8
0
100
AcDbSpline
 62
7
  6
BYLAYER
 70
0
 71
3
 72
11
 73
7
 74
0
 42
0.0000001
 43
0.0000001
 44
0.0000000001
 40
0.0
 40
0.0
 40
0.0
 40
0.0
 40
0.2528702685
 40
0.5034894095
 40
0.7522694284
 40
1.0
 40
1.0
 40
1.0
 40
1.0
 10
24.5715012596
 20
15.7521871224
 30
0.0
 10
24.3691183558
 20
15.6979587867
 30
0.0
 10
23.9635584806
 20
15.5992883581
 30
0.0
 10
23.3501084785
 20
15.4866180502
 30
0.0
 10
22.7345926767
 20
15.4159444297
 30
0.0
 10
22.3230261856
 20
15.3998461056
 30
0.0
 10
22.1177626148
 20
15.3998461056
 30
0.0
  0
SPLINE
  5
27E
100
AcDbEntity
  8
0
100
AcDbSpline
 62
7
  6
BYLAYER
 70
0
 71
3
 72
11
 73
7
 74
0
 42
0.0000001
 43
0.0000001
 44
0.0000000001
 40
0.0
 40
0.0
 40
0.0
 40
0.0
 40
0.2477305731
 40
0.4965105922
 40
0.7471297364
 40
1.0
 40
1.0
 40
1.0
 40
1.0
 10
22.1177626148
 20
15.3998461056
 30
0.0
 10
21.912499043
 20
15.3998461056
 30
0.0
 10
21.5009325527
 20
15.4159444385
 30
0.0
 10
20.8854167402
 20
15.4866180167
 30
0.0
 10
20.2719667647
 20
15.5992884496
 30
0.0
 10
19.866406871
 20
15.6979587879
 30
0.0
 10
19.6640239715
 20
15.7521871224
 30
0.0
  0
SPLINE
  5
27F
100
AcDbEntity
  8
0
100
AcDbSpline
 62
7
  6
BYLAYER
 70
0
 71
3
 72
9
 73
5
 74
0
 42
0.0000001
 43
0.0000001
 44
0.0000000001
 40
0.0
 40
0.0
 40
0.0
 40
0.0
 40
0.4893694003
 40
1.0
 40
1.0
 40
1.0
 40
1.0
 10
14.5480400399
 20
7.2898461056
 30
0.0
 10
14.5795027364
 20
7.2740266133
 30
0.0
 10
14.6475647447
 20
7.2486736721
 30
0.0
 10
14.7198008191
 20
7.2398461056
 30
0.0
 10
14.7565466834
 20
7.2398461056
 30
0.0
  0
SPLINE
  5
280
100
AcDbEntity
  8
0
100
AcDbSpline
 62
7
  6
BYLAYER
 70
0
 71
3
 72
9
 73
5
 74
0
 42
0.0000001
 43
0.0000001
 44
0.0000000001
 40
0.0
 40
0.0
 40
0.0
 40
0.0
 40
0.510637085
 40
1.0
 40
1.0
 40
1.0
 40
1.0
 10
14.7565466834
 20
7.2398461056
 30
0.0
 10
14.7932930028
 20
7.2398461056
 30
0.0
 10
14.8655289628
 20
7.2486743491
 30
0.0
 10
14.9335910574
 20
7.274026828
 30
0.0
 10
14.9650533269
 20
7.2898461056
 30
0.0
  0
ENDSEC
  0
SECTION
  2
OBJECTS
  0
DICTIONARY
  5
C
100
AcDbDictionary
280
0
281
1
  3
ACAD_GROUP
350
D
  3
ACAD_MLINESTYLE
350
17
  3
ACAD_LAYOUT
350
1A
  3
ACAD_PLOTSETTINGS
350
19
  3
ACAD_PLOTSTYLENAME
350
E
  0
DICTIONARY
  5
D
102
{ACAD_REACTORS
330
C
102
}
100
AcDbDictionary
280
0
281
1
  0
ACDBDICTIONARYWDFLT
  5
E
102
{ACAD_REACTORS
330
C
102
}
100
AcDbDictionary
281
1
  3
Normal
350
F
100
AcDbDictionaryWithDefault
340
F
  0
DICTIONARY
  5
17
102
{ACAD_REACTORS
330
C
102
}
100
AcDbDictionary
280
0
281
1
  3
Standard
350
18
  0
DICTIONARY
  5
19
102
{ACAD_REACTORS
330
C
102
}
100
AcDbDictionary
281
1
  0
DICTIONARY
  5
1A
102
{ACAD_REACTORS
330
C
102
}
100
AcDbDictionary
281
1
  3
Model
350
281
  3
Layout1
350
282
  0
ACDBPLACEHOLDER
  5
F
102
{ACAD_REACTORS
330
E
102
}
  0
MLINESTYLE
  5
18
102
{ACAD_REACTORS
330
17
102
}
100
AcDbMlineStyle
  2
STANDARD
 70
0
  3

 62
256
 51
90.0
 52
90.0
 71
2
 49
0.5
 62
256
  6
BYLAYER
 49
-0.5
 62
256
  6
BYLAYER
  0
LAYOUT
  5
281
102
{ACAD_REACTORS
330
1A
102
}
100
AcDbPlotSettings
  1

  2
none_device
  4

  6

 40
0.0
 41
0.0
 42
0.0
 43
0.0
 44
210.0
 45
297.0
 46
0.0
 47
0.0
 48
0.0
 49
0.0
140
0.0
141
0.0
142
1.0
143
1.0
 70
1024
 72
1
 73
0
 74
0
  7

 75
0
147
1.0
148
0.0
149
0.0
100
AcDbLayout
  1
Model
 70
0
 71
0
 10
0.0
 20
0.0
 11
210.0
 21
297.0
 12
0.0
 22
0.0
 32
0.0
 14
0.0
 24
0.0
 34
0.0
 15
0.0
 25
0.0
 35
0.0
146
0.0
 13
0.0
 23
0.0
 33
0.0
 16
1.0
 26
0.0
 36
0.0
 17
0.0
 27
1.0
 37
0.0
 76
0
330
210
345
0
346
0
  0
LAYOUT
  5
282
102
{ACAD_REACTORS
330
1A
102
}
100
AcDbPlotSettings
  1

  2
none_device
  4

  6

 40
0.0
 41
0.0
 42
0.0
 43
0.0
 44
210.0
 45
297.0
 46
0.0
 47
0.0
 48
0.0
 49
0.0
140
0.0
141
0.0
142
1.0
143
1.0
 70
0
 72
1
 73
0
 74
0
  7

 75
0
147
1.0
148
0.0
149
0.0
100
AcDbLayout
  1
Layout1
 70
0
 71
1
 10
0.0
 20
0.0
 11
210.0
 21
297.0
 12
0.0
 22
0.0
 32
0.0
 14
0.0
 24
0.0
 34
0.0
 15
0.0
 25
0.0
 35
0.0
146
0.0
 13
0.0
 23
0.0
 33
0.0
 16
1.0
 26
0.0
 36
0.0
 17
0.0
 27
1.0
 37
0.0
 76
0
330
211
345
0
346
0
  0
ENDSEC
  0
EOF
