999
DXF file: C:\Users\sesa63760\Dev\_Creo\CAD\MCADID0004748_3D-CAD\drw0001_6.dxf
999
Pro/ENGINEER 2019471 by Parametric Technology Corporation
  0
SECTION
  2
HEADER
  9
$ACADVER
  1
AC1024
  9
$DWGCODEPAGE
  3
ANSI_1252
  9
$EXTMAX
 10
39.1422568009
 20
55.3583346184
 30
0.0
  9
$EXTMIN
 10
0.0
 20
0.0
 30
0.0
  9
$LIMMIN
 10
0.0
 20
0.0
  9
$LIMMAX
 10
39.1422568009
 20
55.3583346184
  9
$VIEWCTR
 10
19.5711284004
 20
27.6791673092
  9
$VIEWSIZE
 40
55.3583346184
  9
$CLAYER
  8
0
  9
$LTSCALE
 40
3.6085432936
  9
$CELTYPE
  6
BYLAYER
  9
$DIMSCALE
 40
1.0
  9
$DIMASZ
 40
0.4659792476
  9
$DIMEXO
 40
1.0
  9
$DIMDLI
 40
2.4931753665
  9
$DIMEXE
 40
1.0
  9
$DIMCEN
 40
0.5904889026
  9
$DIMLFAC
 40
1.0
  9
$DIMBLK
  1
_FILLED
  9
$DIMALT
 70
0
  9
$DIMALTF
 40
0.0393700787
  9
$DIMTXT
 40
0.6523709467
  9
$DIMTOL
 70
1
  9
$DIMLIM
 70
0
  9
$DIMTFAC
 40
1.0
  9
$DIMTP
 40
0.01
  9
$DIMTM
 40
0.01
  9
$DIMGAP
 40
0.625
  9
$DIMDSEP
 70
46
  9
$AUNITS
 70
0
  9
$PDMODE
 70
3
  9
$PDSIZE
 40
0.3125
  9
$HANDSEED
  5
290
  9
$TILEMODE
 70
1
  9
$MEASUREMENT
 70
1
  9
$INSUNITS
 70
4
  0
ENDSEC
  0
SECTION
  2
CLASSES
  0
CLASS
  1
ACDBDICTIONARYWDFLT
  2
AcDbDictionaryWithDefault
  3
AutoCAD 2000
 90
0
 91
1
280
0
281
0
  0
CLASS
  1
ACDBPLACEHOLDER
  2
AcDbPlaceHolder
  3
AutoCAD 2000
 90
0
 91
1
280
0
281
0
  0
CLASS
  1
LAYOUT
  2
AcDbLayout
  3
AutoCAD 2000
 90
0
 91
0
280
0
281
0
  0
ENDSEC
  0
SECTION
  2
TABLES
  0
TABLE
  2
VPORT
  5
8
100
AcDbSymbolTable
 70
2
  0
VPORT
  5
1F4
100
AcDbSymbolTableRecord
100
AcDbViewportTableRecord
  2
*ACTIVE
 70
0
 10
0.0
 20
0.0
 11
1.0
 21
1.0
 12
19.5711284004
 22
27.6791673092
 13
0.0
 23
0.0
 14
1.0
 24
1.0
 15
0.0
 25
0.0
 16
0.0
 26
0.0
 36
1.0
 17
0.0
 27
0.0
 37
0.0
 40
55.3583346184
 41
0.7070707071
 42
50.0
 43
0.0
 44
0.0
 50
0.0
 51
0.0
 71
0
 72
100
 73
1
 74
1
 75
0
 76
0
 77
0
 78
0
  0
ENDTAB
  0
TABLE
  2
LTYPE
  5
5
100
AcDbSymbolTable
 70
6
  0
LTYPE
  5
14
100
AcDbSymbolTableRecord
100
AcDbLinetypeTableRecord
  2
BYBLOCK
 70
0
  3

 72
65
 73
0
 40
0.0
  0
LTYPE
  5
15
100
AcDbSymbolTableRecord
100
AcDbLinetypeTableRecord
  2
BYLAYER
 70
0
  3

 72
65
 73
0
 40
0.0
  0
LTYPE
  5
16
100
AcDbSymbolTableRecord
100
AcDbLinetypeTableRecord
  2
CONTINUOUS
 70
64
  3
Solid line
 72
65
 73
0
 40
0.0
  0
LTYPE
  5
1F5
100
AcDbSymbolTableRecord
100
AcDbLinetypeTableRecord
  2
CENTER
 70
64
  3
____ _ ____ _ ____ _ ____ _ ____ _ ____ _ ____
 72
65
 73
4
 40
0.6
 49
0.375
 74
0
 49
-0.075
 74
0
 49
0.075
 74
0
 49
-0.075
 74
0
  0
LTYPE
  5
1F6
100
AcDbSymbolTableRecord
100
AcDbLinetypeTableRecord
  2
HIDDEN
 70
64
  3
- - - - - - - - - - - - - - - - - - - -
 72
65
 73
2
 40
0.2
 49
0.1
 74
0
 49
-0.1
 74
0
  0
LTYPE
  5
1F7
100
AcDbSymbolTableRecord
100
AcDbLinetypeTableRecord
  2
PHANTOM
 70
64
  3
_____ _ _ _____ _ _ _____ _ _ _____
 72
65
 73
6
 40
0.8
 49
0.45
 74
0
 49
-0.05
 74
0
 49
0.1
 74
0
 49
-0.05
 74
0
 49
0.1
 74
0
 49
-0.05
 74
0
  0
LTYPE
  5
1F8
100
AcDbSymbolTableRecord
100
AcDbLinetypeTableRecord
  2
DOT
 70
64
  3
. . . . . . . . . . . . . . . . . . . .
 72
65
 73
2
 40
0.2
 49
0.1
 74
0
 49
-0.1
 74
0
  0
LTYPE
  5
1F9
100
AcDbSymbolTableRecord
100
AcDbLinetypeTableRecord
  2
DASHED
 70
64
  3
- - - - - - - - - - - - - - - - - - - -
 72
65
 73
2
 40
0.2
 49
0.1
 74
0
 49
-0.1
 74
0
  0
ENDTAB
  0
TABLE
  2
LAYER
  5
2
100
AcDbSymbolTable
 70
36
  0
LAYER
  5
10
100
AcDbSymbolTableRecord
100
AcDbLayerTableRecord
  2
0
 70
0
 62
7
  6
CONTINUOUS
370
-3
390
F
  0
LAYER
  5
1FA
100
AcDbSymbolTableRecord
100
AcDbLayerTableRecord
  2
DEFAULT_1
 70
0
 62
7
  6
CENTER
370
-3
390
F
  0
LAYER
  5
1FB
100
AcDbSymbolTableRecord
100
AcDbLayerTableRecord
  2
DEFAULT_2
 70
0
 62
7
  6
HIDDEN
370
-3
390
F
  0
LAYER
  5
1FC
100
AcDbSymbolTableRecord
100
AcDbLayerTableRecord
  2
DEFAULT_3
 70
0
 62
7
  6
PHANTOM
370
-3
390
F
  0
LAYER
  5
1FD
100
AcDbSymbolTableRecord
100
AcDbLayerTableRecord
  2
00_COMPONENTS
 70
0
 62
7
  6
CONTINUOUS
370
-3
390
F
  0
LAYER
  5
1FE
100
AcDbSymbolTableRecord
100
AcDbLayerTableRecord
  2
01_1_DEFAULT_DATUMS
 70
0
 62
7
  6
CONTINUOUS
370
-3
390
F
  0
LAYER
  5
1FF
100
AcDbSymbolTableRecord
100
AcDbLayerTableRecord
  2
01_PLANES
 70
0
 62
7
  6
CONTINUOUS
370
-3
390
F
  0
LAYER
  5
200
100
AcDbSymbolTableRecord
100
AcDbLayerTableRecord
  2
02_COORD_SYS
 70
0
 62
7
  6
CONTINUOUS
370
-3
390
F
  0
LAYER
  5
201
100
AcDbSymbolTableRecord
100
AcDbLayerTableRecord
  2
03_AXES
 70
0
 62
7
  6
CONTINUOUS
370
-3
390
F
  0
LAYER
  5
202
100
AcDbSymbolTableRecord
100
AcDbLayerTableRecord
  2
04_POINTS
 70
0
 62
7
  6
CONTINUOUS
370
-3
390
F
  0
LAYER
  5
203
100
AcDbSymbolTableRecord
100
AcDbLayerTableRecord
  2
05_CURVES
 70
0
 62
7
  6
CONTINUOUS
370
-3
390
F
  0
LAYER
  5
204
100
AcDbSymbolTableRecord
100
AcDbLayerTableRecord
  2
06_SURFS
 70
0
 62
7
  6
CONTINUOUS
370
-3
390
F
  0
LAYER
  5
205
100
AcDbSymbolTableRecord
100
AcDbLayerTableRecord
  2
07_COSMETICS
 70
0
 62
7
  6
CONTINUOUS
370
-3
390
F
  0
LAYER
  5
206
100
AcDbSymbolTableRecord
100
AcDbLayerTableRecord
  2
10_NOTES
 70
0
 62
7
  6
CONTINUOUS
370
-3
390
F
  0
LAYER
  5
207
100
AcDbSymbolTableRecord
100
AcDbLayerTableRecord
  2
11_NOTES_PUB
 70
0
 62
7
  6
CONTINUOUS
370
-3
390
F
  0
LAYER
  5
208
100
AcDbSymbolTableRecord
100
AcDbLayerTableRecord
  2
13_REF_GTOL
 70
0
 62
7
  6
CONTINUOUS
370
-3
390
F
  0
LAYER
  5
209
100
AcDbSymbolTableRecord
100
AcDbLayerTableRecord
  2
16_MISC
 70
0
 62
7
  6
CONTINUOUS
370
-3
390
F
  0
LAYER
  5
20A
100
AcDbSymbolTableRecord
100
AcDbLayerTableRecord
  2
17_NO_PRINT
 70
0
 62
7
  6
CONTINUOUS
370
-3
390
F
  0
LAYER
  5
20B
100
AcDbSymbolTableRecord
100
AcDbLayerTableRecord
  2
18_DATUM_CAMS_JOINTS
 70
0
 62
7
  6
CONTINUOUS
370
-3
390
F
  0
LAYER
  5
20C
100
AcDbSymbolTableRecord
100
AcDbLayerTableRecord
  2
19_DATUM_FUNCTIONAL
 70
0
 62
7
  6
CONTINUOUS
370
-3
390
F
  0
LAYER
  5
20D
100
AcDbSymbolTableRecord
100
AcDbLayerTableRecord
  2
20_DATUM_KINEMATIC_SCHEME
 70
0
 62
7
  6
CONTINUOUS
370
-3
390
F
  0
ENDTAB
  0
TABLE
  2
STYLE
  5
3
100
AcDbSymbolTable
 70
1
  0
STYLE
  5
11
100
AcDbSymbolTableRecord
100
AcDbTextStyleTableRecord
  2
STANDARD
 70
0
 40
0.0
 41
1.0
 50
0.0
 71
0
 42
0.2
  3
ARIAL.TTF
  4

  0
STYLE
  5
20E
100
AcDbSymbolTableRecord
100
AcDbTextStyleTableRecord
  2
TEXTSTYLE_1
 70
0
 40
0.0
 41
0.8
 50
0.0
 71
0
 42
0.2
  3
gdt
  4

  0
ENDTAB
  0
TABLE
  2
VIEW
  5
6
100
AcDbSymbolTable
 70
0
  0
ENDTAB
  0
TABLE
  2
UCS
  5
7
100
AcDbSymbolTable
 70
0
  0
ENDTAB
  0
TABLE
  2
APPID
  5
9
100
AcDbSymbolTable
 70
1
  0
APPID
  5
20F
100
AcDbSymbolTableRecord
100
AcDbRegAppTableRecord
  2
ACAD
 70
0
  0
ENDTAB
  0
TABLE
  2
BLOCK_RECORD
  5
1
100
AcDbSymbolTable
 70
0
  0
BLOCK_RECORD
  5
210
100
AcDbSymbolTableRecord
100
AcDbBlockTableRecord
  2
*Model_Space
  0
BLOCK_RECORD
  5
211
100
AcDbSymbolTableRecord
100
AcDbBlockTableRecord
  2
*Paper_Space
  0
BLOCK_RECORD
  5
212
100
AcDbSymbolTableRecord
100
AcDbBlockTableRecord
  2
_FILLED
  0
ENDTAB
  0
TABLE
  2
DIMSTYLE
  5
A
100
AcDbSymbolTable
 70
1
100
AcDbDimStyleTable
 71
0
  0
DIMSTYLE
105
213
100
AcDbSymbolTableRecord
100
AcDbDimStyleTableRecord
  2
STANDARD
 70
0
  3

  4

 40
1.0
 41
0.4659792476
 42
1.0
 43
0.38
 44
1.0
 45
0.0
 46
0.0
 47
0.01
 48
0.01
140
0.6523709467
141
0.09
142
0.0
143
25.4
144
1.0
145
0.0
146
1.0
147
0.625
 71
1
 72
0
 73
0
 74
0
 75
0
 76
0
 77
1
 78
8
 79
2
170
0
171
1
172
0
173
0
174
0
175
0
176
0
177
0
178
0
270
2
179
2
271
2
272
2
273
2
274
2
275
0
280
0
281
0
282
0
283
1
284
8
285
0
286
0
287
3
288
0
340
11
278
46
341
212
342
212
343
212
344
212
  0
ENDTAB
  0
ENDSEC
  0
SECTION
  2
BLOCKS
  0
BLOCK
  5
20
100
AcDbEntity
  8
0
100
AcDbBlockBegin
  2
*Model_Space
 70
0
 10
0.0
 20
0.0
 30
0.0
  3
*Model_Space
  1

  0
ENDBLK
  5
21
100
AcDbEntity
  8
0
100
AcDbBlockEnd
  0
BLOCK
  5
1C
100
AcDbEntity
  8
0
100
AcDbBlockBegin
  2
*Paper_Space
 70
0
 10
0.0
 20
0.0
 30
0.0
  3
*Paper_Space
  1

  0
ENDBLK
  5
1D
100
AcDbEntity
  8
0
100
AcDbBlockEnd
  0
BLOCK
  5
214
100
AcDbEntity
  8
0
100
AcDbBlockBegin
  2
_FILLED
 70
64
 10
0.0
 20
0.0
  3
_FILLED
  1

  0
SOLID
  5
215
100
AcDbEntity
  8
0
  6
BYBLOCK
 62
0
100
AcDbTrace
 10
0.0
 20
0.0
 11
-1.0
 21
0.25
 12
-1.0
 22
-0.25
 13
-1.0
 23
-0.25
  0
ENDBLK
  5
216
100
AcDbEntity
  8
0
  6
BYBLOCK
 62
0
100
AcDbBlockEnd
  0
ENDSEC
  0
SECTION
  2
ENTITIES
  0
LINE
  5
217
100
AcDbEntity
  8
0
100
AcDbLine
 62
7
  6
BYLAYER
 10
25.7598574417
 20
4.5736690168
 11
14.0599188149
 21
4.5736690168
  0
LINE
  5
218
100
AcDbEntity
  8
0
100
AcDbLine
 62
7
  6
BYLAYER
 10
26.259918698
 20
5.0736690168
 11
13.559918698
 21
5.0736690168
  0
LINE
  5
219
100
AcDbEntity
  8
0
100
AcDbLine
 62
7
  6
BYLAYER
 10
13.559918698
 20
7.0736690168
 11
26.259918698
 21
7.0736690168
  0
LINE
  5
21A
100
AcDbEntity
  8
0
100
AcDbLine
 62
7
  6
BYLAYER
 10
25.909918698
 20
7.1736690168
 11
13.909918698
 21
7.1736690168
  0
LINE
  5
21B
100
AcDbEntity
  8
0
100
AcDbLine
 62
7
  6
BYLAYER
 10
25.909918698
 20
8.1736690168
 11
13.909918698
 21
8.1736690168
  0
LINE
  5
21C
100
AcDbEntity
  8
0
100
AcDbLine
 62
7
  6
BYLAYER
 10
26.259918698
 20
8.2736690168
 11
13.559918698
 21
8.2736690168
  0
LINE
  5
21D
100
AcDbEntity
  8
0
100
AcDbLine
 62
7
  6
BYLAYER
 10
13.559918698
 20
9.4236690168
 11
26.259918698
 21
9.4236690168
  0
LINE
  5
21E
100
AcDbEntity
  8
0
100
AcDbLine
 62
7
  6
BYLAYER
 10
26.6099115409
 20
10.7636690168
 11
13.2099258551
 21
10.7636690168
  0
LINE
  5
21F
100
AcDbEntity
  8
0
100
AcDbLine
 62
7
  6
BYLAYER
 10
13.859918698
 20
41.5711599833
 11
13.909918698
 21
41.6000274968
  0
LINE
  5
220
100
AcDbEntity
  8
0
100
AcDbLine
 62
7
  6
BYLAYER
 10
16.659918698
 20
42.5461599833
 11
16.909918698
 21
42.6904975506
  0
LINE
  5
221
100
AcDbEntity
  8
0
100
AcDbLine
 62
7
  6
BYLAYER
 10
11.909918698
 20
12.8736690168
 11
27.909918698
 21
12.8736690168
  0
LINE
  5
222
100
AcDbEntity
  8
0
100
AcDbLine
 62
7
  6
BYLAYER
 10
22.909918698
 20
13.8641160792
 11
16.909918698
 21
13.8641160792
  0
LINE
  5
223
100
AcDbEntity
  8
0
100
AcDbLine
 62
7
  6
BYLAYER
 10
22.909918698
 20
13.8768271228
 11
16.909918698
 21
13.8768271228
  0
LINE
  5
224
100
AcDbEntity
  8
0
100
AcDbLine
 62
7
  6
BYLAYER
 10
27.6569810348
 20
14.110246663
 11
23.909918698
 21
14.110246663
  0
LINE
  5
225
100
AcDbEntity
  8
0
100
AcDbLine
 62
7
  6
BYLAYER
 10
15.909918698
 20
14.110246663
 11
12.1628563606
 21
14.110246663
  0
LINE
  5
226
100
AcDbEntity
  8
0
100
AcDbLine
 62
7
  6
BYLAYER
 10
27.409918698
 20
14.5415479049
 11
23.909918698
 21
14.5415479049
  0
LINE
  5
227
100
AcDbEntity
  8
0
100
AcDbLine
 62
7
  6
BYLAYER
 10
15.909918698
 20
14.5415479049
 11
12.409918698
 21
14.5415479049
  0
LINE
  5
228
100
AcDbEntity
  8
0
100
AcDbLine
 62
7
  6
BYLAYER
 10
15.909918698
 20
16.2736690168
 11
16.909918698
 21
16.2736690168
  0
LINE
  5
229
100
AcDbEntity
  8
0
100
AcDbLine
 62
7
  6
BYLAYER
 10
22.909918698
 20
16.2736690168
 11
23.909918698
 21
16.2736690168
  0
LINE
  5
22A
100
AcDbEntity
  8
0
100
AcDbLine
 62
7
  6
BYLAYER
 10
23.409918698
 20
16.7736690168
 11
22.909918698
 21
16.7736690168
  0
LINE
  5
22B
100
AcDbEntity
  8
0
100
AcDbLine
 62
7
  6
BYLAYER
 10
16.909918698
 20
16.7736690168
 11
16.409918698
 21
16.7736690168
  0
LINE
  5
22C
100
AcDbEntity
  8
0
100
AcDbLine
 62
7
  6
BYLAYER
 10
23.759918698
 20
17.0736690168
 11
22.909918698
 21
17.0736690168
  0
LINE
  5
22D
100
AcDbEntity
  8
0
100
AcDbLine
 62
7
  6
BYLAYER
 10
16.909918698
 20
17.0736690168
 11
16.059918698
 21
17.0736690168
  0
LINE
  5
22E
100
AcDbEntity
  8
0
100
AcDbLine
 62
7
  6
BYLAYER
 10
11.909918698
 20
12.8736690168
 11
11.909918698
 21
26.1736631888
  0
LINE
  5
22F
100
AcDbEntity
  8
0
100
AcDbLine
 62
7
  6
BYLAYER
 10
16.909918698
 20
19.1620258384
 11
22.909918698
 21
19.1620258384
  0
LINE
  5
230
100
AcDbEntity
  8
0
100
AcDbLine
 62
7
  6
BYLAYER
 10
16.059918698
 20
19.3986690168
 11
15.909918698
 21
19.3986690168
  0
LINE
  5
231
100
AcDbEntity
  8
0
100
AcDbLine
 62
7
  6
BYLAYER
 10
12.409918698
 20
14.5415479049
 11
12.409918698
 21
26.6736690168
  0
LINE
  5
232
100
AcDbEntity
  8
0
100
AcDbLine
 62
7
  6
BYLAYER
 10
13.209918698
 20
10.7636690168
 11
13.209918698
 21
12.8736690168
  0
LINE
  5
233
100
AcDbEntity
  8
0
100
AcDbLine
 62
7
  6
BYLAYER
 10
13.559918698
 20
5.0736690168
 11
13.559918698
 21
7.0736690168
  0
LINE
  5
234
100
AcDbEntity
  8
0
100
AcDbLine
 62
7
  6
BYLAYER
 10
13.559918698
 20
8.2736690168
 11
13.559918698
 21
9.4236690168
  0
LINE
  5
235
100
AcDbEntity
  8
0
100
AcDbLine
 62
7
  6
BYLAYER
 10
17.2879929742
 20
34.4204670295
 11
17.3160390104
 21
34.4431687812
  0
LINE
  5
236
100
AcDbEntity
  8
0
100
AcDbLine
 62
7
  6
BYLAYER
 10
13.859918698
 20
38.033086045
 11
13.859918698
 21
41.5711141369
  0
LINE
  5
237
100
AcDbEntity
  8
0
100
AcDbLine
 62
7
  6
BYLAYER
 10
13.909918698
 20
26.6736690168
 11
13.909918698
 21
44.60199628
  0
LINE
  5
238
100
AcDbEntity
  8
0
100
AcDbLine
 62
7
  6
BYLAYER
 10
14.309918698
 20
8.1736690168
 11
14.309918698
 21
8.2736690168
  0
LINE
  5
239
100
AcDbEntity
  8
0
100
AcDbLine
 62
7
  6
BYLAYER
 10
14.409918698
 20
9.4236690168
 11
14.409918698
 21
10.7636690168
  0
LINE
  5
23A
100
AcDbEntity
  8
0
100
AcDbLine
 62
7
  6
BYLAYER
 10
22.909918698
 20
21.7213123216
 11
16.909918698
 21
21.7213123216
  0
LINE
  5
23B
100
AcDbEntity
  8
0
100
AcDbLine
 62
7
  6
BYLAYER
 10
11.909918698
 20
21.8736690168
 11
15.909918698
 21
21.8736690168
  0
LINE
  5
23C
100
AcDbEntity
  8
0
100
AcDbLine
 62
7
  6
BYLAYER
 10
23.909918698
 20
21.8736690168
 11
27.909918698
 21
21.8736690168
  0
LINE
  5
23D
100
AcDbEntity
  8
0
100
AcDbLine
 62
7
  6
BYLAYER
 10
15.909918698
 20
26.6736623085
 11
15.909918698
 21
12.8736690168
  0
LINE
  5
23E
100
AcDbEntity
  8
0
100
AcDbLine
 62
7
  6
BYLAYER
 10
16.059918698
 20
17.0736736579
 11
16.059918698
 21
27.0083267333
  0
LINE
  5
23F
100
AcDbEntity
  8
0
100
AcDbLine
 62
7
  6
BYLAYER
 10
16.409918698
 20
12.8736690168
 11
16.409918698
 21
17.0736690168
  0
LINE
  5
240
100
AcDbEntity
  8
0
100
AcDbLine
 62
7
  6
BYLAYER
 10
16.659918698
 20
44.6019962667
 11
16.659918698
 21
33.3672013836
  0
LINE
  5
241
100
AcDbEntity
  8
0
100
AcDbLine
 62
7
  6
BYLAYER
 10
11.909918698
 20
26.1736690168
 11
12.409918698
 21
26.6736690168
  0
LINE
  5
242
100
AcDbEntity
  8
0
100
AcDbLine
 62
7
  6
BYLAYER
 10
15.909918698
 20
24.3486690168
 11
16.059918698
 21
24.3486690168
  0
LINE
  5
243
100
AcDbEntity
  8
0
100
AcDbLine
 62
7
  6
BYLAYER
 10
16.909918698
 20
13.8641160792
 11
16.909918698
 21
19.1620258377
  0
LINE
  5
244
100
AcDbEntity
  8
0
100
AcDbLine
 62
7
  6
BYLAYER
 10
16.909918698
 20
21.7213123294
 11
16.909918698
 21
27.2400410589
  0
LINE
  5
245
100
AcDbEntity
  8
0
100
AcDbLine
 62
7
  6
BYLAYER
 10
16.909918698
 20
33.3672013836
 11
16.909918698
 21
33.4142943759
  0
LINE
  5
246
100
AcDbEntity
  8
0
100
AcDbLine
 62
7
  6
BYLAYER
 10
16.909918698
 20
35.8022051038
 11
16.909918698
 21
43.8019950781
  0
LINE
  5
247
100
AcDbEntity
  8
0
100
AcDbLine
 62
7
  6
BYLAYER
 10
17.159918698
 20
33.5104352545
 11
17.159918698
 21
50.8020562107
  0
LINE
  5
248
100
AcDbEntity
  8
0
100
AcDbLine
 62
7
  6
BYLAYER
 10
23.909918698
 20
25.724344881
 11
23.759918698
 21
25.724344881
  0
LINE
  5
249
100
AcDbEntity
  8
0
100
AcDbLine
 62
7
  6
BYLAYER
 10
16.059918698
 20
25.724344881
 11
15.909918698
 21
25.724344881
  0
LINE
  5
24A
100
AcDbEntity
  8
0
100
AcDbLine
 62
7
  6
BYLAYER
 10
23.759918698
 20
26.1586362214
 11
22.909918698
 21
26.1586362214
  0
LINE
  5
24B
100
AcDbEntity
  8
0
100
AcDbLine
 62
7
  6
BYLAYER
 10
16.909918698
 20
26.1586362214
 11
16.059918698
 21
26.1586362214
  0
LINE
  5
24C
100
AcDbEntity
  8
0
100
AcDbLine
 62
7
  6
BYLAYER
 10
27.409918698
 20
26.6736690168
 11
23.909918698
 21
26.6736690168
  0
LINE
  5
24D
100
AcDbEntity
  8
0
100
AcDbLine
 62
7
  6
BYLAYER
 10
15.909918698
 20
26.6736690168
 11
12.409918698
 21
26.6736690168
  0
LINE
  5
24E
100
AcDbEntity
  8
0
100
AcDbLine
 62
7
  6
BYLAYER
 10
23.759918698
 20
27.0083267333
 11
22.909918698
 21
27.0083267333
  0
LINE
  5
24F
100
AcDbEntity
  8
0
100
AcDbLine
 62
7
  6
BYLAYER
 10
16.909918698
 20
27.0083267333
 11
16.059918698
 21
27.0083267333
  0
LINE
  5
250
100
AcDbEntity
  8
0
100
AcDbLine
 62
7
  6
BYLAYER
 10
25.909918698
 20
27.2400410589
 11
22.909918698
 21
27.2400410589
  0
LINE
  5
251
100
AcDbEntity
  8
0
100
AcDbLine
 62
7
  6
BYLAYER
 10
16.909918698
 20
27.2400410589
 11
13.909918698
 21
27.2400410589
  0
LINE
  5
252
100
AcDbEntity
  8
0
100
AcDbLine
 62
7
  6
BYLAYER
 10
23.759918698
 20
24.2043314495
 11
23.909918698
 21
24.1177289091
  0
LINE
  5
253
100
AcDbEntity
  8
0
100
AcDbLine
 62
7
  6
BYLAYER
 10
25.909918698
 20
28.2458481896
 11
13.909918698
 21
28.2458481896
  0
LINE
  5
254
100
AcDbEntity
  8
0
100
AcDbLine
 62
7
  6
BYLAYER
 10
13.909918698
 20
28.2836496027
 11
25.909918698
 21
28.2836496027
  0
LINE
  5
255
100
AcDbEntity
  8
0
100
AcDbLine
 62
7
  6
BYLAYER
 10
22.659918698
 20
50.8020483643
 11
22.659918698
 21
33.5104885744
  0
LINE
  5
256
100
AcDbEntity
  8
0
100
AcDbLine
 62
7
  6
BYLAYER
 10
22.909918698
 20
43.8020606437
 11
22.909918698
 21
35.8021395383
  0
LINE
  5
257
100
AcDbEntity
  8
0
100
AcDbLine
 62
7
  6
BYLAYER
 10
22.909918698
 20
33.4142943759
 11
22.909918698
 21
33.3672013836
  0
LINE
  5
258
100
AcDbEntity
  8
0
100
AcDbLine
 62
7
  6
BYLAYER
 10
22.909918698
 20
27.2400410589
 11
22.909918698
 21
21.7213123294
  0
LINE
  5
259
100
AcDbEntity
  8
0
100
AcDbLine
 62
7
  6
BYLAYER
 10
22.909918698
 20
19.1620258377
 11
22.909918698
 21
13.8641160792
  0
LINE
  5
25A
100
AcDbEntity
  8
0
100
AcDbLine
 62
7
  6
BYLAYER
 10
23.159918698
 20
33.3672013836
 11
23.159918698
 21
44.60199628
  0
LINE
  5
25B
100
AcDbEntity
  8
0
100
AcDbLine
 62
7
  6
BYLAYER
 10
23.409918698
 20
17.0736690168
 11
23.409918698
 21
12.8736690168
  0
LINE
  5
25C
100
AcDbEntity
  8
0
100
AcDbLine
 62
7
  6
BYLAYER
 10
23.759918698
 20
17.0736903884
 11
23.759918698
 21
27.0083267333
  0
LINE
  5
25D
100
AcDbEntity
  8
0
100
AcDbLine
 62
7
  6
BYLAYER
 10
23.909918698
 20
12.8736690168
 11
23.909918698
 21
26.6736623085
  0
LINE
  5
25E
100
AcDbEntity
  8
0
100
AcDbLine
 62
7
  6
BYLAYER
 10
27.909918698
 20
26.1736690168
 11
27.409918698
 21
26.6736690168
  0
LINE
  5
25F
100
AcDbEntity
  8
0
100
AcDbLine
 62
7
  6
BYLAYER
 10
25.409918698
 20
10.7636690168
 11
25.409918698
 21
9.4236690168
  0
LINE
  5
260
100
AcDbEntity
  8
0
100
AcDbLine
 62
7
  6
BYLAYER
 10
25.509918698
 20
8.1736690168
 11
25.509918698
 21
8.2736690168
  0
LINE
  5
261
100
AcDbEntity
  8
0
100
AcDbLine
 62
7
  6
BYLAYER
 10
25.909918698
 20
26.6736690168
 11
25.909918698
 21
44.6019962667
  0
LINE
  5
262
100
AcDbEntity
  8
0
100
AcDbLine
 62
7
  6
BYLAYER
 10
26.259918698
 20
9.4236690168
 11
26.259918698
 21
8.2736690168
  0
LINE
  5
263
100
AcDbEntity
  8
0
100
AcDbLine
 62
7
  6
BYLAYER
 10
26.259918698
 20
7.0736690168
 11
26.259918698
 21
5.0736690168
  0
LINE
  5
264
100
AcDbEntity
  8
0
100
AcDbLine
 62
7
  6
BYLAYER
 10
26.609918698
 20
10.7636690168
 11
26.609918698
 21
12.8736690168
  0
LINE
  5
265
100
AcDbEntity
  8
0
100
AcDbLine
 62
7
  6
BYLAYER
 10
13.909918698
 20
33.3672013836
 11
25.909918698
 21
33.3672013836
  0
LINE
  5
266
100
AcDbEntity
  8
0
100
AcDbLine
 62
7
  6
BYLAYER
 10
13.859918698
 20
38.0330401986
 11
13.909918698
 21
38.0041726852
  0
LINE
  5
267
100
AcDbEntity
  8
0
100
AcDbLine
 62
7
  6
BYLAYER
 10
16.659918698
 20
37.0580401986
 11
16.909918698
 21
36.9137026313
  0
LINE
  5
268
100
AcDbEntity
  8
0
100
AcDbLine
 62
7
  6
BYLAYER
 10
27.409918698
 20
14.5415479049
 11
27.409918698
 21
26.6736690168
  0
LINE
  5
269
100
AcDbEntity
  8
0
100
AcDbLine
 62
7
  6
BYLAYER
 10
27.909918698
 20
12.8736690168
 11
27.909918698
 21
26.1736631888
  0
LINE
  5
26A
100
AcDbEntity
  8
0
100
AcDbLine
 62
7
  6
BYLAYER
 10
22.909918698
 20
35.802100091
 11
22.659918698
 21
35.802100091
  0
LINE
  5
26B
100
AcDbEntity
  8
0
100
AcDbLine
 62
7
  6
BYLAYER
 10
17.159918698
 20
35.802100091
 11
16.909918698
 21
35.802100091
  0
LINE
  5
26C
100
AcDbEntity
  8
0
100
AcDbLine
 62
7
  6
BYLAYER
 10
22.5037983856
 20
34.4431687812
 11
22.5318448713
 21
34.4204662211
  0
LINE
  5
26D
100
AcDbEntity
  8
0
100
AcDbLine
 62
7
  6
BYLAYER
 10
23.909918698
 20
19.6296091245
 11
23.759918698
 21
19.5430065841
  0
LINE
  5
26E
100
AcDbEntity
  8
0
100
AcDbLine
 62
7
  6
BYLAYER
 10
23.159918698
 20
36.827100091
 11
22.909918698
 21
36.827100091
  0
LINE
  5
26F
100
AcDbEntity
  8
0
100
AcDbLine
 62
7
  6
BYLAYER
 10
23.159918698
 20
42.777100091
 11
22.909918698
 21
42.777100091
  0
LINE
  5
270
100
AcDbEntity
  8
0
100
AcDbLine
 62
7
  6
BYLAYER
 10
22.909918698
 20
43.802100091
 11
22.659918698
 21
43.802100091
  0
LINE
  5
271
100
AcDbEntity
  8
0
100
AcDbLine
 62
7
  6
BYLAYER
 10
17.159918698
 20
43.802100091
 11
16.909918698
 21
43.802100091
  0
LINE
  5
272
100
AcDbEntity
  8
0
100
AcDbLine
 62
7
  6
BYLAYER
 10
13.909918698
 20
44.1382443379
 11
16.659918698
 21
44.1382443379
  0
LINE
  5
273
100
AcDbEntity
  8
0
100
AcDbLine
 62
7
  6
BYLAYER
 10
23.159918698
 20
44.1382443379
 11
25.909918698
 21
44.1382443379
  0
LINE
  5
274
100
AcDbEntity
  8
0
100
AcDbLine
 62
7
  6
BYLAYER
 10
13.909918698
 20
44.602100091
 11
16.659918698
 21
44.602100091
  0
LINE
  5
275
100
AcDbEntity
  8
0
100
AcDbLine
 62
7
  6
BYLAYER
 10
23.159918698
 20
44.602100091
 11
25.909918698
 21
44.602100091
  0
LINE
  5
276
100
AcDbEntity
  8
0
100
AcDbLine
 62
7
  6
BYLAYER
 10
22.659918698
 20
50.802100091
 11
17.159918698
 21
50.802100091
  0
ARC
  5
277
100
AcDbEntity
  8
0
100
AcDbCircle
 62
7
  6
BYLAYER
 10
32.0797519255
 20
21.6460074082
 40
8.7377669298
100
AcDbArc
 50
239.5911165187
 51
241.4953353324
  0
ARC
  5
278
100
AcDbEntity
  8
0
100
AcDbCircle
 62
7
  6
BYLAYER
 10
7.743692838
 20
21.6396201668
 40
8.7304324166
100
AcDbArc
 50
298.5038647255
 51
300.4096834377
  0
ARC
  5
279
100
AcDbEntity
  8
0
100
AcDbCircle
 62
7
  6
BYLAYER
 10
19.9094838662
 20
31.0292722539
 40
4.3925014812
100
AcDbArc
 50
89.9943280664
 51
120.48724304
  0
ARC
  5
27A
100
AcDbEntity
  8
0
100
AcDbCircle
 62
7
  6
BYLAYER
 10
19.9103592997
 20
31.0293071088
 40
4.3924663571
100
AcDbArc
 50
59.5118109192
 51
90.0057472415
  0
ARC
  5
27B
100
AcDbEntity
  8
0
100
AcDbCircle
 62
7
  6
BYLAYER
 10
21.6472827939
 20
33.9275128297
 40
1.0126376105
100
AcDbArc
 50
0.0094838453
 51
29.1297901111
  0
ARC
  5
27C
100
AcDbEntity
  8
0
100
AcDbCircle
 62
7
  6
BYLAYER
 10
18.1725400177
 20
33.9275166525
 40
1.0126226583
100
AcDbArc
 50
150.869835941
 51
179.990732318
  0
ARC
  5
27D
100
AcDbEntity
  8
0
100
AcDbCircle
 62
7
  6
BYLAYER
 10
21.6320455412
 20
33.9511889413
 40
1.0010308881
100
AcDbArc
 50
29.437980804
 51
59.5797522578
  0
ARC
  5
27E
100
AcDbEntity
  8
0
100
AcDbCircle
 62
7
  6
BYLAYER
 10
18.1878162033
 20
33.9512354032
 40
1.0010193913
100
AcDbArc
 50
120.4193726015
 51
150.5648891
  0
ARC
  5
27F
100
AcDbEntity
  8
0
100
AcDbCircle
 62
7
  6
BYLAYER
 10
25.909918698
 20
7.6736690168
 40
0.5
100
AcDbArc
 50
270.0
 51
90.0
  0
ARC
  5
280
100
AcDbEntity
  8
0
100
AcDbCircle
 62
7
  6
BYLAYER
 10
13.909918698
 20
7.6736690168
 40
0.5
100
AcDbArc
 50
90.0
 51
270.0
  0
ARC
  5
281
100
AcDbEntity
  8
0
100
AcDbCircle
 62
7
  6
BYLAYER
 10
16.409918698
 20
17.2736690168
 40
0.5
100
AcDbArc
 50
180.0000000061
 51
270.0
  0
ARC
  5
282
100
AcDbEntity
  8
0
100
AcDbCircle
 62
7
  6
BYLAYER
 10
23.409918698
 20
17.2736690168
 40
0.5
100
AcDbArc
 50
270.0
 51
359.9999999939
  0
ARC
  5
283
100
AcDbEntity
  8
0
100
AcDbCircle
 62
7
  6
BYLAYER
 10
25.759918698
 20
5.0736690168
 40
0.5
100
AcDbArc
 50
270.0
 51
360.0
  0
ARC
  5
284
100
AcDbEntity
  8
0
100
AcDbCircle
 62
7
  6
BYLAYER
 10
14.059918698
 20
5.0736690168
 40
0.5
100
AcDbArc
 50
180.0
 51
270.0
  0
ARC
  5
285
100
AcDbEntity
  8
0
100
AcDbCircle
 62
7
  6
BYLAYER
 10
11.9099294318
 20
14.5415432006
 40
0.4999886109
100
AcDbArc
 50
300.3892402413
 51
0.0005390828
  0
ARC
  5
286
100
AcDbEntity
  8
0
100
AcDbCircle
 62
7
  6
BYLAYER
 10
27.9099078486
 20
14.5415431345
 40
0.4999885214
100
AcDbArc
 50
179.9994533367
 51
239.6107673488
  0
ARC
  5
287
100
AcDbEntity
  8
0
100
AcDbCircle
 62
7
  6
BYLAYER
 10
14.009918698
 20
7.3736690168
 40
0.3
100
AcDbArc
 50
270.0001077531
 51
319.3032958474
  0
ARC
  5
288
100
AcDbEntity
  8
0
100
AcDbCircle
 62
7
  6
BYLAYER
 10
25.809918698
 20
7.3736690168
 40
0.3
100
AcDbArc
 50
220.6967041526
 51
269.9998922469
  0
SPLINE
  5
289
100
AcDbEntity
  8
0
100
AcDbSpline
 62
7
  6
BYLAYER
 70
0
 71
3
 72
57
 73
53
 74
0
 42
0.0000001
 43
0.0000001
 44
0.0000000001
 40
0.0
 40
0.0
 40
0.0
 40
0.0
 40
0.0009848408
 40
0.0020558499
 40
0.003280432
 40
0.0047040354
 40
0.0063554933
 40
0.0082530399
 40
0.0104081071
 40
0.0128276958
 40
0.0184755897
 40
0.0252167237
 40
0.03305316
 40
0.0419764039
 40
0.051973693
 40
0.0630260354
 40
0.0751102824
 40
0.0882015377
 40
0.1172827289
 40
0.1500050197
 40
0.1860626717
 40
0.2251156368
 40
0.2667940912
 40
0.3107015384
 40
0.3564188633
 40
0.4035095236
 40
0.5000002196
 40
0.5964907457
 40
0.6435812457
 40
0.6892984142
 40
0.7332057307
 40
0.7748840937
 40
0.8139369841
 40
0.8499945703
 40
0.8827168346
 40
0.9117980496
 40
0.9248893209
 40
0.9369736073
 40
0.9480260104
 40
0.9580233373
 40
0.9669466379
 40
0.9747831319
 40
0.9815242985
 40
0.9871722346
 40
0.9895918431
 40
0.9917469254
 40
0.9936444812
 40
0.9952959476
 40
0.9967195586
 40
0.9979441464
 40
0.9990151585
 40
1.0
 40
1.0
 40
1.0
 40
1.0
 10
16.909918698
 20
33.4142943759
 30
0.0
 10
16.909918698
 20
33.416285647
 30
0.0
 10
16.9105892707
 20
33.4204640375
 30
0.0
 10
16.9134812169
 20
33.4265083875
 30
0.0
 10
16.9181653593
 20
33.4324492914
 30
0.0
 10
16.9246081554
 20
33.4383269899
 30
0.0
 10
16.9328109277
 20
33.4441718215
 30
0.0
 10
16.9427809579
 20
33.4499929307
 30
0.0
 10
16.9545205422
 20
33.4557935749
 30
0.0
 10
16.9735328051
 20
33.4639224934
 30
0.0
 10
17.0018274467
 20
33.4738099902
 30
0.0
 10
17.0411610348
 20
33.485047701
 30
0.0
 10
17.0873755685
 20
33.4961459875
 30
0.0
 10
17.1403674467
 20
33.5070762674
 30
0.0
 10
17.2000193769
 20
33.5178000293
 30
0.0
 10
17.2661911853
 20
33.5282889794
 30
0.0
 10
17.3387266239
 20
33.5385164588
 30
0.0
 10
17.4475696197
 20
33.5522492581
 30
0.0
 10
17.5981590623
 20
33.5683255809
 30
0.0
 10
17.7952796083
 20
33.5856007617
 30
0.0
 10
18.0127521382
 20
33.6012822701
 30
0.0
 10
18.2484849957
 20
33.6152103443
 30
0.0
 10
18.5002124895
 20
33.6272405287
 30
0.0
 10
18.7655125599
 20
33.6372511383
 30
0.0
 10
19.0418315039
 20
33.6451433471
 30
0.0
 10
19.4245060344
 20
33.6527941056
 30
0.0
 10
19.9099196736
 20
33.656550385
 30
0.0
 10
20.3953329886
 20
33.6527940788
 30
0.0
 10
20.7780065353
 20
33.6451433308
 30
0.0
 10
21.0543245754
 20
33.6372511469
 30
0.0
 10
21.319623881
 20
33.6272405659
 30
0.0
 10
21.5713507762
 20
33.6152104304
 30
0.0
 10
21.8070831669
 20
33.6012824051
 30
0.0
 10
22.0245553615
 20
33.5856009413
 30
0.0
 10
22.2216757731
 20
33.5683258171
 30
0.0
 10
22.3722652491
 20
33.5522495561
 30
0.0
 10
22.4811084069
 20
33.5385167613
 30
0.0
 10
22.553644081
 20
33.528289275
 30
0.0
 10
22.6198161764
 20
33.5178003526
 30
0.0
 10
22.6794684152
 20
33.5070765317
 30
0.0
 10
22.7324606036
 20
33.4961462353
 30
0.0
 10
22.7786754461
 20
33.4850479582
 30
0.0
 10
22.8180092942
 20
33.473810182
 30
0.0
 10
22.8463041305
 20
33.4639226642
 30
0.0
 10
22.8653165499
 20
33.4557937151
 30
0.0
 10
22.8770562217
 20
33.4499930453
 30
0.0
 10
22.8870263037
 20
33.444171893
 30
0.0
 10
22.8952291198
 20
33.4383270355
 30
0.0
 10
22.9016719581
 20
33.4324493187
 30
0.0
 10
22.9063561386
 20
33.4265084034
 30
0.0
 10
22.9092481151
 20
33.4204640465
 30
0.0
 10
22.909918698
 20
33.4162856484
 30
0.0
 10
22.909918698
 20
33.4142943759
 30
0.0
  0
SPLINE
  5
28A
100
AcDbEntity
  8
0
100
AcDbSpline
 62
7
  6
BYLAYER
 70
0
 71
3
 72
23
 73
19
 74
0
 42
0.0000001
 43
0.0000001
 44
0.0000000001
 40
0.0
 40
0.0
 40
0.0
 40
0.0
 40
0.1752440365
 40
0.3452112408
 40
0.5048158359
 40
0.579218164
 40
0.6492670524
 40
0.7144436933
 40
0.7742608206
 40
0.828282587
 40
0.8761161891
 40
0.9174256678
 40
0.935547987
 40
0.9519467633
 40
0.9665997009
 40
0.9794930087
 40
0.9906234217
 40
1.0
 40
1.0
 40
1.0
 40
1.0
 10
19.909918698
 20
34.9640222096
 30
0.0
 10
19.7791060288
 20
34.9640222096
 30
0.0
 10
19.5214156242
 20
34.9622446277
 30
0.0
 10
19.1446626641
 20
34.9542860155
 30
0.0
 10
18.8432980065
 20
34.9432444096
 30
0.0
 10
18.6166204081
 20
34.9317517063
 30
0.0
 10
18.4604291889
 20
34.9222169297
 30
0.0
 10
18.3152179718
 20
34.9116467855
 30
0.0
 10
18.1820831888
 20
34.9001214404
 30
0.0
 10
18.0620306863
 20
34.8877416747
 30
0.0
 10
17.9559661498
 20
34.8746060892
 30
0.0
 10
17.8767745789
 20
34.8626784174
 30
0.0
 10
17.8210626076
 20
34.8526451539
 30
0.0
 10
17.7850889708
 20
34.8453277967
 30
0.0
 10
17.7531325324
 20
34.8379009093
 30
0.0
 10
17.7252494976
 20
34.8303824414
 30
0.0
 10
17.7014904416
 20
34.8227959811
 30
0.0
 10
17.6872071182
 20
34.8172392146
 30
0.0
 10
17.6808176977
 20
34.8143818244
 30
0.0
  0
SPLINE
  5
28B
100
AcDbEntity
  8
0
100
AcDbSpline
 62
7
  6
BYLAYER
 70
0
 71
3
 72
23
 73
19
 74
0
 42
0.0000001
 43
0.0000001
 44
0.0000000001
 40
0.0
 40
0.0
 40
0.0
 40
0.0
 40
0.1752442697
 40
0.3452111895
 40
0.5048153815
 40
0.579217586
 40
0.6492664632
 40
0.7144431778
 40
0.7742605382
 40
0.8282825268
 40
0.8761164594
 40
0.9174261686
 40
0.9355486284
 40
0.9519474479
 40
0.9666002446
 40
0.9794933207
 40
0.9906235179
 40
1.0
 40
1.0
 40
1.0
 40
1.0
 10
19.909918698
 20
34.9640222096
 30
0.0
 10
20.0407315532
 20
34.9640222096
 30
0.0
 10
20.2984219433
 20
34.9622448557
 30
0.0
 10
20.6751746065
 20
34.9542865633
 30
0.0
 10
20.9765386869
 20
34.94324493
 30
0.0
 10
21.2032158927
 20
34.9317519972
 30
0.0
 10
21.3594070661
 20
34.9222169773
 30
0.0
 10
21.5046184938
 20
34.9116465045
 30
0.0
 10
21.6377536603
 20
34.9001208628
 30
0.0
 10
21.7578067265
 20
34.8877407486
 30
0.0
 10
21.8638718463
 20
34.874605036
 30
0.0
 10
21.9430639257
 20
34.8626771812
 30
0.0
 10
21.9987762162
 20
34.8526439214
 30
0.0
 10
22.0347499088
 20
34.845326662
 30
0.0
 10
22.0667061409
 20
34.8378999646
 30
0.0
 10
22.0945888125
 20
34.8303818305
 30
0.0
 10
22.1183475423
 20
34.8227956736
 30
0.0
 10
22.1326306713
 20
34.8172390392
 30
0.0
 10
22.1390200267
 20
34.8143816776
 30
0.0
  0
SPLINE
  5
28C
100
AcDbEntity
  8
0
100
AcDbSpline
 62
7
  6
BYLAYER
 70
0
 71
3
 72
31
 73
27
 74
0
 42
0.0000001
 43
0.0000001
 44
0.0000000001
 40
0.0
 40
0.0
 40
0.0
 40
0.0
 40
0.1929866516
 40
0.3785948405
 40
0.4664104076
 40
0.5497675597
 40
0.6278739638
 40
0.6999886951
 40
0.7654333356
 40
0.8235963686
 40
0.8497781761
 40
0.8739469476
 40
0.8960521795
 40
0.9160462223
 40
0.9338929506
 40
0.9495660057
 40
0.9630477803
 40
0.9743436767
 40
0.9791829579
 40
0.9834930862
 40
0.9872879932
 40
0.9905906579
 40
0.9934376079
 40
0.9958866627
 40
0.9980290333
 40
1.0
 40
1.0
 40
1.0
 40
1.0
 10
19.909918698
 20
34.1483648265
 30
0.0
 10
20.0887620271
 20
34.1483648265
 30
0.0
 10
20.4396166616
 20
34.1456413459
 30
0.0
 10
20.8717454933
 20
34.1353448461
 30
0.0
 10
21.2021487774
 20
34.1228815304
 30
0.0
 10
21.4329001426
 20
34.1118533759
 30
0.0
 10
21.6489885627
 20
34.0990863516
 30
0.0
 10
21.84833816
 20
34.0847111199
 30
0.0
 10
22.0290319549
 20
34.0688754198
 30
0.0
 10
22.1670722806
 20
34.0541396954
 30
0.0
 10
22.2668450494
 20
34.0415504169
 30
0.0
 10
22.3333359176
 20
34.0321751957
 30
0.0
 10
22.3939937164
 20
34.0225608309
 30
0.0
 10
22.4486747425
 20
34.0127301372
 30
0.0
 10
22.4972505855
 20
34.0027112675
 30
0.0
 10
22.5396139416
 20
33.9925383089
 30
0.0
 10
22.5756690773
 20
33.9822354918
 30
0.0
 10
22.601605239
 20
33.9731712137
 30
0.0
 10
22.61903342
 20
33.9657199267
 30
0.0
 10
22.6297949507
 20
33.9604034004
 30
0.0
 10
22.6389344702
 20
33.9550688248
 30
0.0
 10
22.6464543155
 20
33.949713111
 30
0.0
 10
22.6523609712
 20
33.9443268888
 30
0.0
 10
22.6566553726
 20
33.9388814609
 30
0.0
 10
22.6593061687
 20
33.9333389797
 30
0.0
 10
22.6599195442
 20
33.9295069669
 30
0.0
 10
22.6599189346
 20
33.9276804456
 30
0.0
  0
SPLINE
  5
28D
100
AcDbEntity
  8
0
100
AcDbSpline
 62
7
  6
BYLAYER
 70
0
 71
3
 72
31
 73
27
 74
0
 42
0.0000001
 43
0.0000001
 44
0.0000000001
 40
0.0
 40
0.0
 40
0.0
 40
0.0
 40
0.001970667
 40
0.0041125657
 40
0.0065612677
 40
0.0094086311
 40
0.0127121012
 40
0.0165072936
 40
0.020816759
 40
0.0256550725
 40
0.0369511758
 40
0.0504345347
 40
0.0661061203
 40
0.0839529532
 40
0.1039483001
 40
0.1260521989
 40
0.150221102
 40
0.1764040546
 40
0.234566064
 40
0.3000107686
 40
0.3721263123
 40
0.4502319852
 40
0.5335893065
 40
0.6214057181
 40
0.807012671
 40
1.0
 40
1.0
 40
1.0
 40
1.0
 10
17.1599223053
 20
33.9276804456
 30
0.0
 10
17.1599223053
 20
33.9295066878
 30
0.0
 10
17.1605349368
 20
33.9333377742
 30
0.0
 10
17.1631826384
 20
33.9388805903
 30
0.0
 10
17.1674756758
 20
33.9443268232
 30
0.0
 10
17.1733837962
 20
33.9497127416
 30
0.0
 10
17.1809054937
 20
33.9550681654
 30
0.0
 10
17.1900452814
 20
33.9604029749
 30
0.0
 10
17.2008050178
 20
33.9657202631
 30
0.0
 10
17.2182312155
 20
33.9731728639
 30
0.0
 10
17.2441686096
 20
33.9822361758
 30
0.0
 10
17.2802245794
 20
33.9925367848
 30
0.0
 10
17.322587496
 20
34.0027122202
 30
0.0
 10
17.3711634121
 20
34.0127304715
 30
0.0
 10
17.425844661
 20
34.0225599537
 30
0.0
 10
17.4865022473
 20
34.0321759393
 30
0.0
 10
17.552993093
 20
34.0415506613
 30
0.0
 10
17.6527661339
 20
34.0541389662
 30
0.0
 10
17.7908063856
 20
34.0688758991
 30
0.0
 10
17.9714999394
 20
34.084711333
 30
0.0
 10
18.1708495523
 20
34.0990859627
 30
0.0
 10
18.3869379993
 20
34.111853582
 30
0.0
 10
18.617689453
 20
34.1228816623
 30
0.0
 10
18.9480922896
 20
34.1353444845
 30
0.0
 10
19.380221033
 20
34.1456415323
 30
0.0
 10
19.7310748807
 20
34.1483648265
 30
0.0
 10
19.909918698
 20
34.1483648265
 30
0.0
  0
ENDSEC
  0
SECTION
  2
OBJECTS
  0
DICTIONARY
  5
C
100
AcDbDictionary
280
0
281
1
  3
ACAD_GROUP
350
D
  3
ACAD_MLINESTYLE
350
17
  3
ACAD_LAYOUT
350
1A
  3
ACAD_PLOTSETTINGS
350
19
  3
ACAD_PLOTSTYLENAME
350
E
  0
DICTIONARY
  5
D
102
{ACAD_REACTORS
330
C
102
}
100
AcDbDictionary
280
0
281
1
  0
ACDBDICTIONARYWDFLT
  5
E
102
{ACAD_REACTORS
330
C
102
}
100
AcDbDictionary
281
1
  3
Normal
350
F
100
AcDbDictionaryWithDefault
340
F
  0
DICTIONARY
  5
17
102
{ACAD_REACTORS
330
C
102
}
100
AcDbDictionary
280
0
281
1
  3
Standard
350
18
  0
DICTIONARY
  5
19
102
{ACAD_REACTORS
330
C
102
}
100
AcDbDictionary
281
1
  0
DICTIONARY
  5
1A
102
{ACAD_REACTORS
330
C
102
}
100
AcDbDictionary
281
1
  3
Model
350
28E
  3
Layout1
350
28F
  0
ACDBPLACEHOLDER
  5
F
102
{ACAD_REACTORS
330
E
102
}
  0
MLINESTYLE
  5
18
102
{ACAD_REACTORS
330
17
102
}
100
AcDbMlineStyle
  2
STANDARD
 70
0
  3

 62
256
 51
90.0
 52
90.0
 71
2
 49
0.5
 62
256
  6
BYLAYER
 49
-0.5
 62
256
  6
BYLAYER
  0
LAYOUT
  5
28E
102
{ACAD_REACTORS
330
1A
102
}
100
AcDbPlotSettings
  1

  2
none_device
  4

  6

 40
0.0
 41
0.0
 42
0.0
 43
0.0
 44
210.0
 45
297.0
 46
0.0
 47
0.0
 48
0.0
 49
0.0
140
0.0
141
0.0
142
1.0
143
1.0
 70
1024
 72
1
 73
0
 74
0
  7

 75
0
147
1.0
148
0.0
149
0.0
100
AcDbLayout
  1
Model
 70
0
 71
0
 10
0.0
 20
0.0
 11
210.0
 21
297.0
 12
0.0
 22
0.0
 32
0.0
 14
0.0
 24
0.0
 34
0.0
 15
0.0
 25
0.0
 35
0.0
146
0.0
 13
0.0
 23
0.0
 33
0.0
 16
1.0
 26
0.0
 36
0.0
 17
0.0
 27
1.0
 37
0.0
 76
0
330
210
345
0
346
0
  0
LAYOUT
  5
28F
102
{ACAD_REACTORS
330
1A
102
}
100
AcDbPlotSettings
  1

  2
none_device
  4

  6

 40
0.0
 41
0.0
 42
0.0
 43
0.0
 44
210.0
 45
297.0
 46
0.0
 47
0.0
 48
0.0
 49
0.0
140
0.0
141
0.0
142
1.0
143
1.0
 70
0
 72
1
 73
0
 74
0
  7

 75
0
147
1.0
148
0.0
149
0.0
100
AcDbLayout
  1
Layout1
 70
0
 71
1
 10
0.0
 20
0.0
 11
210.0
 21
297.0
 12
0.0
 22
0.0
 32
0.0
 14
0.0
 24
0.0
 34
0.0
 15
0.0
 25
0.0
 35
0.0
146
0.0
 13
0.0
 23
0.0
 33
0.0
 16
1.0
 26
0.0
 36
0.0
 17
0.0
 27
1.0
 37
0.0
 76
0
330
211
345
0
346
0
  0
ENDSEC
  0
EOF
