999
DXF file: C:\Users\sesa63760\Dev\_Creo\CAD\MCADID0004772_3D-CAD\drw0001_5.dxf
999
Pro/ENGINEER 2019471 by Parametric Technology Corporation
  0
SECTION
  2
HEADER
  9
$ACADVER
  1
AC1024
  9
$DWGCODEPAGE
  3
ANSI_1252
  9
$EXTMAX
 10
196.9638652318
 20
278.5631808279
 30
0.0
  9
$EXTMIN
 10
0.0
 20
0.0
 30
0.0
  9
$LIMMIN
 10
0.0
 20
0.0
  9
$LIMMAX
 10
196.9638652318
 20
278.5631808279
  9
$VIEWCTR
 10
98.4819326159
 20
139.2815904139
  9
$VIEWSIZE
 40
278.5631808279
  9
$CLAYER
  8
0
  9
$LTSCALE
 40
18.158192528
  9
$CELTYPE
  6
BYLAYER
  9
$DIMSCALE
 40
1.0
  9
$DIMASZ
 40
2.3448079194
  9
$DIMEXO
 40
1.0
  9
$DIMDLI
 40
12.5456602921
  9
$DIMEXE
 40
1.0
  9
$DIMCEN
 40
2.9713405955
  9
$DIMLFAC
 40
1.0
  9
$DIMBLK
  1
_FILLED
  9
$DIMALT
 70
0
  9
$DIMALTF
 40
0.0393700787
  9
$DIMTXT
 40
3.2827310872
  9
$DIMTOL
 70
1
  9
$DIMLIM
 70
0
  9
$DIMTFAC
 40
1.0
  9
$DIMTP
 40
0.01
  9
$DIMTM
 40
0.01
  9
$DIMGAP
 40
0.625
  9
$DIMDSEP
 70
46
  9
$AUNITS
 70
0
  9
$PDMODE
 70
3
  9
$PDSIZE
 40
0.3125
  9
$HANDSEED
  5
289
  9
$TILEMODE
 70
1
  9
$MEASUREMENT
 70
1
  9
$INSUNITS
 70
4
  0
ENDSEC
  0
SECTION
  2
CLASSES
  0
CLASS
  1
ACDBDICTIONARYWDFLT
  2
AcDbDictionaryWithDefault
  3
AutoCAD 2000
 90
0
 91
1
280
0
281
0
  0
CLASS
  1
ACDBPLACEHOLDER
  2
AcDbPlaceHolder
  3
AutoCAD 2000
 90
0
 91
1
280
0
281
0
  0
CLASS
  1
LAYOUT
  2
AcDbLayout
  3
AutoCAD 2000
 90
0
 91
0
280
0
281
0
  0
ENDSEC
  0
SECTION
  2
TABLES
  0
TABLE
  2
VPORT
  5
8
100
AcDbSymbolTable
 70
2
  0
VPORT
  5
1F4
100
AcDbSymbolTableRecord
100
AcDbViewportTableRecord
  2
*ACTIVE
 70
0
 10
0.0
 20
0.0
 11
1.0
 21
1.0
 12
98.4819326159
 22
139.2815904139
 13
0.0
 23
0.0
 14
1.0
 24
1.0
 15
0.0
 25
0.0
 16
0.0
 26
0.0
 36
1.0
 17
0.0
 27
0.0
 37
0.0
 40
278.5631808279
 41
0.7070707071
 42
50.0
 43
0.0
 44
0.0
 50
0.0
 51
0.0
 71
0
 72
100
 73
1
 74
1
 75
0
 76
0
 77
0
 78
0
  0
ENDTAB
  0
TABLE
  2
LTYPE
  5
5
100
AcDbSymbolTable
 70
6
  0
LTYPE
  5
14
100
AcDbSymbolTableRecord
100
AcDbLinetypeTableRecord
  2
BYBLOCK
 70
0
  3

 72
65
 73
0
 40
0.0
  0
LTYPE
  5
15
100
AcDbSymbolTableRecord
100
AcDbLinetypeTableRecord
  2
BYLAYER
 70
0
  3

 72
65
 73
0
 40
0.0
  0
LTYPE
  5
16
100
AcDbSymbolTableRecord
100
AcDbLinetypeTableRecord
  2
CONTINUOUS
 70
64
  3
Solid line
 72
65
 73
0
 40
0.0
  0
LTYPE
  5
1F5
100
AcDbSymbolTableRecord
100
AcDbLinetypeTableRecord
  2
CENTER
 70
64
  3
____ _ ____ _ ____ _ ____ _ ____ _ ____ _ ____
 72
65
 73
4
 40
0.6
 49
0.375
 74
0
 49
-0.075
 74
0
 49
0.075
 74
0
 49
-0.075
 74
0
  0
LTYPE
  5
1F6
100
AcDbSymbolTableRecord
100
AcDbLinetypeTableRecord
  2
HIDDEN
 70
64
  3
- - - - - - - - - - - - - - - - - - - -
 72
65
 73
2
 40
0.2
 49
0.1
 74
0
 49
-0.1
 74
0
  0
LTYPE
  5
1F7
100
AcDbSymbolTableRecord
100
AcDbLinetypeTableRecord
  2
PHANTOM
 70
64
  3
_____ _ _ _____ _ _ _____ _ _ _____
 72
65
 73
6
 40
0.8
 49
0.45
 74
0
 49
-0.05
 74
0
 49
0.1
 74
0
 49
-0.05
 74
0
 49
0.1
 74
0
 49
-0.05
 74
0
  0
LTYPE
  5
1F8
100
AcDbSymbolTableRecord
100
AcDbLinetypeTableRecord
  2
DOT
 70
64
  3
. . . . . . . . . . . . . . . . . . . .
 72
65
 73
2
 40
0.2
 49
0.1
 74
0
 49
-0.1
 74
0
  0
LTYPE
  5
1F9
100
AcDbSymbolTableRecord
100
AcDbLinetypeTableRecord
  2
DASHED
 70
64
  3
- - - - - - - - - - - - - - - - - - - -
 72
65
 73
2
 40
0.2
 49
0.1
 74
0
 49
-0.1
 74
0
  0
ENDTAB
  0
TABLE
  2
LAYER
  5
2
100
AcDbSymbolTable
 70
36
  0
LAYER
  5
10
100
AcDbSymbolTableRecord
100
AcDbLayerTableRecord
  2
0
 70
0
 62
7
  6
CONTINUOUS
370
-3
390
F
  0
LAYER
  5
1FA
100
AcDbSymbolTableRecord
100
AcDbLayerTableRecord
  2
DEFAULT_1
 70
0
 62
7
  6
CENTER
370
-3
390
F
  0
LAYER
  5
1FB
100
AcDbSymbolTableRecord
100
AcDbLayerTableRecord
  2
DEFAULT_2
 70
0
 62
7
  6
HIDDEN
370
-3
390
F
  0
LAYER
  5
1FC
100
AcDbSymbolTableRecord
100
AcDbLayerTableRecord
  2
DEFAULT_3
 70
0
 62
7
  6
PHANTOM
370
-3
390
F
  0
LAYER
  5
1FD
100
AcDbSymbolTableRecord
100
AcDbLayerTableRecord
  2
00_COMPONENTS
 70
0
 62
7
  6
CONTINUOUS
370
-3
390
F
  0
LAYER
  5
1FE
100
AcDbSymbolTableRecord
100
AcDbLayerTableRecord
  2
01_1_DEFAULT_DATUMS
 70
0
 62
7
  6
CONTINUOUS
370
-3
390
F
  0
LAYER
  5
1FF
100
AcDbSymbolTableRecord
100
AcDbLayerTableRecord
  2
01_PLANES
 70
0
 62
7
  6
CONTINUOUS
370
-3
390
F
  0
LAYER
  5
200
100
AcDbSymbolTableRecord
100
AcDbLayerTableRecord
  2
02_COORD_SYS
 70
0
 62
7
  6
CONTINUOUS
370
-3
390
F
  0
LAYER
  5
201
100
AcDbSymbolTableRecord
100
AcDbLayerTableRecord
  2
03_AXES
 70
0
 62
7
  6
CONTINUOUS
370
-3
390
F
  0
LAYER
  5
202
100
AcDbSymbolTableRecord
100
AcDbLayerTableRecord
  2
04_POINTS
 70
0
 62
7
  6
CONTINUOUS
370
-3
390
F
  0
LAYER
  5
203
100
AcDbSymbolTableRecord
100
AcDbLayerTableRecord
  2
05_CURVES
 70
0
 62
7
  6
CONTINUOUS
370
-3
390
F
  0
LAYER
  5
204
100
AcDbSymbolTableRecord
100
AcDbLayerTableRecord
  2
06_SURFS
 70
0
 62
7
  6
CONTINUOUS
370
-3
390
F
  0
LAYER
  5
205
100
AcDbSymbolTableRecord
100
AcDbLayerTableRecord
  2
07_COSMETICS
 70
0
 62
7
  6
CONTINUOUS
370
-3
390
F
  0
LAYER
  5
206
100
AcDbSymbolTableRecord
100
AcDbLayerTableRecord
  2
10_NOTES
 70
0
 62
7
  6
CONTINUOUS
370
-3
390
F
  0
LAYER
  5
207
100
AcDbSymbolTableRecord
100
AcDbLayerTableRecord
  2
11_NOTES_PUB
 70
0
 62
7
  6
CONTINUOUS
370
-3
390
F
  0
LAYER
  5
208
100
AcDbSymbolTableRecord
100
AcDbLayerTableRecord
  2
13_REF_GTOL
 70
0
 62
7
  6
CONTINUOUS
370
-3
390
F
  0
LAYER
  5
209
100
AcDbSymbolTableRecord
100
AcDbLayerTableRecord
  2
16_MISC
 70
0
 62
7
  6
CONTINUOUS
370
-3
390
F
  0
LAYER
  5
20A
100
AcDbSymbolTableRecord
100
AcDbLayerTableRecord
  2
17_NO_PRINT
 70
0
 62
7
  6
CONTINUOUS
370
-3
390
F
  0
LAYER
  5
20B
100
AcDbSymbolTableRecord
100
AcDbLayerTableRecord
  2
18_DATUM_CAMS_JOINTS
 70
0
 62
7
  6
CONTINUOUS
370
-3
390
F
  0
LAYER
  5
20C
100
AcDbSymbolTableRecord
100
AcDbLayerTableRecord
  2
19_DATUM_FUNCTIONAL
 70
0
 62
7
  6
CONTINUOUS
370
-3
390
F
  0
LAYER
  5
20D
100
AcDbSymbolTableRecord
100
AcDbLayerTableRecord
  2
20_DATUM_KINEMATIC_SCHEME
 70
0
 62
7
  6
CONTINUOUS
370
-3
390
F
  0
ENDTAB
  0
TABLE
  2
STYLE
  5
3
100
AcDbSymbolTable
 70
1
  0
STYLE
  5
11
100
AcDbSymbolTableRecord
100
AcDbTextStyleTableRecord
  2
STANDARD
 70
0
 40
0.0
 41
1.0
 50
0.0
 71
0
 42
0.2
  3
ARIAL.TTF
  4

  0
STYLE
  5
20E
100
AcDbSymbolTableRecord
100
AcDbTextStyleTableRecord
  2
TEXTSTYLE_1
 70
0
 40
0.0
 41
0.8
 50
0.0
 71
0
 42
0.2
  3
gdt
  4

  0
ENDTAB
  0
TABLE
  2
VIEW
  5
6
100
AcDbSymbolTable
 70
0
  0
ENDTAB
  0
TABLE
  2
UCS
  5
7
100
AcDbSymbolTable
 70
0
  0
ENDTAB
  0
TABLE
  2
APPID
  5
9
100
AcDbSymbolTable
 70
1
  0
APPID
  5
20F
100
AcDbSymbolTableRecord
100
AcDbRegAppTableRecord
  2
ACAD
 70
0
  0
ENDTAB
  0
TABLE
  2
BLOCK_RECORD
  5
1
100
AcDbSymbolTable
 70
0
  0
BLOCK_RECORD
  5
210
100
AcDbSymbolTableRecord
100
AcDbBlockTableRecord
  2
*Model_Space
  0
BLOCK_RECORD
  5
211
100
AcDbSymbolTableRecord
100
AcDbBlockTableRecord
  2
*Paper_Space
  0
BLOCK_RECORD
  5
212
100
AcDbSymbolTableRecord
100
AcDbBlockTableRecord
  2
_FILLED
  0
ENDTAB
  0
TABLE
  2
DIMSTYLE
  5
A
100
AcDbSymbolTable
 70
1
100
AcDbDimStyleTable
 71
0
  0
DIMSTYLE
105
213
100
AcDbSymbolTableRecord
100
AcDbDimStyleTableRecord
  2
STANDARD
 70
0
  3

  4

 40
1.0
 41
2.3448079194
 42
1.0
 43
0.38
 44
1.0
 45
0.0
 46
0.0
 47
0.01
 48
0.01
140
3.2827310872
141
0.09
142
0.0
143
25.4
144
1.0
145
0.0
146
1.0
147
0.625
 71
1
 72
0
 73
0
 74
0
 75
0
 76
0
 77
1
 78
8
 79
2
170
0
171
1
172
0
173
0
174
0
175
0
176
0
177
0
178
0
270
2
179
2
271
2
272
2
273
2
274
2
275
0
280
0
281
0
282
0
283
1
284
8
285
0
286
0
287
3
288
0
340
11
278
46
341
212
342
212
343
212
344
212
  0
ENDTAB
  0
ENDSEC
  0
SECTION
  2
BLOCKS
  0
BLOCK
  5
20
100
AcDbEntity
  8
0
100
AcDbBlockBegin
  2
*Model_Space
 70
0
 10
0.0
 20
0.0
 30
0.0
  3
*Model_Space
  1

  0
ENDBLK
  5
21
100
AcDbEntity
  8
0
100
AcDbBlockEnd
  0
BLOCK
  5
1C
100
AcDbEntity
  8
0
100
AcDbBlockBegin
  2
*Paper_Space
 70
0
 10
0.0
 20
0.0
 30
0.0
  3
*Paper_Space
  1

  0
ENDBLK
  5
1D
100
AcDbEntity
  8
0
100
AcDbBlockEnd
  0
BLOCK
  5
214
100
AcDbEntity
  8
0
100
AcDbBlockBegin
  2
_FILLED
 70
64
 10
0.0
 20
0.0
  3
_FILLED
  1

  0
SOLID
  5
215
100
AcDbEntity
  8
0
  6
BYBLOCK
 62
0
100
AcDbTrace
 10
0.0
 20
0.0
 11
-1.0
 21
0.25
 12
-1.0
 22
-0.25
 13
-1.0
 23
-0.25
  0
ENDBLK
  5
216
100
AcDbEntity
  8
0
  6
BYBLOCK
 62
0
100
AcDbBlockEnd
  0
ENDSEC
  0
SECTION
  2
ENTITIES
  0
LINE
  5
217
100
AcDbEntity
  8
0
100
AcDbLine
 62
7
  6
BYLAYER
 10
22.9596014612
 20
141.5225655222
 11
22.9596014612
 21
142.722532517
  0
LINE
  5
218
100
AcDbEntity
  8
0
100
AcDbLine
 62
7
  6
BYLAYER
 10
144.4596014612
 20
123.1225490196
 11
149.9596014612
 21
123.1225490196
  0
LINE
  5
219
100
AcDbEntity
  8
0
100
AcDbLine
 62
7
  6
BYLAYER
 10
150.1596014612
 20
123.1225490196
 11
168.9596014612
 21
123.1225490196
  0
LINE
  5
21A
100
AcDbEntity
  8
0
100
AcDbLine
 62
7
  6
BYLAYER
 10
169.1596014612
 20
123.3225490196
 11
164.5596014612
 21
123.3225329961
  0
LINE
  5
21B
100
AcDbEntity
  8
0
100
AcDbLine
 62
7
  6
BYLAYER
 10
164.5596014612
 20
124.6225490196
 11
143.9596014612
 21
124.6225490196
  0
LINE
  5
21C
100
AcDbEntity
  8
0
100
AcDbLine
 62
7
  6
BYLAYER
 10
164.5596014612
 20
125.6225490196
 11
169.5596014612
 21
125.6225490196
  0
LINE
  5
21D
100
AcDbEntity
  8
0
100
AcDbLine
 62
7
  6
BYLAYER
 10
169.8096014612
 20
125.8725490196
 11
170.1596014612
 21
125.8725490196
  0
LINE
  5
21E
100
AcDbEntity
  8
0
100
AcDbLine
 62
7
  6
BYLAYER
 10
164.5596014612
 20
129.6225490196
 11
169.5596014612
 21
129.6225490196
  0
LINE
  5
21F
100
AcDbEntity
  8
0
100
AcDbLine
 62
7
  6
BYLAYER
 10
164.5596014612
 20
131.0225466967
 11
164.3596014615
 21
131.0225391626
  0
LINE
  5
220
100
AcDbEntity
  8
0
100
AcDbLine
 62
7
  6
BYLAYER
 10
164.7596165984
 20
131.1458465106
 11
168.9596014724
 21
131.1458465106
  0
LINE
  5
221
100
AcDbEntity
  8
0
100
AcDbLine
 62
7
  6
BYLAYER
 10
168.9596096055
 20
131.2225490196
 11
164.759601434
 21
131.2225490196
  0
LINE
  5
222
100
AcDbEntity
  8
0
100
AcDbLine
 62
7
  6
BYLAYER
 10
169.1596014612
 20
131.4225490196
 11
164.7604721153
 21
131.4225480905
  0
LINE
  5
223
100
AcDbEntity
  8
0
100
AcDbLine
 62
7
  6
BYLAYER
 10
179.4596014612
 20
132.6225490196
 11
170.1596014612
 21
132.6225490196
  0
LINE
  5
224
100
AcDbEntity
  8
0
100
AcDbLine
 62
7
  6
BYLAYER
 10
122.9596014612
 20
136.5225490196
 11
137.9596014612
 21
136.5225490196
  0
LINE
  5
225
100
AcDbEntity
  8
0
100
AcDbLine
 62
7
  6
BYLAYER
 10
149.9596014612
 20
139.1225490196
 11
148.9596014612
 21
139.1225490196
  0
LINE
  5
226
100
AcDbEntity
  8
0
100
AcDbLine
 62
7
  6
BYLAYER
 10
149.9596014612
 20
140.1225490196
 11
148.9596014612
 21
140.1225490196
  0
LINE
  5
227
100
AcDbEntity
  8
0
100
AcDbLine
 62
7
  6
BYLAYER
 10
140.89400555
 20
133.4708083239
 11
143.4903350715
 21
133.243658924
  0
LINE
  5
228
100
AcDbEntity
  8
0
100
AcDbLine
 62
7
  6
BYLAYER
 10
140.89400555
 20
145.7742897153
 11
143.4903350715
 21
146.0014391153
  0
LINE
  5
229
100
AcDbEntity
  8
0
100
AcDbLine
 62
7
  6
BYLAYER
 10
22.9596014612
 20
141.5225490196
 11
122.9596014612
 21
141.5225490196
  0
LINE
  5
22A
100
AcDbEntity
  8
0
100
AcDbLine
 62
7
  6
BYLAYER
 10
22.9596014612
 20
142.7225490196
 11
137.9596014612
 21
142.7225490196
  0
LINE
  5
22B
100
AcDbEntity
  8
0
100
AcDbLine
 62
7
  6
BYLAYER
 10
170.1596014612
 20
146.6225490196
 11
179.4596014612
 21
146.6225490196
  0
LINE
  5
22C
100
AcDbEntity
  8
0
100
AcDbLine
 62
7
  6
BYLAYER
 10
164.7596825481
 20
147.8225490202
 11
169.1596014612
 21
147.8225490196
  0
LINE
  5
22D
100
AcDbEntity
  8
0
100
AcDbLine
 62
7
  6
BYLAYER
 10
164.7596014599
 20
148.0225490196
 11
168.9596014613
 21
148.0225490196
  0
LINE
  5
22E
100
AcDbEntity
  8
0
100
AcDbLine
 62
7
  6
BYLAYER
 10
168.9596013821
 20
148.0992515286
 11
164.7596165819
 21
148.0992515286
  0
LINE
  5
22F
100
AcDbEntity
  8
0
100
AcDbLine
 62
7
  6
BYLAYER
 10
164.3596014615
 20
148.2225598489
 11
164.5596014612
 21
148.2225516949
  0
LINE
  5
230
100
AcDbEntity
  8
0
100
AcDbLine
 62
7
  6
BYLAYER
 10
164.5596014612
 20
149.6225490196
 11
169.5596014612
 21
149.6225490196
  0
LINE
  5
231
100
AcDbEntity
  8
0
100
AcDbLine
 62
7
  6
BYLAYER
 10
169.8096014612
 20
153.3725490196
 11
170.1596014612
 21
153.3725490196
  0
LINE
  5
232
100
AcDbEntity
  8
0
100
AcDbLine
 62
7
  6
BYLAYER
 10
164.5596014612
 20
153.6225490196
 11
169.5596014612
 21
153.6225490196
  0
LINE
  5
233
100
AcDbEntity
  8
0
100
AcDbLine
 62
7
  6
BYLAYER
 10
143.9596014612
 20
154.6225490196
 11
164.5596014612
 21
154.6225490196
  0
LINE
  5
234
100
AcDbEntity
  8
0
100
AcDbLine
 62
7
  6
BYLAYER
 10
169.1596014612
 20
155.9225490196
 11
164.5596014612
 21
155.9225651783
  0
LINE
  5
235
100
AcDbEntity
  8
0
100
AcDbLine
 62
7
  6
BYLAYER
 10
149.9596014612
 20
156.1225490196
 11
144.4596014612
 21
156.1225490196
  0
LINE
  5
236
100
AcDbEntity
  8
0
100
AcDbLine
 62
7
  6
BYLAYER
 10
150.1596014612
 20
156.1225490196
 11
168.9596014612
 21
156.1225490196
  0
LINE
  5
237
100
AcDbEntity
  8
0
100
AcDbLine
 62
7
  6
BYLAYER
 10
121.5596014612
 20
142.7225490196
 11
121.5596014612
 21
141.5225490196
  0
LINE
  5
238
100
AcDbEntity
  8
0
100
AcDbLine
 62
7
  6
BYLAYER
 10
122.9596014612
 20
136.5225490196
 11
122.9596014612
 21
141.5893720782
  0
LINE
  5
239
100
AcDbEntity
  8
0
100
AcDbLine
 62
7
  6
BYLAYER
 10
137.9596014612
 20
141.9725490196
 11
139.0131545674
 21
143.0261021258
  0
LINE
  5
23A
100
AcDbEntity
  8
0
100
AcDbLine
 62
7
  6
BYLAYER
 10
137.9596014612
 20
137.2725490196
 11
139.0131545674
 21
136.2189959134
  0
LINE
  5
23B
100
AcDbEntity
  8
0
100
AcDbLine
 62
7
  6
BYLAYER
 10
137.9596014612
 20
142.7225490196
 11
137.9596014612
 21
136.5225490196
  0
LINE
  5
23C
100
AcDbEntity
  8
0
100
AcDbLine
 62
7
  6
BYLAYER
 10
139.0131545674
 20
143.0261021258
 11
139.0131545674
 21
136.2189959134
  0
LINE
  5
23D
100
AcDbEntity
  8
0
100
AcDbLine
 62
7
  6
BYLAYER
 10
139.1596014612
 20
135.3636869386
 11
139.1596014612
 21
143.8814124617
  0
LINE
  5
23E
100
AcDbEntity
  8
0
100
AcDbLine
 62
7
  6
BYLAYER
 10
140.8940055452
 20
133.4708083243
 11
140.8940055452
 21
145.7742897149
  0
LINE
  5
23F
100
AcDbEntity
  8
0
100
AcDbLine
 62
7
  6
BYLAYER
 10
143.4903350715
 20
146.0014391153
 11
143.4903350715
 21
133.243658924
  0
LINE
  5
240
100
AcDbEntity
  8
0
100
AcDbLine
 62
7
  6
BYLAYER
 10
143.9596014612
 20
123.6225491445
 11
143.9596014612
 21
155.6225488947
  0
LINE
  5
241
100
AcDbEntity
  8
0
100
AcDbLine
 62
7
  6
BYLAYER
 10
144.4596014612
 20
123.1225490196
 11
144.4596014612
 21
156.1225490196
  0
LINE
  5
242
100
AcDbEntity
  8
0
100
AcDbLine
 62
7
  6
BYLAYER
 10
169.9596014612
 20
150.0225490196
 11
169.5596014612
 21
149.6225490196
  0
LINE
  5
243
100
AcDbEntity
  8
0
100
AcDbLine
 62
7
  6
BYLAYER
 10
169.9596014612
 20
129.2225490196
 11
169.5596014612
 21
129.6225490196
  0
LINE
  5
244
100
AcDbEntity
  8
0
100
AcDbLine
 62
7
  6
BYLAYER
 10
148.9596014612
 20
139.1225490196
 11
148.9596014612
 21
140.1225490196
  0
LINE
  5
245
100
AcDbEntity
  8
0
100
AcDbLine
 62
7
  6
BYLAYER
 10
149.5596014612
 20
139.1225490196
 11
149.5596014612
 21
139.6225490196
  0
LINE
  5
246
100
AcDbEntity
  8
0
100
AcDbLine
 62
7
  6
BYLAYER
 10
149.9596014612
 20
123.1225490196
 11
149.9596014612
 21
156.1225490196
  0
LINE
  5
247
100
AcDbEntity
  8
0
100
AcDbLine
 62
7
  6
BYLAYER
 10
150.1596014612
 20
123.1225490196
 11
150.1596014612
 21
156.1225490196
  0
LINE
  5
248
100
AcDbEntity
  8
0
100
AcDbLine
 62
7
  6
BYLAYER
 10
169.9596014612
 20
126.0225490196
 11
169.5596014612
 21
125.6225490196
  0
LINE
  5
249
100
AcDbEntity
  8
0
100
AcDbLine
 62
7
  6
BYLAYER
 10
169.9596014612
 20
153.2225490196
 11
169.5596014612
 21
153.6225490196
  0
LINE
  5
24A
100
AcDbEntity
  8
0
100
AcDbLine
 62
7
  6
BYLAYER
 10
164.3596014612
 20
156.1225490196
 11
164.3596014618
 21
148.2226421303
  0
LINE
  5
24B
100
AcDbEntity
  8
0
100
AcDbLine
 62
7
  6
BYLAYER
 10
164.3596014618
 20
131.0224647623
 11
164.3596014612
 21
123.1225490196
  0
LINE
  5
24C
100
AcDbEntity
  8
0
100
AcDbLine
 62
7
  6
BYLAYER
 10
164.5596014612
 20
155.9225486972
 11
164.5596014612
 21
148.2225491065
  0
LINE
  5
24D
100
AcDbEntity
  8
0
100
AcDbLine
 62
7
  6
BYLAYER
 10
164.5596014612
 20
131.0225490197
 11
164.5596014612
 21
123.322549342
  0
LINE
  5
24E
100
AcDbEntity
  8
0
100
AcDbLine
 62
7
  6
BYLAYER
 10
164.7596014612
 20
129.6225490196
 11
164.7596133797
 21
131.2167092179
  0
LINE
  5
24F
100
AcDbEntity
  8
0
100
AcDbLine
 62
7
  6
BYLAYER
 10
164.7596133667
 20
148.0283888096
 11
164.7596014612
 21
149.6225490196
  0
LINE
  5
250
100
AcDbEntity
  8
0
100
AcDbLine
 62
7
  6
BYLAYER
 10
164.759601434
 20
155.9225540732
 11
164.7596024527
 21
153.6225490196
  0
LINE
  5
251
100
AcDbEntity
  8
0
100
AcDbLine
 62
7
  6
BYLAYER
 10
164.7596024697
 20
125.6225490196
 11
164.7596014599
 21
123.3225438841
  0
LINE
  5
252
100
AcDbEntity
  8
0
100
AcDbLine
 62
7
  6
BYLAYER
 10
164.7596621831
 20
155.9308532703
 11
164.7596013966
 21
155.9225490196
  0
LINE
  5
253
100
AcDbEntity
  8
0
100
AcDbLine
 62
7
  6
BYLAYER
 10
164.7596621831
 20
131.2227214954
 11
164.7596013966
 21
131.2225490196
  0
LINE
  5
254
100
AcDbEntity
  8
0
100
AcDbLine
 62
7
  6
BYLAYER
 10
168.9596014612
 20
148.0225490196
 11
168.9596014612
 21
131.2225490196
  0
LINE
  5
255
100
AcDbEntity
  8
0
100
AcDbLine
 62
7
  6
BYLAYER
 10
168.9596014615
 20
125.6225490196
 11
168.9596014612
 21
123.1225490196
  0
LINE
  5
256
100
AcDbEntity
  8
0
100
AcDbLine
 62
7
  6
BYLAYER
 10
168.9596166511
 20
153.6225490196
 11
168.9596014612
 21
156.1225490196
  0
LINE
  5
257
100
AcDbEntity
  8
0
100
AcDbLine
 62
7
  6
BYLAYER
 10
169.1596014612
 20
155.9225490196
 11
169.1596014612
 21
153.6225490196
  0
LINE
  5
258
100
AcDbEntity
  8
0
100
AcDbLine
 62
7
  6
BYLAYER
 10
169.1596014612
 20
125.6225490196
 11
169.1596014612
 21
123.3225490196
  0
LINE
  5
259
100
AcDbEntity
  8
0
100
AcDbLine
 62
7
  6
BYLAYER
 10
169.1596014612
 20
131.4225490197
 11
169.1596014612
 21
147.8225490195
  0
LINE
  5
25A
100
AcDbEntity
  8
0
100
AcDbLine
 62
7
  6
BYLAYER
 10
169.3596014612
 20
131.5401122554
 11
169.3596014612
 21
147.7049862929
  0
LINE
  5
25B
100
AcDbEntity
  8
0
100
AcDbLine
 62
7
  6
BYLAYER
 10
169.5596014612
 20
153.6225490196
 11
169.5596014612
 21
149.6225490196
  0
LINE
  5
25C
100
AcDbEntity
  8
0
100
AcDbLine
 62
7
  6
BYLAYER
 10
169.5596014612
 20
129.6225490196
 11
169.5596014612
 21
125.6225490196
  0
LINE
  5
25D
100
AcDbEntity
  8
0
100
AcDbLine
 62
7
  6
BYLAYER
 10
169.9596014612
 20
153.2224865107
 11
169.9596014612
 21
150.0226115285
  0
LINE
  5
25E
100
AcDbEntity
  8
0
100
AcDbLine
 62
7
  6
BYLAYER
 10
169.9596014612
 20
129.2224865107
 11
169.9596014612
 21
126.0226115285
  0
LINE
  5
25F
100
AcDbEntity
  8
0
100
AcDbLine
 62
7
  6
BYLAYER
 10
170.1596014612
 20
153.372372839
 11
170.1596014612
 21
125.8727252002
  0
LINE
  5
260
100
AcDbEntity
  8
0
100
AcDbLine
 62
7
  6
BYLAYER
 10
179.4596014612
 20
146.6225490196
 11
179.4596014612
 21
132.6225490196
  0
ARC
  5
261
100
AcDbEntity
  8
0
100
AcDbCircle
 62
7
  6
BYLAYER
 10
141.0596014612
 20
143.881519789
 40
1.9
100
AcDbArc
 50
95.0000001459
 51
180.0
  0
ARC
  5
262
100
AcDbEntity
  8
0
100
AcDbCircle
 62
7
  6
BYLAYER
 10
141.0596014612
 20
135.3635782502
 40
1.9
100
AcDbArc
 50
180.0
 51
264.9999998541
  0
ARC
  5
263
100
AcDbEntity
  8
0
100
AcDbCircle
 62
7
  6
BYLAYER
 10
143.3596014612
 20
147.4957311627
 40
1.5
100
AcDbArc
 50
275.0
 51
296.8760219249
  0
ARC
  5
264
100
AcDbEntity
  8
0
100
AcDbCircle
 62
7
  6
BYLAYER
 10
143.3596014612
 20
131.7493668765
 40
1.5
100
AcDbArc
 50
63.1239780751
 51
85.0
  0
ARC
  5
265
100
AcDbEntity
  8
0
100
AcDbCircle
 62
7
  6
BYLAYER
 10
144.4596014612
 20
123.6225490196
 40
0.5
100
AcDbArc
 50
180.0
 51
270.0
  0
ARC
  5
266
100
AcDbEntity
  8
0
100
AcDbCircle
 62
7
  6
BYLAYER
 10
144.4596014612
 20
155.6225490196
 40
0.5
100
AcDbArc
 50
90.0
 51
180.0
  0
ARC
  5
267
100
AcDbEntity
  8
0
100
AcDbCircle
 62
7
  6
BYLAYER
 10
138.6596014612
 20
135.8654422384
 40
0.5
100
AcDbArc
 50
0.0000731243
 51
45.0
  0
ARC
  5
268
100
AcDbEntity
  8
0
100
AcDbCircle
 62
7
  6
BYLAYER
 10
138.6596014612
 20
143.3796558008
 40
0.5
100
AcDbArc
 50
315.0
 51
359.9999268757
  0
ARC
  5
269
100
AcDbEntity
  8
0
100
AcDbCircle
 62
7
  6
BYLAYER
 10
164.7595700944
 20
131.0225808408
 40
0.3999566599
100
AcDbArc
 50
89.870784656
 51
180.0166283187
  0
ARC
  5
26A
100
AcDbEntity
  8
0
100
AcDbCircle
 62
7
  6
BYLAYER
 10
164.7595713874
 20
148.2225155591
 40
0.399956131
100
AcDbArc
 50
179.9818686462
 51
270.0159239327
  0
ARC
  5
26B
100
AcDbEntity
  8
0
100
AcDbCircle
 62
7
  6
BYLAYER
 10
168.9639882107
 20
131.4939684532
 40
0.3481495753
100
AcDbArc
 50
269.2780401966
 51
272.7736990643
  0
ARC
  5
26C
100
AcDbEntity
  8
0
100
AcDbCircle
 62
7
  6
BYLAYER
 10
168.9698777391
 20
147.8157423346
 40
0.2836953736
100
AcDbArc
 50
87.8549392812
 51
92.0758953144
  0
ARC
  5
26D
100
AcDbEntity
  8
0
100
AcDbCircle
 62
7
  6
BYLAYER
 10
164.7596014612
 20
148.2225490196
 40
0.2
100
AcDbArc
 50
180.000655171
 51
270.0
  0
ARC
  5
26E
100
AcDbEntity
  8
0
100
AcDbCircle
 62
7
  6
BYLAYER
 10
150.1596014612
 20
155.9225490196
 40
0.2
100
AcDbArc
 50
90.0
 51
180.0
  0
ARC
  5
26F
100
AcDbEntity
  8
0
100
AcDbCircle
 62
7
  6
BYLAYER
 10
164.3596014612
 20
155.9225490196
 40
0.2
100
AcDbArc
 50
0.0
 51
89.9999999262
  0
ARC
  5
270
100
AcDbEntity
  8
0
100
AcDbCircle
 62
7
  6
BYLAYER
 10
164.7596014612
 20
131.0225490196
 40
0.2
100
AcDbArc
 50
90.0
 51
179.9993316383
  0
ARC
  5
271
100
AcDbEntity
  8
0
100
AcDbCircle
 62
7
  6
BYLAYER
 10
168.9596014612
 20
131.4225490196
 40
0.2
100
AcDbArc
 50
270.0046664145
 51
360.0
  0
ARC
  5
272
100
AcDbEntity
  8
0
100
AcDbCircle
 62
7
  6
BYLAYER
 10
168.9596014612
 20
147.8225490196
 40
0.2
100
AcDbArc
 50
0.0
 51
89.9999999063
  0
ARC
  5
273
100
AcDbEntity
  8
0
100
AcDbCircle
 62
7
  6
BYLAYER
 10
168.9596014612
 20
155.9225490196
 40
0.2
100
AcDbArc
 50
0.0
 51
90.0
  0
ARC
  5
274
100
AcDbEntity
  8
0
100
AcDbCircle
 62
7
  6
BYLAYER
 10
150.1596014612
 20
123.3225490196
 40
0.2
100
AcDbArc
 50
180.0
 51
270.0
  0
ARC
  5
275
100
AcDbEntity
  8
0
100
AcDbCircle
 62
7
  6
BYLAYER
 10
164.3596014612
 20
123.3225490196
 40
0.2
100
AcDbArc
 50
270.0000000846
 51
360.0
  0
ARC
  5
276
100
AcDbEntity
  8
0
100
AcDbCircle
 62
7
  6
BYLAYER
 10
168.9596014612
 20
123.3225490196
 40
0.2
100
AcDbArc
 50
270.0
 51
360.0
  0
SPLINE
  5
277
100
AcDbEntity
  8
0
100
AcDbSpline
 62
7
  6
BYLAYER
 70
0
 71
3
 72
9
 73
5
 74
0
 42
0.0000001
 43
0.0000001
 44
0.0000000001
 40
0.0
 40
0.0
 40
0.0
 40
0.0
 40
0.2191062643
 40
1.0
 40
1.0
 40
1.0
 40
1.0
 10
124.0596014612
 20
142.1225490196
 30
0.0
 10
123.9959419198
 20
142.0588894782
 30
0.0
 10
123.6773873014
 20
141.7964006084
 30
0.0
 10
123.274785564
 20
141.6494566322
 30
0.0
 10
122.9596014612
 20
141.5893720782
 30
0.0
  0
SPLINE
  5
278
100
AcDbEntity
  8
0
100
AcDbSpline
 62
7
  6
BYLAYER
 70
0
 71
3
 72
15
 73
11
 74
0
 42
0.0000001
 43
0.0000001
 44
0.0000000001
 40
0.0
 40
0.0
 40
0.0
 40
0.0
 40
0.2049584209
 40
0.3771990534
 40
0.5151679325
 40
0.6231384146
 40
0.7107068712
 40
0.7937249659
 40
0.8873928369
 40
1.0
 40
1.0
 40
1.0
 40
1.0
 10
124.0596014612
 20
142.1225490196
 30
0.0
 10
124.0996618469
 20
142.1626094052
 30
0.0
 10
124.168907502
 20
142.2410731981
 30
0.0
 10
124.2467150954
 20
142.3611086544
 30
0.0
 10
124.2903771683
 20
142.4690822618
 30
0.0
 10
124.3019737651
 20
142.5621205996
 30
0.0
 10
124.2798940171
 20
142.638990432
 30
0.0
 10
124.2250057877
 20
142.6916318092
 30
0.0
 10
124.1479748603
 20
142.7182435382
 30
0.0
 10
124.0907279673
 20
142.7225490196
 30
0.0
 10
124.0596014612
 20
142.7225490196
 30
0.0
  0
SPLINE
  5
279
100
AcDbEntity
  8
0
100
AcDbSpline
 62
7
  6
BYLAYER
 70
0
 71
3
 72
16
 73
12
 74
0
 42
0.0000001
 43
0.0000001
 44
0.0000000001
 40
0.0
 40
0.0
 40
0.0
 40
0.0
 40
0.4199782747
 40
0.592603225
 40
0.7367397182
 40
0.8507886919
 40
0.9332626415
 40
0.9623378989
 40
0.9832017542
 40
0.9957786215
 40
1.0
 40
1.0
 40
1.0
 40
1.0
 10
168.9596014724
 20
131.1458465106
 30
0.0
 10
168.9594542875
 20
131.1565840521
 30
0.0
 10
168.9592672508
 20
131.1717380356
 30
0.0
 10
168.9592670222
 20
131.1905710791
 30
0.0
 10
168.9594078004
 20
131.2015972832
 30
0.0
 10
168.9595466989
 20
131.2102764218
 30
0.0
 10
168.9596901403
 20
131.2161067472
 30
0.0
 10
168.9596384965
 20
131.2194075418
 30
0.0
 10
168.9597538362
 20
131.2211467744
 30
0.0
 10
168.9595320035
 20
131.221859786
 30
0.0
 10
168.9597338316
 20
131.222549299
 30
0.0
 10
168.9596258942
 20
131.2225490196
 30
0.0
  0
SPLINE
  5
27A
100
AcDbEntity
  8
0
100
AcDbSpline
 62
7
  6
BYLAYER
 70
0
 71
3
 72
18
 73
14
 74
0
 42
0.0000001
 43
0.0000001
 44
0.0000000001
 40
0.0
 40
0.0
 40
0.0
 40
0.0
 40
0.0048519581
 40
0.0192730813
 40
0.0430894193
 40
0.0761294097
 40
0.1181573457
 40
0.1686724112
 40
0.292939927
 40
0.4444135134
 40
0.617354573
 40
0.8053180971
 40
1.0
 40
1.0
 40
1.0
 40
1.0
 10
164.7596014586
 20
148.0225490196
 30
0.0
 10
164.7592779032
 20
148.022545953
 30
0.0
 10
164.7599606504
 20
148.0204868561
 30
0.0
 10
164.7592481501
 20
148.018355034
 30
0.0
 10
164.7596596786
 20
148.0131831386
 30
0.0
 10
164.7596097117
 20
148.0067722641
 30
0.0
 10
164.7599190625
 20
147.998331168
 30
0.0
 10
164.7602398734
 20
147.983908902
 30
0.0
 10
164.7602803386
 20
147.9621236511
 30
0.0
 10
164.758905656
 20
147.9322379437
 30
0.0
 10
164.7577292128
 20
147.8980810999
 30
0.0
 10
164.7581086432
 20
147.8610217316
 30
0.0
 10
164.7590391467
 20
147.8355196631
 30
0.0
 10
164.7596066132
 20
147.8225490196
 30
0.0
  0
SPLINE
  5
27B
100
AcDbEntity
  8
0
100
AcDbSpline
 62
7
  6
BYLAYER
 70
0
 71
3
 72
12
 73
8
 74
0
 42
0.0000001
 43
0.0000001
 44
0.0000000001
 40
0.0
 40
0.0
 40
0.0
 40
0.0
 40
0.1802664541
 40
0.2916258727
 40
0.4184903002
 40
0.7064701595
 40
1.0
 40
1.0
 40
1.0
 40
1.0
 10
169.1596103503
 20
147.8225494131
 30
0.0
 10
169.1596102793
 20
147.8073847374
 30
0.0
 10
169.1685744184
 20
147.7825791297
 30
0.0
 10
169.1925528072
 20
147.7565917901
 30
0.0
 10
169.2288523356
 20
147.7307097983
 30
0.0
 10
169.2858954458
 20
147.7102577853
 30
0.0
 10
169.3349086537
 20
147.704987106
 30
0.0
 10
169.3596014612
 20
147.7049858553
 30
0.0
  0
SPLINE
  5
27C
100
AcDbEntity
  8
0
100
AcDbSpline
 62
7
  6
BYLAYER
 70
0
 71
3
 72
12
 73
8
 74
0
 42
0.0000001
 43
0.0000001
 44
0.0000000001
 40
0.0
 40
0.0
 40
0.0
 40
0.0
 40
0.1802662469
 40
0.2916257287
 40
0.4184902727
 40
0.7064703162
 40
1.0
 40
1.0
 40
1.0
 40
1.0
 10
169.1596101712
 20
131.4225498615
 30
0.0
 10
169.159610118
 20
131.4377145265
 30
0.0
 10
169.1685743167
 20
131.4625201124
 30
0.0
 10
169.1925527423
 20
131.4885074298
 30
0.0
 10
169.2288523182
 20
131.5143894389
 30
0.0
 10
169.2858954362
 20
131.5348415173
 30
0.0
 10
169.3349086561
 20
131.540112293
 30
0.0
 10
169.3596014613
 20
131.5401135944
 30
0.0
  0
SPLINE
  5
27D
100
AcDbEntity
  8
0
100
AcDbSpline
 62
7
  6
BYLAYER
 70
0
 71
3
 72
11
 73
7
 74
0
 42
0.0000001
 43
0.0000001
 44
0.0000000001
 40
0.0
 40
0.0
 40
0.0
 40
0.0
 40
0.3013812062
 40
0.5756579476
 40
0.8062193498
 40
1.0
 40
1.0
 40
1.0
 40
1.0
 10
164.7596165819
 20
148.0992515289
 30
0.0
 10
164.7339130143
 20
148.0992509299
 30
0.0
 10
164.6845595196
 20
148.1049846194
 30
0.0
 10
164.6197464417
 20
148.1302792055
 30
0.0
 10
164.572766434
 20
148.1695782869
 30
0.0
 10
164.5596034886
 20
148.2060129408
 30
0.0
 10
164.5596014618
 20
148.2225396979
 30
0.0
  0
SPLINE
  5
27E
100
AcDbEntity
  8
0
100
AcDbSpline
 62
7
  6
BYLAYER
 70
0
 71
3
 72
13
 73
9
 74
0
 42
0.0000001
 43
0.0000001
 44
0.0000000001
 40
0.0
 40
0.0
 40
0.0
 40
0.0
 40
0.3733841338
 40
0.6928544577
 40
0.8173782521
 40
0.9122752324
 40
0.9738295377
 40
1.0
 40
1.0
 40
1.0
 40
1.0
 10
164.7603873977
 20
131.4225485551
 30
0.0
 10
164.7604485492
 20
131.3976769998
 30
0.0
 10
164.7605118696
 20
131.3515266039
 30
0.0
 10
164.7602556378
 20
131.2970745804
 30
0.0
 10
164.7601058135
 20
131.2611873969
 30
0.0
 10
164.7601793648
 20
131.2424545461
 30
0.0
 10
164.7598201878
 20
131.2303232666
 30
0.0
 10
164.7599469855
 20
131.2244413238
 30
0.0
 10
164.7596621831
 20
131.2227214954
 30
0.0
  0
SPLINE
  5
27F
100
AcDbEntity
  8
0
100
AcDbSpline
 62
7
  6
BYLAYER
 70
0
 71
3
 72
11
 73
7
 74
0
 42
0.0000001
 43
0.0000001
 44
0.0000000001
 40
0.0
 40
0.0
 40
0.0
 40
0.0
 40
0.3013820435
 40
0.5756571639
 40
0.8062177889
 40
1.0
 40
1.0
 40
1.0
 40
1.0
 10
164.7596014612
 20
131.1458465106
 30
0.0
 10
164.7338993226
 20
131.1458471103
 30
0.0
 10
164.6845490513
 20
131.1401100692
 30
0.0
 10
164.6197407795
 20
131.1148153362
 30
0.0
 10
164.5727649498
 20
131.0755168989
 30
0.0
 10
164.5596034907
 20
131.039084277
 30
0.0
 10
164.5596014618
 20
131.0225583515
 30
0.0
  0
SPLINE
  5
280
100
AcDbEntity
  8
0
100
AcDbSpline
 62
7
  6
BYLAYER
 70
0
 71
3
 72
16
 73
12
 74
0
 42
0.0000001
 43
0.0000001
 44
0.0000000001
 40
0.0
 40
0.0
 40
0.0
 40
0.0
 40
0.0042175549
 40
0.0167942174
 40
0.0376583182
 40
0.0667335602
 40
0.1492042601
 40
0.2632450904
 40
0.4073809649
 40
0.5800145341
 40
1.0
 40
1.0
 40
1.0
 40
1.0
 10
168.9596014618
 20
148.0225490196
 30
0.0
 10
168.9597092973
 20
148.0225490197
 30
0.0
 10
168.959496181
 20
148.0232384567
 30
0.0
 10
168.9597250462
 20
148.0239512378
 30
0.0
 10
168.9596076378
 20
148.0256904599
 30
0.0
 10
168.9596743494
 20
148.0289910324
 30
0.0
 10
168.9595679153
 20
148.0348212925
 30
0.0
 10
168.9594962936
 20
148.0435007657
 30
0.0
 10
168.95940697
 20
148.05452688
 30
0.0
 10
168.9594073519
 20
148.0733593002
 30
0.0
 10
168.9595159179
 20
148.0885135769
 30
0.0
 10
168.9596013821
 20
148.0992515286
 30
0.0
  0
SPLINE
  5
281
100
AcDbEntity
  8
0
100
AcDbSpline
 62
7
  6
BYLAYER
 70
0
 71
3
 72
11
 73
7
 74
0
 42
0.0000001
 43
0.0000001
 44
0.0000000001
 40
0.0
 40
0.0
 40
0.0
 40
0.0
 40
0.2644284201
 40
0.5207243226
 40
0.765302786
 40
1.0
 40
1.0
 40
1.0
 40
1.0
 10
168.9804963511
 20
148.0992389132
 30
0.0
 10
169.009602262
 20
148.0981659498
 30
0.0
 10
169.0666408142
 20
148.0877372673
 30
0.0
 10
169.145658963
 20
148.0571236065
 30
0.0
 10
169.2140938744
 20
148.012625648
 30
0.0
 10
169.251816074
 20
147.975159969
 30
0.0
 10
169.2684385331
 20
147.9553618989
 30
0.0
  0
SPLINE
  5
282
100
AcDbEntity
  8
0
100
AcDbSpline
 62
7
  6
BYLAYER
 70
0
 71
3
 72
9
 73
5
 74
0
 42
0.0000001
 43
0.0000001
 44
0.0000000001
 40
0.0
 40
0.0
 40
0.0
 40
0.0
 40
0.5078777052
 40
1.0
 40
1.0
 40
1.0
 40
1.0
 10
169.2684385331
 20
147.9553618989
 30
0.0
 10
169.2978909346
 20
147.9202828106
 30
0.0
 10
169.3451334512
 20
147.8402416612
 30
0.0
 10
169.3572393142
 20
147.7493062431
 30
0.0
 10
169.3596014612
 20
147.7049862929
 30
0.0
  0
SPLINE
  5
283
100
AcDbEntity
  8
0
100
AcDbSpline
 62
7
  6
BYLAYER
 70
0
 71
3
 72
9
 73
5
 74
0
 42
0.0000001
 43
0.0000001
 44
0.0000000001
 40
0.0
 40
0.0
 40
0.0
 40
0.0
 40
0.492431533
 40
1.0
 40
1.0
 40
1.0
 40
1.0
 10
169.3596014612
 20
131.5401122554
 30
0.0
 10
169.3569476298
 20
131.4962378857
 30
0.0
 10
169.3453579101
 20
131.406295304
 30
0.0
 10
169.2991752793
 20
131.3267370192
 30
0.0
 10
169.2702775152
 20
131.2918439794
 30
0.0
  0
SPLINE
  5
284
100
AcDbEntity
  8
0
100
AcDbSpline
 62
7
  6
BYLAYER
 70
0
 71
3
 72
9
 73
5
 74
0
 42
0.0000001
 43
0.0000001
 44
0.0000000001
 40
0.0
 40
0.0
 40
0.0
 40
0.0
 40
0.4793680195
 40
1.0
 40
1.0
 40
1.0
 40
1.0
 10
169.2702775152
 20
131.2918439794
 30
0.0
 10
169.2365366525
 20
131.2511030674
 30
0.0
 10
169.1485415848
 20
131.179417444
 30
0.0
 10
169.0382212815
 20
131.1489901749
 30
0.0
 10
168.9808356125
 20
131.1462267504
 30
0.0
  0
SPLINE
  5
285
100
AcDbEntity
  8
0
100
AcDbSpline
 62
7
  6
BYLAYER
 70
0
 71
3
 72
18
 73
14
 74
0
 42
0.0000001
 43
0.0000001
 44
0.0000000001
 40
0.0
 40
0.0
 40
0.0
 40
0.0
 40
0.0047978254
 40
0.019064073
 40
0.0426318559
 40
0.0753315377
 40
0.116937178
 40
0.166996156
 40
0.2904342979
 40
0.4413096172
 40
0.6142423081
 40
0.8031278292
 40
1.0
 40
1.0
 40
1.0
 40
1.0
 10
164.7603873977
 20
156.1225490196
 30
0.0
 10
164.7606939765
 20
156.12254873
 30
0.0
 10
164.7600460187
 20
156.1205907773
 30
0.0
 10
164.7607072878
 20
156.118575838
 30
0.0
 10
164.7603444381
 20
156.1136685602
 30
0.0
 10
164.7604804953
 20
156.1075892978
 30
0.0
 10
164.7603700352
 20
156.0995759568
 30
0.0
 10
164.7603049926
 20
156.0858620969
 30
0.0
 10
164.7601735807
 20
156.0651157289
 30
0.0
 10
164.7601371629
 20
156.0365448417
 30
0.0
 10
164.7600718172
 20
156.0037813721
 30
0.0
 10
164.7599057445
 20
155.9680824668
 30
0.0
 10
164.7597487547
 20
155.9434330186
 30
0.0
 10
164.7596621831
 20
155.9308532703
 30
0.0
  0
SPLINE
  5
286
100
AcDbEntity
  8
0
100
AcDbSpline
 62
7
  6
BYLAYER
 70
0
 71
3
 72
16
 73
12
 74
0
 42
0.0000001
 43
0.0000001
 44
0.0000000001
 40
0.0
 40
0.0
 40
0.0
 40
0.0
 40
0.3819868277
 40
0.5546564834
 40
0.7058473853
 40
0.8299670459
 40
0.9223676643
 40
0.9553230148
 40
0.9791375497
 40
0.9938111242
 40
1.0
 40
1.0
 40
1.0
 40
1.0
 10
164.7596014586
 20
123.3225457107
 30
0.0
 10
164.7595568764
 20
123.2970308448
 30
0.0
 10
164.7593361447
 20
123.259976351
 30
0.0
 10
164.7601407539
 20
123.2128437737
 30
0.0
 10
164.7603873357
 20
123.1829005034
 30
0.0
 10
164.7592444279
 20
123.1583929158
 30
0.0
 10
164.7580479337
 20
123.1416934295
 30
0.0
 10
164.7578750826
 20
123.1318310918
 30
0.0
 10
164.7581818075
 20
123.1268834593
 30
0.0
 10
164.7585083927
 20
123.124254681
 30
0.0
 10
164.7591932209
 20
123.1225490196
 30
0.0
 10
164.7596066084
 20
123.1225490196
 30
0.0
  0
ENDSEC
  0
SECTION
  2
OBJECTS
  0
DICTIONARY
  5
C
100
AcDbDictionary
280
0
281
1
  3
ACAD_GROUP
350
D
  3
ACAD_MLINESTYLE
350
17
  3
ACAD_LAYOUT
350
1A
  3
ACAD_PLOTSETTINGS
350
19
  3
ACAD_PLOTSTYLENAME
350
E
  0
DICTIONARY
  5
D
102
{ACAD_REACTORS
330
C
102
}
100
AcDbDictionary
280
0
281
1
  0
ACDBDICTIONARYWDFLT
  5
E
102
{ACAD_REACTORS
330
C
102
}
100
AcDbDictionary
281
1
  3
Normal
350
F
100
AcDbDictionaryWithDefault
340
F
  0
DICTIONARY
  5
17
102
{ACAD_REACTORS
330
C
102
}
100
AcDbDictionary
280
0
281
1
  3
Standard
350
18
  0
DICTIONARY
  5
19
102
{ACAD_REACTORS
330
C
102
}
100
AcDbDictionary
281
1
  0
DICTIONARY
  5
1A
102
{ACAD_REACTORS
330
C
102
}
100
AcDbDictionary
281
1
  3
Model
350
287
  3
Layout1
350
288
  0
ACDBPLACEHOLDER
  5
F
102
{ACAD_REACTORS
330
E
102
}
  0
MLINESTYLE
  5
18
102
{ACAD_REACTORS
330
17
102
}
100
AcDbMlineStyle
  2
STANDARD
 70
0
  3

 62
256
 51
90.0
 52
90.0
 71
2
 49
0.5
 62
256
  6
BYLAYER
 49
-0.5
 62
256
  6
BYLAYER
  0
LAYOUT
  5
287
102
{ACAD_REACTORS
330
1A
102
}
100
AcDbPlotSettings
  1

  2
none_device
  4

  6

 40
0.0
 41
0.0
 42
0.0
 43
0.0
 44
210.0
 45
297.0
 46
0.0
 47
0.0
 48
0.0
 49
0.0
140
0.0
141
0.0
142
1.0
143
1.0
 70
1024
 72
1
 73
0
 74
0
  7

 75
0
147
1.0
148
0.0
149
0.0
100
AcDbLayout
  1
Model
 70
0
 71
0
 10
0.0
 20
0.0
 11
210.0
 21
297.0
 12
0.0
 22
0.0
 32
0.0
 14
0.0
 24
0.0
 34
0.0
 15
0.0
 25
0.0
 35
0.0
146
0.0
 13
0.0
 23
0.0
 33
0.0
 16
1.0
 26
0.0
 36
0.0
 17
0.0
 27
1.0
 37
0.0
 76
0
330
210
345
0
346
0
  0
LAYOUT
  5
288
102
{ACAD_REACTORS
330
1A
102
}
100
AcDbPlotSettings
  1

  2
none_device
  4

  6

 40
0.0
 41
0.0
 42
0.0
 43
0.0
 44
210.0
 45
297.0
 46
0.0
 47
0.0
 48
0.0
 49
0.0
140
0.0
141
0.0
142
1.0
143
1.0
 70
0
 72
1
 73
0
 74
0
  7

 75
0
147
1.0
148
0.0
149
0.0
100
AcDbLayout
  1
Layout1
 70
0
 71
1
 10
0.0
 20
0.0
 11
210.0
 21
297.0
 12
0.0
 22
0.0
 32
0.0
 14
0.0
 24
0.0
 34
0.0
 15
0.0
 25
0.0
 35
0.0
146
0.0
 13
0.0
 23
0.0
 33
0.0
 16
1.0
 26
0.0
 36
0.0
 17
0.0
 27
1.0
 37
0.0
 76
0
330
211
345
0
346
0
  0
ENDSEC
  0
EOF
