999
DXF file: C:\Users\sesa63760\Dev\_Creo\CAD\MCADID0003680_3D-CAD\drw0001_5.dxf
999
Pro/ENGINEER 2019471 by Parametric Technology Corporation
  0
SECTION
  2
HEADER
  9
$ACADVER
  1
AC1024
  9
$DWGCODEPAGE
  3
ANSI_1252
  9
$EXTMAX
 10
135.962386688
 20
192.2896611731
 30
0.0
  9
$EXTMIN
 10
0.0
 20
0.0
 30
0.0
  9
$LIMMIN
 10
0.0
 20
0.0
  9
$LIMMAX
 10
135.962386688
 20
192.2896611731
  9
$VIEWCTR
 10
67.981193344
 20
96.1448305865
  9
$VIEWSIZE
 40
192.2896611731
  9
$CLAYER
  8
0
  9
$LTSCALE
 40
12.5344371728
  9
$CELTYPE
  6
BYLAYER
  9
$DIMSCALE
 40
1.0
  9
$DIMASZ
 40
1.6185998415
  9
$DIMEXO
 40
1.0
  9
$DIMDLI
 40
8.6601565921
  9
$DIMEXE
 40
1.0
  9
$DIMCEN
 40
2.0510897192
  9
$DIMLFAC
 40
1.0
  9
$DIMBLK
  1
_FILLED
  9
$DIMALT
 70
0
  9
$DIMALTF
 40
0.0393700787
  9
$DIMTXT
 40
2.2660397781
  9
$DIMTOL
 70
1
  9
$DIMLIM
 70
0
  9
$DIMTFAC
 40
1.0
  9
$DIMTP
 40
0.01
  9
$DIMTM
 40
0.01
  9
$DIMGAP
 40
0.625
  9
$DIMDSEP
 70
46
  9
$AUNITS
 70
0
  9
$PDMODE
 70
3
  9
$PDSIZE
 40
0.3125
  9
$HANDSEED
  5
285
  9
$TILEMODE
 70
1
  9
$MEASUREMENT
 70
1
  9
$INSUNITS
 70
4
  0
ENDSEC
  0
SECTION
  2
CLASSES
  0
CLASS
  1
ACDBDICTIONARYWDFLT
  2
AcDbDictionaryWithDefault
  3
AutoCAD 2000
 90
0
 91
1
280
0
281
0
  0
CLASS
  1
ACDBPLACEHOLDER
  2
AcDbPlaceHolder
  3
AutoCAD 2000
 90
0
 91
1
280
0
281
0
  0
CLASS
  1
LAYOUT
  2
AcDbLayout
  3
AutoCAD 2000
 90
0
 91
0
280
0
281
0
  0
ENDSEC
  0
SECTION
  2
TABLES
  0
TABLE
  2
VPORT
  5
8
100
AcDbSymbolTable
 70
2
  0
VPORT
  5
1F4
100
AcDbSymbolTableRecord
100
AcDbViewportTableRecord
  2
*ACTIVE
 70
0
 10
0.0
 20
0.0
 11
1.0
 21
1.0
 12
67.981193344
 22
96.1448305865
 13
0.0
 23
0.0
 14
1.0
 24
1.0
 15
0.0
 25
0.0
 16
0.0
 26
0.0
 36
1.0
 17
0.0
 27
0.0
 37
0.0
 40
192.2896611731
 41
0.7070707071
 42
50.0
 43
0.0
 44
0.0
 50
0.0
 51
0.0
 71
0
 72
100
 73
1
 74
1
 75
0
 76
0
 77
0
 78
0
  0
ENDTAB
  0
TABLE
  2
LTYPE
  5
5
100
AcDbSymbolTable
 70
6
  0
LTYPE
  5
14
100
AcDbSymbolTableRecord
100
AcDbLinetypeTableRecord
  2
BYBLOCK
 70
0
  3

 72
65
 73
0
 40
0.0
  0
LTYPE
  5
15
100
AcDbSymbolTableRecord
100
AcDbLinetypeTableRecord
  2
BYLAYER
 70
0
  3

 72
65
 73
0
 40
0.0
  0
LTYPE
  5
16
100
AcDbSymbolTableRecord
100
AcDbLinetypeTableRecord
  2
CONTINUOUS
 70
64
  3
Solid line
 72
65
 73
0
 40
0.0
  0
LTYPE
  5
1F5
100
AcDbSymbolTableRecord
100
AcDbLinetypeTableRecord
  2
CENTER
 70
64
  3
____ _ ____ _ ____ _ ____ _ ____ _ ____ _ ____
 72
65
 73
4
 40
0.6
 49
0.375
 74
0
 49
-0.075
 74
0
 49
0.075
 74
0
 49
-0.075
 74
0
  0
LTYPE
  5
1F6
100
AcDbSymbolTableRecord
100
AcDbLinetypeTableRecord
  2
HIDDEN
 70
64
  3
- - - - - - - - - - - - - - - - - - - -
 72
65
 73
2
 40
0.2
 49
0.1
 74
0
 49
-0.1
 74
0
  0
LTYPE
  5
1F7
100
AcDbSymbolTableRecord
100
AcDbLinetypeTableRecord
  2
PHANTOM
 70
64
  3
_____ _ _ _____ _ _ _____ _ _ _____
 72
65
 73
6
 40
0.8
 49
0.45
 74
0
 49
-0.05
 74
0
 49
0.1
 74
0
 49
-0.05
 74
0
 49
0.1
 74
0
 49
-0.05
 74
0
  0
LTYPE
  5
1F8
100
AcDbSymbolTableRecord
100
AcDbLinetypeTableRecord
  2
DOT
 70
64
  3
. . . . . . . . . . . . . . . . . . . .
 72
65
 73
2
 40
0.2
 49
0.1
 74
0
 49
-0.1
 74
0
  0
LTYPE
  5
1F9
100
AcDbSymbolTableRecord
100
AcDbLinetypeTableRecord
  2
DASHED
 70
64
  3
- - - - - - - - - - - - - - - - - - - -
 72
65
 73
2
 40
0.2
 49
0.1
 74
0
 49
-0.1
 74
0
  0
ENDTAB
  0
TABLE
  2
LAYER
  5
2
100
AcDbSymbolTable
 70
36
  0
LAYER
  5
10
100
AcDbSymbolTableRecord
100
AcDbLayerTableRecord
  2
0
 70
0
 62
7
  6
CONTINUOUS
370
-3
390
F
  0
LAYER
  5
1FA
100
AcDbSymbolTableRecord
100
AcDbLayerTableRecord
  2
DEFAULT_1
 70
0
 62
7
  6
CENTER
370
-3
390
F
  0
LAYER
  5
1FB
100
AcDbSymbolTableRecord
100
AcDbLayerTableRecord
  2
DEFAULT_2
 70
0
 62
7
  6
HIDDEN
370
-3
390
F
  0
LAYER
  5
1FC
100
AcDbSymbolTableRecord
100
AcDbLayerTableRecord
  2
DEFAULT_3
 70
0
 62
7
  6
PHANTOM
370
-3
390
F
  0
LAYER
  5
1FD
100
AcDbSymbolTableRecord
100
AcDbLayerTableRecord
  2
00_COMPONENTS
 70
0
 62
7
  6
CONTINUOUS
370
-3
390
F
  0
LAYER
  5
1FE
100
AcDbSymbolTableRecord
100
AcDbLayerTableRecord
  2
01_1_DEFAULT_DATUMS
 70
0
 62
7
  6
CONTINUOUS
370
-3
390
F
  0
LAYER
  5
1FF
100
AcDbSymbolTableRecord
100
AcDbLayerTableRecord
  2
01_PLANES
 70
0
 62
7
  6
CONTINUOUS
370
-3
390
F
  0
LAYER
  5
200
100
AcDbSymbolTableRecord
100
AcDbLayerTableRecord
  2
02_COORD_SYS
 70
0
 62
7
  6
CONTINUOUS
370
-3
390
F
  0
LAYER
  5
201
100
AcDbSymbolTableRecord
100
AcDbLayerTableRecord
  2
03_AXES
 70
0
 62
7
  6
CONTINUOUS
370
-3
390
F
  0
LAYER
  5
202
100
AcDbSymbolTableRecord
100
AcDbLayerTableRecord
  2
04_POINTS
 70
0
 62
7
  6
CONTINUOUS
370
-3
390
F
  0
LAYER
  5
203
100
AcDbSymbolTableRecord
100
AcDbLayerTableRecord
  2
05_CURVES
 70
0
 62
7
  6
CONTINUOUS
370
-3
390
F
  0
LAYER
  5
204
100
AcDbSymbolTableRecord
100
AcDbLayerTableRecord
  2
06_SURFS
 70
0
 62
7
  6
CONTINUOUS
370
-3
390
F
  0
LAYER
  5
205
100
AcDbSymbolTableRecord
100
AcDbLayerTableRecord
  2
07_COSMETICS
 70
0
 62
7
  6
CONTINUOUS
370
-3
390
F
  0
LAYER
  5
206
100
AcDbSymbolTableRecord
100
AcDbLayerTableRecord
  2
10_NOTES
 70
0
 62
7
  6
CONTINUOUS
370
-3
390
F
  0
LAYER
  5
207
100
AcDbSymbolTableRecord
100
AcDbLayerTableRecord
  2
11_NOTES_PUB
 70
0
 62
7
  6
CONTINUOUS
370
-3
390
F
  0
LAYER
  5
208
100
AcDbSymbolTableRecord
100
AcDbLayerTableRecord
  2
13_REF_GTOL
 70
0
 62
7
  6
CONTINUOUS
370
-3
390
F
  0
LAYER
  5
209
100
AcDbSymbolTableRecord
100
AcDbLayerTableRecord
  2
16_MISC
 70
0
 62
7
  6
CONTINUOUS
370
-3
390
F
  0
LAYER
  5
20A
100
AcDbSymbolTableRecord
100
AcDbLayerTableRecord
  2
17_NO_PRINT
 70
0
 62
7
  6
CONTINUOUS
370
-3
390
F
  0
LAYER
  5
20B
100
AcDbSymbolTableRecord
100
AcDbLayerTableRecord
  2
18_DATUM_CAMS_JOINTS
 70
0
 62
7
  6
CONTINUOUS
370
-3
390
F
  0
LAYER
  5
20C
100
AcDbSymbolTableRecord
100
AcDbLayerTableRecord
  2
19_DATUM_FUNCTIONAL
 70
0
 62
7
  6
CONTINUOUS
370
-3
390
F
  0
LAYER
  5
20D
100
AcDbSymbolTableRecord
100
AcDbLayerTableRecord
  2
20_DATUM_KINEMATIC_SCHEME
 70
0
 62
7
  6
CONTINUOUS
370
-3
390
F
  0
ENDTAB
  0
TABLE
  2
STYLE
  5
3
100
AcDbSymbolTable
 70
1
  0
STYLE
  5
11
100
AcDbSymbolTableRecord
100
AcDbTextStyleTableRecord
  2
STANDARD
 70
0
 40
0.0
 41
1.0
 50
0.0
 71
0
 42
0.2
  3
ARIAL.TTF
  4

  0
STYLE
  5
20E
100
AcDbSymbolTableRecord
100
AcDbTextStyleTableRecord
  2
TEXTSTYLE_1
 70
0
 40
0.0
 41
0.8
 50
0.0
 71
0
 42
0.2
  3
gdt
  4

  0
ENDTAB
  0
TABLE
  2
VIEW
  5
6
100
AcDbSymbolTable
 70
0
  0
ENDTAB
  0
TABLE
  2
UCS
  5
7
100
AcDbSymbolTable
 70
0
  0
ENDTAB
  0
TABLE
  2
APPID
  5
9
100
AcDbSymbolTable
 70
1
  0
APPID
  5
20F
100
AcDbSymbolTableRecord
100
AcDbRegAppTableRecord
  2
ACAD
 70
0
  0
ENDTAB
  0
TABLE
  2
BLOCK_RECORD
  5
1
100
AcDbSymbolTable
 70
0
  0
BLOCK_RECORD
  5
210
100
AcDbSymbolTableRecord
100
AcDbBlockTableRecord
  2
*Model_Space
  0
BLOCK_RECORD
  5
211
100
AcDbSymbolTableRecord
100
AcDbBlockTableRecord
  2
*Paper_Space
  0
BLOCK_RECORD
  5
212
100
AcDbSymbolTableRecord
100
AcDbBlockTableRecord
  2
_FILLED
  0
ENDTAB
  0
TABLE
  2
DIMSTYLE
  5
A
100
AcDbSymbolTable
 70
1
100
AcDbDimStyleTable
 71
0
  0
DIMSTYLE
105
213
100
AcDbSymbolTableRecord
100
AcDbDimStyleTableRecord
  2
STANDARD
 70
0
  3

  4

 40
1.0
 41
1.6185998415
 42
1.0
 43
0.38
 44
1.0
 45
0.0
 46
0.0
 47
0.01
 48
0.01
140
2.2660397781
141
0.09
142
0.0
143
25.4
144
1.0
145
0.0
146
1.0
147
0.625
 71
1
 72
0
 73
0
 74
0
 75
0
 76
0
 77
1
 78
8
 79
2
170
0
171
1
172
0
173
0
174
0
175
0
176
0
177
0
178
0
270
2
179
2
271
2
272
2
273
2
274
2
275
0
280
0
281
0
282
0
283
1
284
8
285
0
286
0
287
3
288
0
340
11
278
46
341
212
342
212
343
212
344
212
  0
ENDTAB
  0
ENDSEC
  0
SECTION
  2
BLOCKS
  0
BLOCK
  5
20
100
AcDbEntity
  8
0
100
AcDbBlockBegin
  2
*Model_Space
 70
0
 10
0.0
 20
0.0
 30
0.0
  3
*Model_Space
  1

  0
ENDBLK
  5
21
100
AcDbEntity
  8
0
100
AcDbBlockEnd
  0
BLOCK
  5
1C
100
AcDbEntity
  8
0
100
AcDbBlockBegin
  2
*Paper_Space
 70
0
 10
0.0
 20
0.0
 30
0.0
  3
*Paper_Space
  1

  0
ENDBLK
  5
1D
100
AcDbEntity
  8
0
100
AcDbBlockEnd
  0
BLOCK
  5
214
100
AcDbEntity
  8
0
100
AcDbBlockBegin
  2
_FILLED
 70
64
 10
0.0
 20
0.0
  3
_FILLED
  1

  0
SOLID
  5
215
100
AcDbEntity
  8
0
  6
BYBLOCK
 62
0
100
AcDbTrace
 10
0.0
 20
0.0
 11
-1.0
 21
0.25
 12
-1.0
 22
-0.25
 13
-1.0
 23
-0.25
  0
ENDBLK
  5
216
100
AcDbEntity
  8
0
  6
BYBLOCK
 62
0
100
AcDbBlockEnd
  0
ENDSEC
  0
SECTION
  2
ENTITIES
  0
LINE
  5
217
100
AcDbEntity
  8
0
100
AcDbLine
 62
7
  6
BYLAYER
 10
15.8488066245
 20
112.8801912489
 11
15.8488066245
 21
105.8801912489
  0
LINE
  5
218
100
AcDbEntity
  8
0
100
AcDbLine
 62
7
  6
BYLAYER
 10
15.8793506618
 20
105.8801912489
 11
15.8793506618
 21
50.3801912489
  0
LINE
  5
219
100
AcDbEntity
  8
0
100
AcDbLine
 62
7
  6
BYLAYER
 10
15.9543506618
 20
112.8801912489
 11
15.9543506618
 21
142.3801912489
  0
LINE
  5
21A
100
AcDbEntity
  8
0
100
AcDbLine
 62
7
  6
BYLAYER
 10
16.1106126582
 20
112.8801912489
 11
16.1106126582
 21
51.4114227838
  0
LINE
  5
21B
100
AcDbEntity
  8
0
100
AcDbLine
 62
7
  6
BYLAYER
 10
16.2293506618
 20
141.0801912489
 11
16.2293506618
 21
139.8801912489
  0
LINE
  5
21C
100
AcDbEntity
  8
0
100
AcDbLine
 62
7
  6
BYLAYER
 10
16.6432826843
 20
142.3801912489
 11
16.6432826843
 21
141.3737196655
  0
LINE
  5
21D
100
AcDbEntity
  8
0
100
AcDbLine
 62
7
  6
BYLAYER
 10
17.7793506618
 20
97.3801912489
 11
17.7793506618
 21
101.3801912489
  0
LINE
  5
21E
100
AcDbEntity
  8
0
100
AcDbLine
 62
7
  6
BYLAYER
 10
18.5793506618
 20
141.7401441748
 11
18.5793506618
 21
142.0106263376
  0
LINE
  5
21F
100
AcDbEntity
  8
0
100
AcDbLine
 62
7
  6
BYLAYER
 10
19.1793506618
 20
141.7401441748
 11
19.1793506618
 21
142.0106263376
  0
LINE
  5
220
100
AcDbEntity
  8
0
100
AcDbLine
 62
7
  6
BYLAYER
 10
20.8793506618
 20
139.8801912489
 11
20.8793506618
 21
142.3801912489
  0
LINE
  5
221
100
AcDbEntity
  8
0
100
AcDbLine
 62
7
  6
BYLAYER
 10
21.9793506618
 20
101.3801912489
 11
21.9793506618
 21
101.1690456309
  0
LINE
  5
222
100
AcDbEntity
  8
0
100
AcDbLine
 62
7
  6
BYLAYER
 10
21.9793506618
 20
97.5913368669
 11
21.9793506618
 21
97.3801912489
  0
LINE
  5
223
100
AcDbEntity
  8
0
100
AcDbLine
 62
7
  6
BYLAYER
 10
24.7793506618
 20
115.1701912489
 11
24.7793506618
 21
119.1701912489
  0
LINE
  5
224
100
AcDbEntity
  8
0
100
AcDbLine
 62
7
  6
BYLAYER
 10
25.8543506618
 20
119.1701912489
 11
25.8543506618
 21
115.1701912489
  0
LINE
  5
225
100
AcDbEntity
  8
0
100
AcDbLine
 62
7
  6
BYLAYER
 10
15.8793506618
 20
50.3801912489
 11
123.8793506618
 21
50.3801912489
  0
LINE
  5
226
100
AcDbEntity
  8
0
100
AcDbLine
 62
7
  6
BYLAYER
 10
64.8793506618
 20
50.5590920386
 11
71.8793506618
 21
50.5590920386
  0
LINE
  5
227
100
AcDbEntity
  8
0
100
AcDbLine
 62
7
  6
BYLAYER
 10
71.8793506618
 20
50.585272642
 11
64.8793506618
 21
50.585272642
  0
LINE
  5
228
100
AcDbEntity
  8
0
100
AcDbLine
 62
7
  6
BYLAYER
 10
16.9105821967
 20
50.6114532454
 11
122.8481191269
 21
50.6114532454
  0
LINE
  5
229
100
AcDbEntity
  8
0
100
AcDbLine
 62
7
  6
BYLAYER
 10
38.8793506618
 20
56.3801912489
 11
22.8793506618
 21
56.3801912489
  0
LINE
  5
22A
100
AcDbEntity
  8
0
100
AcDbLine
 62
7
  6
BYLAYER
 10
35.9043506618
 20
119.1701912489
 11
35.9043506618
 21
115.1701912489
  0
LINE
  5
22B
100
AcDbEntity
  8
0
100
AcDbLine
 62
7
  6
BYLAYER
 10
36.9793506618
 20
119.1701912489
 11
36.9793506618
 21
115.1701912489
  0
LINE
  5
22C
100
AcDbEntity
  8
0
100
AcDbLine
 62
7
  6
BYLAYER
 10
22.8793506618
 20
62.3801912489
 11
38.8793506618
 21
62.3801912489
  0
LINE
  5
22D
100
AcDbEntity
  8
0
100
AcDbLine
 62
7
  6
BYLAYER
 10
39.7793506618
 20
97.3801912489
 11
39.7793506618
 21
97.5913368669
  0
LINE
  5
22E
100
AcDbEntity
  8
0
100
AcDbLine
 62
7
  6
BYLAYER
 10
39.7793506618
 20
101.1690456309
 11
39.7793506618
 21
101.3801912489
  0
LINE
  5
22F
100
AcDbEntity
  8
0
100
AcDbLine
 62
7
  6
BYLAYER
 10
40.8793506618
 20
139.8801912489
 11
40.8793506618
 21
142.3801912489
  0
LINE
  5
230
100
AcDbEntity
  8
0
100
AcDbLine
 62
7
  6
BYLAYER
 10
42.5793506618
 20
141.7401441748
 11
42.5793506618
 21
142.0106263376
  0
LINE
  5
231
100
AcDbEntity
  8
0
100
AcDbLine
 62
7
  6
BYLAYER
 10
43.1793506618
 20
141.7401441748
 11
43.1793506618
 21
142.0106263376
  0
LINE
  5
232
100
AcDbEntity
  8
0
100
AcDbLine
 62
7
  6
BYLAYER
 10
43.9793506618
 20
101.3801912489
 11
43.9793506618
 21
97.3801912489
  0
LINE
  5
233
100
AcDbEntity
  8
0
100
AcDbLine
 62
7
  6
BYLAYER
 10
45.1154186393
 20
141.3851186845
 11
45.1154186393
 21
142.3801912489
  0
LINE
  5
234
100
AcDbEntity
  8
0
100
AcDbLine
 62
7
  6
BYLAYER
 10
45.5293506618
 20
141.0801912489
 11
45.5293506618
 21
139.8801912489
  0
LINE
  5
235
100
AcDbEntity
  8
0
100
AcDbLine
 62
7
  6
BYLAYER
 10
45.8043506618
 20
112.8801912489
 11
45.8043506618
 21
142.3801912489
  0
LINE
  5
236
100
AcDbEntity
  8
0
100
AcDbLine
 62
7
  6
BYLAYER
 10
52.0793506618
 20
112.8801912489
 11
52.0793506618
 21
127.8801912489
  0
LINE
  5
237
100
AcDbEntity
  8
0
100
AcDbLine
 62
7
  6
BYLAYER
 10
57.0793506618
 20
127.9801912489
 11
57.0793506618
 21
127.7039085196
  0
LINE
  5
238
100
AcDbEntity
  8
0
100
AcDbLine
 62
7
  6
BYLAYER
 10
57.3793506618
 20
127.9801912489
 11
57.3793506618
 21
127.7039085196
  0
LINE
  5
239
100
AcDbEntity
  8
0
100
AcDbLine
 62
7
  6
BYLAYER
 10
57.3793506618
 20
118.8314421708
 11
57.3793506618
 21
120.328940327
  0
LINE
  5
23A
100
AcDbEntity
  8
0
100
AcDbLine
 62
7
  6
BYLAYER
 10
64.0793506618
 20
127.9801912489
 11
64.0793506618
 21
127.6489292525
  0
LINE
  5
23B
100
AcDbEntity
  8
0
100
AcDbLine
 62
7
  6
BYLAYER
 10
64.8793506618
 20
50.585272642
 11
64.8793506618
 21
50.5590920386
  0
LINE
  5
23C
100
AcDbEntity
  8
0
100
AcDbLine
 62
7
  6
BYLAYER
 10
15.8793506618
 20
51.1801607874
 11
16.1106126582
 21
51.4114227838
  0
LINE
  5
23D
100
AcDbEntity
  8
0
100
AcDbLine
 62
7
  6
BYLAYER
 10
16.9105821967
 20
50.6114532454
 11
16.6793202002
 21
50.3801912489
  0
LINE
  5
23E
100
AcDbEntity
  8
0
100
AcDbLine
 62
7
  6
BYLAYER
 10
66.0793506618
 20
127.9801912489
 11
66.0793506618
 21
127.7724208377
  0
LINE
  5
23F
100
AcDbEntity
  8
0
100
AcDbLine
 62
7
  6
BYLAYER
 10
71.8793506618
 20
50.5590920386
 11
71.8793506618
 21
50.585272642
  0
LINE
  5
240
100
AcDbEntity
  8
0
100
AcDbLine
 62
7
  6
BYLAYER
 10
123.0793811233
 20
50.3801912489
 11
122.8481191269
 21
50.6114532454
  0
LINE
  5
241
100
AcDbEntity
  8
0
100
AcDbLine
 62
7
  6
BYLAYER
 10
15.8793506618
 20
105.8801912489
 11
15.8488066245
 21
105.8801912489
  0
LINE
  5
242
100
AcDbEntity
  8
0
100
AcDbLine
 62
7
  6
BYLAYER
 10
123.6480886653
 20
51.4114227838
 11
123.8793506618
 21
51.1801607874
  0
LINE
  5
243
100
AcDbEntity
  8
0
100
AcDbLine
 62
7
  6
BYLAYER
 10
122.991972955
 20
122.3084615726
 11
123.2236989095
 21
122.5011376087
  0
LINE
  5
244
100
AcDbEntity
  8
0
100
AcDbLine
 62
7
  6
BYLAYER
 10
123.8793506618
 20
121.7142914047
 11
123.6480886653
 21
121.5215304118
  0
LINE
  5
245
100
AcDbEntity
  8
0
100
AcDbLine
 62
7
  6
BYLAYER
 10
15.8488066245
 20
112.8801912489
 11
52.0793506618
 21
112.8801912489
  0
LINE
  5
246
100
AcDbEntity
  8
0
100
AcDbLine
 62
7
  6
BYLAYER
 10
24.7793506618
 20
115.1701912489
 11
36.9793506618
 21
115.1701912489
  0
LINE
  5
247
100
AcDbEntity
  8
0
100
AcDbLine
 62
7
  6
BYLAYER
 10
25.8543506618
 20
116.0101912489
 11
35.9043506618
 21
116.0101912489
  0
LINE
  5
248
100
AcDbEntity
  8
0
100
AcDbLine
 62
7
  6
BYLAYER
 10
35.9043506618
 20
118.1501912489
 11
25.8543506618
 21
118.1501912489
  0
LINE
  5
249
100
AcDbEntity
  8
0
100
AcDbLine
 62
7
  6
BYLAYER
 10
36.9793506618
 20
119.1701912489
 11
24.7793506618
 21
119.1701912489
  0
LINE
  5
24A
100
AcDbEntity
  8
0
100
AcDbLine
 62
7
  6
BYLAYER
 10
64.0793506644
 20
127.6489292525
 11
52.0793506618
 21
127.6489292525
  0
LINE
  5
24B
100
AcDbEntity
  8
0
100
AcDbLine
 62
7
  6
BYLAYER
 10
57.3793506618
 20
127.7039085196
 11
57.0793506618
 21
127.7039085196
  0
LINE
  5
24C
100
AcDbEntity
  8
0
100
AcDbLine
 62
7
  6
BYLAYER
 10
57.0793506618
 20
127.7318344965
 11
52.0793506618
 21
127.7318344965
  0
LINE
  5
24D
100
AcDbEntity
  8
0
100
AcDbLine
 62
7
  6
BYLAYER
 10
57.0793506618
 20
127.8278300422
 11
52.0793506618
 21
127.8278300422
  0
LINE
  5
24E
100
AcDbEntity
  8
0
100
AcDbLine
 62
7
  6
BYLAYER
 10
64.0793506618
 20
127.8801912489
 11
57.3793506618
 21
127.8801912489
  0
LINE
  5
24F
100
AcDbEntity
  8
0
100
AcDbLine
 62
7
  6
BYLAYER
 10
57.0793506618
 20
127.8801912489
 11
52.0793506618
 21
127.8801912489
  0
LINE
  5
250
100
AcDbEntity
  8
0
100
AcDbLine
 62
7
  6
BYLAYER
 10
66.0793506618
 20
127.9801912489
 11
64.0793506618
 21
127.9801912489
  0
LINE
  5
251
100
AcDbEntity
  8
0
100
AcDbLine
 62
7
  6
BYLAYER
 10
57.3793506618
 20
127.9801912489
 11
57.0793506618
 21
127.9801912489
  0
LINE
  5
252
100
AcDbEntity
  8
0
100
AcDbLine
 62
7
  6
BYLAYER
 10
109.8793506618
 20
81.3801912489
 11
109.8793506618
 21
97.3801912489
  0
LINE
  5
253
100
AcDbEntity
  8
0
100
AcDbLine
 62
7
  6
BYLAYER
 10
115.8793506618
 20
97.3801912489
 11
115.8793506618
 21
81.3801912489
  0
LINE
  5
254
100
AcDbEntity
  8
0
100
AcDbLine
 62
7
  6
BYLAYER
 10
15.9543506618
 20
139.8801912489
 11
20.8793506618
 21
139.8801912489
  0
LINE
  5
255
100
AcDbEntity
  8
0
100
AcDbLine
 62
7
  6
BYLAYER
 10
40.8793506618
 20
139.8801912489
 11
45.8043506618
 21
139.8801912489
  0
LINE
  5
256
100
AcDbEntity
  8
0
100
AcDbLine
 62
7
  6
BYLAYER
 10
16.2293506618
 20
141.0801912489
 11
20.8793506618
 21
141.0801912489
  0
LINE
  5
257
100
AcDbEntity
  8
0
100
AcDbLine
 62
7
  6
BYLAYER
 10
40.8793506618
 20
141.0801912489
 11
45.5293506618
 21
141.0801912489
  0
LINE
  5
258
100
AcDbEntity
  8
0
100
AcDbLine
 62
7
  6
BYLAYER
 10
16.4756035869
 20
141.2801912489
 11
16.4943978321
 21
141.2801912489
  0
LINE
  5
259
100
AcDbEntity
  8
0
100
AcDbLine
 62
7
  6
BYLAYER
 10
45.2643034915
 20
141.2801912489
 11
45.2830977366
 21
141.2801912489
  0
LINE
  5
25A
100
AcDbEntity
  8
0
100
AcDbLine
 62
7
  6
BYLAYER
 10
43.5599718664
 20
142.0106263376
 11
43.1793506618
 21
142.0106263376
  0
LINE
  5
25B
100
AcDbEntity
  8
0
100
AcDbLine
 62
7
  6
BYLAYER
 10
42.5793506618
 20
142.0106263376
 11
42.1987294571
 21
142.0106263376
  0
LINE
  5
25C
100
AcDbEntity
  8
0
100
AcDbLine
 62
7
  6
BYLAYER
 10
19.5599718664
 20
142.0106263376
 11
19.1793506618
 21
142.0106263376
  0
LINE
  5
25D
100
AcDbEntity
  8
0
100
AcDbLine
 62
7
  6
BYLAYER
 10
18.5793506618
 20
142.0106263376
 11
18.1987294571
 21
142.0106263376
  0
LINE
  5
25E
100
AcDbEntity
  8
0
100
AcDbLine
 62
7
  6
BYLAYER
 10
15.9543506618
 20
142.3801912489
 11
45.8043506618
 21
142.3801912489
  0
LINE
  5
25F
100
AcDbEntity
  8
0
100
AcDbLine
 62
7
  6
BYLAYER
 10
123.6480886653
 20
51.4114227838
 11
123.6480886653
 21
121.5215304118
  0
LINE
  5
260
100
AcDbEntity
  8
0
100
AcDbLine
 62
7
  6
BYLAYER
 10
123.8793506618
 20
50.3801912489
 11
123.8793506618
 21
122.3801912489
  0
ARC
  5
261
100
AcDbEntity
  8
0
100
AcDbCircle
 62
7
  6
BYLAYER
 10
64.0793506618
 20
-199.9643542056
 40
327.8445454545
100
AcDbArc
 50
79.4902103866
 51
89.6513109761
  0
ARC
  5
262
100
AcDbEntity
  8
0
100
AcDbCircle
 62
7
  6
BYLAYER
 10
64.0793506618
 20
-199.9643542056
 40
327.7428774448
100
AcDbArc
 50
89.6503592355
 51
90.0
  0
ARC
  5
263
100
AcDbEntity
  8
0
100
AcDbCircle
 62
7
  6
BYLAYER
 10
64.0793506618
 20
-199.9643542056
 40
327.6132834581
100
AcDbArc
 50
79.6405109336
 51
89.9999999995
  0
ARC
  5
264
100
AcDbEntity
  8
0
100
AcDbCircle
 62
7
  6
BYLAYER
 10
18.8793506618
 20
135.4339673286
 40
6.3133086742
100
AcDbArc
 50
87.2763553813
 51
92.7236446187
  0
ARC
  5
265
100
AcDbEntity
  8
0
100
AcDbCircle
 62
7
  6
BYLAYER
 10
42.8793506618
 20
135.4339673286
 40
6.3133086742
100
AcDbArc
 50
87.2763553813
 51
92.7236446187
  0
ARC
  5
266
100
AcDbEntity
  8
0
100
AcDbCircle
 62
7
  6
BYLAYER
 10
18.8793506618
 20
138.0689412489
 40
4.01125
100
AcDbArc
 50
126.8163000685
 51
131.3488495217
  0
ARC
  5
267
100
AcDbEntity
  8
0
100
AcDbCircle
 62
7
  6
BYLAYER
 10
42.8793506618
 20
138.0689412489
 40
4.01125
100
AcDbArc
 50
48.6512878573
 51
53.1836999319
  0
ARC
  5
268
100
AcDbEntity
  8
0
100
AcDbCircle
 62
7
  6
BYLAYER
 10
18.8793506618
 20
138.0689412489
 40
4.0000158203
100
AcDbArc
 50
60.0888255255
 51
80.2031904149
  0
ARC
  5
269
100
AcDbEntity
  8
0
100
AcDbCircle
 62
7
  6
BYLAYER
 10
18.8793506618
 20
138.0689412489
 40
4.0000158203
100
AcDbArc
 50
99.7968095851
 51
126.6007832227
  0
ARC
  5
26A
100
AcDbEntity
  8
0
100
AcDbCircle
 62
7
  6
BYLAYER
 10
42.8793506618
 20
138.0689412489
 40
4.0000158203
100
AcDbArc
 50
53.3992167773
 51
80.2031904149
  0
ARC
  5
26B
100
AcDbEntity
  8
0
100
AcDbCircle
 62
7
  6
BYLAYER
 10
42.8793506618
 20
138.0689412489
 40
4.0000158203
100
AcDbArc
 50
99.7968095851
 51
119.9111754766
  0
ARC
  5
26C
100
AcDbEntity
  8
0
100
AcDbCircle
 62
7
  6
BYLAYER
 10
112.8793506618
 20
97.3801912489
 40
3.0
100
AcDbArc
 50
0.0
 51
180.0
  0
ARC
  5
26D
100
AcDbEntity
  8
0
100
AcDbCircle
 62
7
  6
BYLAYER
 10
112.8793506618
 20
81.3801912489
 40
3.0
100
AcDbArc
 50
180.0
 51
360.0
  0
ARC
  5
26E
100
AcDbEntity
  8
0
100
AcDbCircle
 62
7
  6
BYLAYER
 10
38.8793506618
 20
59.3801912489
 40
3.0
100
AcDbArc
 50
270.0
 51
90.0
  0
ARC
  5
26F
100
AcDbEntity
  8
0
100
AcDbCircle
 62
7
  6
BYLAYER
 10
22.8793506618
 20
59.3801912489
 40
3.0
100
AcDbArc
 50
90.0
 51
270.0
  0
ARC
  5
270
100
AcDbEntity
  8
0
100
AcDbCircle
 62
7
  6
BYLAYER
 10
40.8793506618
 20
99.3801912489
 40
2.1
100
AcDbArc
 50
121.5881355052
 51
238.4118644948
  0
ARC
  5
271
100
AcDbEntity
  8
0
100
AcDbCircle
 62
7
  6
BYLAYER
 10
41.8793506618
 20
97.3801912489
 40
2.1
100
AcDbArc
 50
180.0
 51
360.0
  0
ARC
  5
272
100
AcDbEntity
  8
0
100
AcDbCircle
 62
7
  6
BYLAYER
 10
41.8793506618
 20
101.3801912489
 40
2.1
100
AcDbArc
 50
0.0
 51
180.0
  0
ARC
  5
273
100
AcDbEntity
  8
0
100
AcDbCircle
 62
7
  6
BYLAYER
 10
20.8793506618
 20
99.3801912489
 40
2.1
100
AcDbArc
 50
301.5881355052
 51
58.4118644948
  0
ARC
  5
274
100
AcDbEntity
  8
0
100
AcDbCircle
 62
7
  6
BYLAYER
 10
19.8793506618
 20
101.3801912489
 40
2.1
100
AcDbArc
 50
0.0
 51
180.0
  0
ARC
  5
275
100
AcDbEntity
  8
0
100
AcDbCircle
 62
7
  6
BYLAYER
 10
19.8793506618
 20
97.3801912489
 40
2.1
100
AcDbArc
 50
180.0
 51
360.0
  0
ARC
  5
276
100
AcDbEntity
  8
0
100
AcDbCircle
 62
7
  6
BYLAYER
 10
122.8481283203
 20
121.521538077
 40
0.7999603451
100
AcDbArc
 50
359.9994509931
 51
79.6410599573
  0
ARC
  5
277
100
AcDbEntity
  8
0
100
AcDbCircle
 62
7
  6
BYLAYER
 10
123.0801994486
 20
121.7196905636
 40
0.7945113545
100
AcDbArc
 50
74.1117196567
 51
79.5945320319
  0
CIRCLE
  5
278
100
AcDbEntity
  8
0
100
AcDbCircle
 62
7
  6
BYLAYER
 10
57.3793506618
 20
119.5801912489
 40
0.75
  0
SPLINE
  5
279
100
AcDbEntity
  8
0
100
AcDbSpline
 62
7
  6
BYLAYER
 70
0
 71
3
 72
9
 73
5
 74
0
 42
0.0000001
 43
0.0000001
 44
0.0000000001
 40
0.0
 40
0.0
 40
0.0
 40
0.0
 40
0.5003285675
 40
1.0
 40
1.0
 40
1.0
 40
1.0
 10
123.297706857
 20
122.4838494605
 30
0.0
 10
123.3743687202
 20
122.462041725
 30
0.0
 10
123.5219798909
 20
122.3952829983
 30
0.0
 10
123.6429930068
 20
122.2875420677
 30
0.0
 10
123.693948434
 20
122.2263907239
 30
0.0
  0
SPLINE
  5
27A
100
AcDbEntity
  8
0
100
AcDbSpline
 62
7
  6
BYLAYER
 70
0
 71
3
 72
9
 73
5
 74
0
 42
0.0000001
 43
0.0000001
 44
0.0000000001
 40
0.0
 40
0.0
 40
0.0
 40
0.0
 40
0.4999718467
 40
1.0
 40
1.0
 40
1.0
 40
1.0
 10
123.693948434
 20
122.2263907239
 30
0.0
 10
123.7529402574
 20
122.1555949427
 30
0.0
 10
123.8469915659
 20
121.9921942395
 30
0.0
 10
123.8793511524
 20
121.8064542536
 30
0.0
 10
123.8793506618
 20
121.7142914047
 30
0.0
  0
SPLINE
  5
27B
100
AcDbEntity
  8
0
100
AcDbSpline
 62
7
  6
BYLAYER
 70
0
 71
3
 72
27
 73
23
 74
0
 42
0.0000001
 43
0.0000001
 44
0.0000000001
 40
0.0
 40
0.0
 40
0.0
 40
0.0
 40
0.0003701297
 40
0.0013004058
 40
0.002822393
 40
0.0049399479
 40
0.0109614161
 40
0.019357797
 40
0.0301172972
 40
0.0432162669
 40
0.0586168163
 40
0.076279959
 40
0.1182352608
 40
0.1686849426
 40
0.2271298483
 40
0.2930250629
 40
0.3657212107
 40
0.4445359531
 40
0.5286910265
 40
0.617370967
 40
0.8049588254
 40
1.0
 40
1.0
 40
1.0
 40
1.0
 10
62.8793678566
 20
127.7798322693
 30
0.0
 10
62.8793678566
 20
127.7791535885
 30
0.0
 10
62.8762965588
 20
127.7782089433
 30
0.0
 10
62.8719389846
 20
127.7772457368
 30
0.0
 10
62.8632354726
 20
127.7761109466
 30
0.0
 10
62.845839021
 20
127.7744165643
 30
0.0
 10
62.815403035
 20
127.7724282697
 30
0.0
 10
62.7693762364
 20
127.7701874268
 30
0.0
 10
62.7102412153
 20
127.7679456617
 30
0.0
 10
62.6383009453
 20
127.7657135999
 30
0.0
 10
62.5536802064
 20
127.7635051611
 30
0.0
 10
62.4161591554
 20
127.7604241053
 30
0.0
 10
62.2143655957
 20
127.756800407
 30
0.0
 10
61.9377911654
 20
127.7528420488
 30
0.0
 10
61.6173125334
 20
127.7491201274
 30
0.0
 10
61.2560372166
 20
127.7456787407
 30
0.0
 10
60.8574070118
 20
127.742551841
 30
0.0
 10
60.4252916898
 20
127.7397767462
 30
0.0
 10
59.9638653485
 20
127.73737782
 30
0.0
 10
59.3029887121
 20
127.7346662409
 30
0.0
 10
58.4387849341
 20
127.7324276759
 30
0.0
 10
57.7371848344
 20
127.7318344965
 30
0.0
 10
57.3795515403
 20
127.7318344965
 30
0.0
  0
SPLINE
  5
27C
100
AcDbEntity
  8
0
100
AcDbSpline
 62
7
  6
BYLAYER
 70
0
 71
3
 72
51
 73
47
 74
0
 42
0.0000001
 43
0.0000001
 44
0.0000000001
 40
0.0
 40
0.0
 40
0.0
 40
0.0
 40
0.0001849709
 40
0.0006497613
 40
0.0014102924
 40
0.0024686107
 40
0.0038249349
 40
0.005478972
 40
0.0096780961
 40
0.0150592513
 40
0.0216075519
 40
0.0293060893
 40
0.0381378587
 40
0.0480839319
 40
0.0591181636
 40
0.0843395281
 40
0.1135658444
 40
0.1465102667
 40
0.1828618124
 40
0.2222651488
 40
0.2643453968
 40
0.3086931797
 40
0.4024725845
 40
0.4999993169
 40
0.5975256901
 40
0.6913041565
 40
0.7356514926
 40
0.7777313719
 40
0.8171346417
 40
0.853486316
 40
0.8864311426
 40
0.9156580182
 40
0.9408799993
 40
0.9519146068
 40
0.9618609217
 40
0.9706928931
 40
0.9783917111
 40
0.9849402796
 40
0.9903215988
 40
0.9945208166
 40
0.9961749048
 40
0.9975312785
 40
0.9985896411
 40
0.9993502079
 40
0.9998150218
 40
1.0
 40
1.0
 40
1.0
 40
1.0
 10
66.3793301736
 20
50.4892789176
 30
0.0
 10
66.3793301736
 20
50.4904506265
 30
0.0
 10
66.3740314014
 20
50.4920851047
 30
0.0
 10
66.3665081736
 20
50.4937478974
 30
0.0
 10
66.3514788191
 20
50.4957088186
 30
0.0
 10
66.3317580485
 20
50.4976365922
 30
0.0
 10
66.3059440933
 20
50.4996237505
 30
0.0
 10
66.2604200694
 20
50.5024998723
 30
0.0
 10
66.1892995118
 20
50.5059335978
 30
0.0
 10
66.0872207143
 20
50.5098110318
 30
0.0
 10
65.9629392951
 20
50.5136641138
 30
0.0
 10
65.8167978944
 20
50.517479339
 30
0.0
 10
65.6491229294
 20
50.5212379141
 30
0.0
 10
65.4603126905
 20
50.5249275235
 30
0.0
 10
65.1676887075
 20
50.5299685794
 30
0.0
 10
64.7529313911
 20
50.5358983075
 30
0.0
 10
64.1993779918
 20
50.5423262076
 30
0.0
 10
63.5753109108
 20
50.5482729737
 30
0.0
 10
62.8867698514
 20
50.5536708869
 30
0.0
 10
62.1403516859
 20
50.5584675201
 30
0.0
 10
61.3432762795
 20
50.5626090099
 30
0.0
 10
60.2017514069
 20
50.5672925923
 30
0.0
 10
58.7089922318
 20
50.5711592455
 30
0.0
 10
56.8793659938
 20
50.5727038941
 30
0.0
 10
55.0497456997
 20
50.5711593028
 30
0.0
 10
53.5569975751
 20
50.56729273
 30
0.0
 10
52.4154838127
 20
50.5626092919
 30
0.0
 10
51.6184139937
 20
50.5584678839
 30
0.0
 10
50.8719977707
 20
50.5536713606
 30
0.0
 10
50.1834537558
 20
50.548273526
 30
0.0
 10
49.5593797558
 20
50.5423267964
 30
0.0
 10
49.0058163453
 20
50.5358989148
 30
0.0
 10
48.5910492005
 20
50.529969098
 30
0.0
 10
48.2984173986
 20
50.5249280854
 30
0.0
 10
48.1096019677
 20
50.5212384354
 30
0.0
 10
47.941922415
 20
50.5174797836
 30
0.0
 10
47.7957762595
 20
50.5136645177
 30
0.0
 10
47.6714903261
 20
50.5098113917
 30
0.0
 10
47.5694082014
 20
50.5059338592
 30
0.0
 10
47.4982856883
 20
50.5025000031
 30
0.0
 10
47.4527604389
 20
50.499623833
 30
0.0
 10
47.4269455545
 20
50.4976366494
 30
0.0
 10
47.4072239942
 20
50.4957088359
 30
0.0
 10
47.392193904
 20
50.4937479343
 30
0.0
 10
47.3846703916
 20
50.4920850713
 30
0.0
 10
47.3793712546
 20
50.4904506726
 30
0.0
 10
47.3793712546
 20
50.4892789176
 30
0.0
  0
SPLINE
  5
27D
100
AcDbEntity
  8
0
100
AcDbSpline
 62
7
  6
BYLAYER
 70
0
 71
3
 72
27
 73
23
 74
0
 42
0.0000001
 43
0.0000001
 44
0.0000000001
 40
0.0
 40
0.0
 40
0.0
 40
0.0
 40
0.1950411746
 40
0.382629033
 40
0.4713089735
 40
0.5554640469
 40
0.6342787893
 40
0.7069749371
 40
0.7728701517
 40
0.8313150574
 40
0.8817647392
 40
0.923720041
 40
0.9413831837
 40
0.9567837331
 40
0.9698827028
 40
0.980642203
 40
0.9890385839
 40
0.9950600521
 40
0.997177607
 40
0.9986995942
 40
0.9996298703
 40
1.0
 40
1.0
 40
1.0
 40
1.0
 10
57.3795515403
 20
127.8278300422
 30
0.0
 10
57.7371848344
 20
127.8278300422
 30
0.0
 10
58.4387849341
 20
127.8272368627
 30
0.0
 10
59.3029887121
 20
127.8249982978
 30
0.0
 10
59.9638653485
 20
127.8222867186
 30
0.0
 10
60.4252916898
 20
127.8198877925
 30
0.0
 10
60.8574070118
 20
127.8171126977
 30
0.0
 10
61.2560372166
 20
127.813985798
 30
0.0
 10
61.6173125334
 20
127.8105444112
 30
0.0
 10
61.9377911654
 20
127.8068224899
 30
0.0
 10
62.2143655957
 20
127.8028641317
 30
0.0
 10
62.4161591554
 20
127.7992404334
 30
0.0
 10
62.5536802064
 20
127.7961593776
 30
0.0
 10
62.6383009453
 20
127.7939509388
 30
0.0
 10
62.7102412153
 20
127.791718877
 30
0.0
 10
62.7693762364
 20
127.7894771119
 30
0.0
 10
62.815403035
 20
127.7872362689
 30
0.0
 10
62.845839021
 20
127.7852479743
 30
0.0
 10
62.8632354726
 20
127.7835535921
 30
0.0
 10
62.8719389846
 20
127.7824188019
 30
0.0
 10
62.8762965588
 20
127.7814555953
 30
0.0
 10
62.8793678566
 20
127.7805109501
 30
0.0
 10
62.8793678566
 20
127.7798322693
 30
0.0
  0
SPLINE
  5
27E
100
AcDbEntity
  8
0
100
AcDbSpline
 62
7
  6
BYLAYER
 70
0
 71
3
 72
51
 73
47
 74
0
 42
0.0000001
 43
0.0000001
 44
0.0000000001
 40
0.0
 40
0.0
 40
0.0
 40
0.0
 40
0.0001848895
 40
0.0006494071
 40
0.0014095198
 40
0.0024673135
 40
0.0038230447
 40
0.0054764579
 40
0.0096743912
 40
0.0150546193
 40
0.0216022412
 40
0.0293002672
 40
0.0381316114
 40
0.0480772858
 40
0.0591111514
 40
0.084331958
 40
0.1135580486
 40
0.1465025533
 40
0.1828544355
 40
0.2222583427
 40
0.2643393787
 40
0.3086881359
 40
0.4024699049
 40
0.4999993128
 40
0.5975283612
 40
0.6913091916
 40
0.7356575017
 40
0.7777381686
 40
0.8171420092
 40
0.85349402
 40
0.8864389288
 40
0.915665577
 40
0.940887001
 40
0.9519212438
 40
0.9618671616
 40
0.9706987082
 40
0.9783970125
 40
0.9849448986
 40
0.9903252873
 40
0.9945233153
 40
0.9961767823
 40
0.9975325662
 40
0.9985904077
 40
0.9993505592
 40
0.9998151025
 40
1.0
 40
1.0
 40
1.0
 40
1.0
 10
47.3793712546
 20
50.4892789176
 30
0.0
 10
47.3793712546
 20
50.4881077244
 30
0.0
 10
47.3846657243
 20
50.4864721906
 30
0.0
 10
47.3921856683
 20
50.4848100621
 30
0.0
 10
47.4072063223
 20
50.4828486362
 30
0.0
 10
47.4269176992
 20
50.4809209859
 30
0.0
 10
47.4527204488
 20
50.4789336852
 30
0.0
 10
47.4982292427
 20
50.4760573982
 30
0.0
 10
47.5693323794
 20
50.4726234766
 30
0.0
 10
47.6713934699
 20
50.4687459976
 30
0.0
 10
47.7956614763
 20
50.4648928203
 30
0.0
 10
47.9417926534
 20
50.4610774815
 30
0.0
 10
48.1094591691
 20
50.4573187719
 30
0.0
 10
48.298261882
 20
50.4536290077
 30
0.0
 10
48.5908775061
 20
50.4485877131
 30
0.0
 10
49.0056275727
 20
50.4426576998
 30
0.0
 10
49.5591765777
 20
50.4362295133
 30
0.0
 10
50.1832449372
 20
50.430282467
 30
0.0
 10
50.8717923273
 20
50.4248842857
 30
0.0
 10
51.6182212981
 20
50.4200874069
 30
0.0
 10
52.4153115549
 20
50.4159457005
 30
0.0
 10
53.5568626698
 20
50.4112618633
 30
0.0
 10
55.0496600761
 20
50.4073950018
 30
0.0
 10
56.8793353519
 20
50.4058502701
 30
0.0
 10
58.7090046816
 20
50.4073949446
 30
0.0
 10
60.2017910332
 20
50.4112617257
 30
0.0
 10
61.3433310325
 20
50.4159454186
 30
0.0
 10
62.1404156978
 20
50.4200870433
 30
0.0
 10
62.8868427236
 20
50.4248838121
 30
0.0
 10
63.575393067
 20
50.4302819148
 30
0.0
 10
64.1994683335
 20
50.4362289245
 30
0.0
 10
64.753027342
 20
50.4426570929
 30
0.0
 10
65.1677872407
 20
50.4485871949
 30
0.0
 10
65.4604107089
 20
50.453628446
 30
0.0
 10
65.6492186364
 20
50.4573182505
 30
0.0
 10
65.8168897385
 20
50.4610770362
 30
0.0
 10
65.9630256346
 20
50.4648924161
 30
0.0
 10
66.0872980952
 20
50.4687456373
 30
0.0
 10
66.189362474
 20
50.4726232168
 30
0.0
 10
66.2604675671
 20
50.4760572698
 30
0.0
 10
66.3059776302
 20
50.4789336037
 30
0.0
 10
66.3317813698
 20
50.4809209291
 30
0.0
 10
66.3514935965
 20
50.482848621
 30
0.0
 10
66.3665150497
 20
50.4848100234
 30
0.0
 10
66.3740353035
 20
50.4864722282
 30
0.0
 10
66.3793301736
 20
50.4881076738
 30
0.0
 10
66.3793301736
 20
50.4892789176
 30
0.0
  0
ELLIPSE
  5
27F
100
AcDbEntity
  8
0
100
AcDbEllipse
 62
7
  6
BYLAYER
 10
16.6793811245
 20
51.1802217116
 30
0.0
 11
0.5657285049
 21
0.5657285049
 31
0.0
 40
0.9999238505
 41
2.3562325664
 42
3.9269527408
  0
ELLIPSE
  5
280
100
AcDbEntity
  8
0
100
AcDbEllipse
 62
7
  6
BYLAYER
 10
123.0793201991
 20
51.1802217116
 30
0.0
 11
-0.5657285049
 21
0.5657285049
 31
0.0
 40
0.9999238505
 41
-3.9269527408
 42
-2.3562325664
  0
ELLIPSE
  5
281
100
AcDbEntity
  8
0
100
AcDbEllipse
 62
7
  6
BYLAYER
 10
122.8480582026
 20
51.4114837081
 30
0.0
 11
-0.5657285049
 21
0.5657285049
 31
0.0
 40
0.9999238505
 41
-3.9269527408
 42
-2.3562325664
  0
ELLIPSE
  5
282
100
AcDbEntity
  8
0
100
AcDbEllipse
 62
7
  6
BYLAYER
 10
16.9106431209
 20
51.4114837081
 30
0.0
 11
0.5657285049
 21
0.5657285049
 31
0.0
 40
0.9999238505
 41
2.3562325664
 42
3.9269527408
  0
ENDSEC
  0
SECTION
  2
OBJECTS
  0
DICTIONARY
  5
C
100
AcDbDictionary
280
0
281
1
  3
ACAD_GROUP
350
D
  3
ACAD_MLINESTYLE
350
17
  3
ACAD_LAYOUT
350
1A
  3
ACAD_PLOTSETTINGS
350
19
  3
ACAD_PLOTSTYLENAME
350
E
  0
DICTIONARY
  5
D
102
{ACAD_REACTORS
330
C
102
}
100
AcDbDictionary
280
0
281
1
  0
ACDBDICTIONARYWDFLT
  5
E
102
{ACAD_REACTORS
330
C
102
}
100
AcDbDictionary
281
1
  3
Normal
350
F
100
AcDbDictionaryWithDefault
340
F
  0
DICTIONARY
  5
17
102
{ACAD_REACTORS
330
C
102
}
100
AcDbDictionary
280
0
281
1
  3
Standard
350
18
  0
DICTIONARY
  5
19
102
{ACAD_REACTORS
330
C
102
}
100
AcDbDictionary
281
1
  0
DICTIONARY
  5
1A
102
{ACAD_REACTORS
330
C
102
}
100
AcDbDictionary
281
1
  3
Model
350
283
  3
Layout1
350
284
  0
ACDBPLACEHOLDER
  5
F
102
{ACAD_REACTORS
330
E
102
}
  0
MLINESTYLE
  5
18
102
{ACAD_REACTORS
330
17
102
}
100
AcDbMlineStyle
  2
STANDARD
 70
0
  3

 62
256
 51
90.0
 52
90.0
 71
2
 49
0.5
 62
256
  6
BYLAYER
 49
-0.5
 62
256
  6
BYLAYER
  0
LAYOUT
  5
283
102
{ACAD_REACTORS
330
1A
102
}
100
AcDbPlotSettings
  1

  2
none_device
  4

  6

 40
0.0
 41
0.0
 42
0.0
 43
0.0
 44
210.0
 45
297.0
 46
0.0
 47
0.0
 48
0.0
 49
0.0
140
0.0
141
0.0
142
1.0
143
1.0
 70
1024
 72
1
 73
0
 74
0
  7

 75
0
147
1.0
148
0.0
149
0.0
100
AcDbLayout
  1
Model
 70
0
 71
0
 10
0.0
 20
0.0
 11
210.0
 21
297.0
 12
0.0
 22
0.0
 32
0.0
 14
0.0
 24
0.0
 34
0.0
 15
0.0
 25
0.0
 35
0.0
146
0.0
 13
0.0
 23
0.0
 33
0.0
 16
1.0
 26
0.0
 36
0.0
 17
0.0
 27
1.0
 37
0.0
 76
0
330
210
345
0
346
0
  0
LAYOUT
  5
284
102
{ACAD_REACTORS
330
1A
102
}
100
AcDbPlotSettings
  1

  2
none_device
  4

  6

 40
0.0
 41
0.0
 42
0.0
 43
0.0
 44
210.0
 45
297.0
 46
0.0
 47
0.0
 48
0.0
 49
0.0
140
0.0
141
0.0
142
1.0
143
1.0
 70
0
 72
1
 73
0
 74
0
  7

 75
0
147
1.0
148
0.0
149
0.0
100
AcDbLayout
  1
Layout1
 70
0
 71
1
 10
0.0
 20
0.0
 11
210.0
 21
297.0
 12
0.0
 22
0.0
 32
0.0
 14
0.0
 24
0.0
 34
0.0
 15
0.0
 25
0.0
 35
0.0
146
0.0
 13
0.0
 23
0.0
 33
0.0
 16
1.0
 26
0.0
 36
0.0
 17
0.0
 27
1.0
 37
0.0
 76
0
330
211
345
0
346
0
  0
ENDSEC
  0
EOF
