999
DXF file: C:\Users\sesa63760\Dev\_Creo\CAD\MCADID0004772_3D-CAD\drw0001_3.dxf
999
Pro/ENGINEER 2019471 by Parametric Technology Corporation
  0
SECTION
  2
HEADER
  9
$ACADVER
  1
AC1024
  9
$DWGCODEPAGE
  3
ANSI_1252
  9
$EXTMAX
 10
131.0237886107
 20
185.3050724638
 30
0.0
  9
$EXTMIN
 10
0.0
 20
0.0
 30
0.0
  9
$LIMMIN
 10
0.0
 20
0.0
  9
$LIMMAX
 10
131.0237886107
 20
185.3050724638
  9
$VIEWCTR
 10
65.5118943054
 20
92.6525362319
  9
$VIEWSIZE
 40
185.3050724638
  9
$CLAYER
  8
0
  9
$LTSCALE
 40
12.0791454643
  9
$CELTYPE
  6
BYLAYER
  9
$DIMSCALE
 40
1.0
  9
$DIMASZ
 40
1.5598070073
  9
$DIMEXO
 40
1.0
  9
$DIMDLI
 40
8.3455914117
  9
$DIMEXE
 40
1.0
  9
$DIMCEN
 40
1.9765874396
  9
$DIMLFAC
 40
1.0
  9
$DIMBLK
  1
_FILLED
  9
$DIMALT
 70
0
  9
$DIMALTF
 40
0.0393700787
  9
$DIMTXT
 40
2.1837298102
  9
$DIMTOL
 70
1
  9
$DIMLIM
 70
0
  9
$DIMTFAC
 40
1.0
  9
$DIMTP
 40
0.01
  9
$DIMTM
 40
0.01
  9
$DIMGAP
 40
0.625
  9
$DIMDSEP
 70
46
  9
$AUNITS
 70
0
  9
$PDMODE
 70
3
  9
$PDSIZE
 40
0.3125
  9
$HANDSEED
  5
28A
  9
$TILEMODE
 70
1
  9
$MEASUREMENT
 70
1
  9
$INSUNITS
 70
4
  0
ENDSEC
  0
SECTION
  2
CLASSES
  0
CLASS
  1
ACDBDICTIONARYWDFLT
  2
AcDbDictionaryWithDefault
  3
AutoCAD 2000
 90
0
 91
1
280
0
281
0
  0
CLASS
  1
ACDBPLACEHOLDER
  2
AcDbPlaceHolder
  3
AutoCAD 2000
 90
0
 91
1
280
0
281
0
  0
CLASS
  1
LAYOUT
  2
AcDbLayout
  3
AutoCAD 2000
 90
0
 91
0
280
0
281
0
  0
ENDSEC
  0
SECTION
  2
TABLES
  0
TABLE
  2
VPORT
  5
8
100
AcDbSymbolTable
 70
2
  0
VPORT
  5
1F4
100
AcDbSymbolTableRecord
100
AcDbViewportTableRecord
  2
*ACTIVE
 70
0
 10
0.0
 20
0.0
 11
1.0
 21
1.0
 12
65.5118943054
 22
92.6525362319
 13
0.0
 23
0.0
 14
1.0
 24
1.0
 15
0.0
 25
0.0
 16
0.0
 26
0.0
 36
1.0
 17
0.0
 27
0.0
 37
0.0
 40
185.3050724638
 41
0.7070707071
 42
50.0
 43
0.0
 44
0.0
 50
0.0
 51
0.0
 71
0
 72
100
 73
1
 74
1
 75
0
 76
0
 77
0
 78
0
  0
ENDTAB
  0
TABLE
  2
LTYPE
  5
5
100
AcDbSymbolTable
 70
6
  0
LTYPE
  5
14
100
AcDbSymbolTableRecord
100
AcDbLinetypeTableRecord
  2
BYBLOCK
 70
0
  3

 72
65
 73
0
 40
0.0
  0
LTYPE
  5
15
100
AcDbSymbolTableRecord
100
AcDbLinetypeTableRecord
  2
BYLAYER
 70
0
  3

 72
65
 73
0
 40
0.0
  0
LTYPE
  5
16
100
AcDbSymbolTableRecord
100
AcDbLinetypeTableRecord
  2
CONTINUOUS
 70
64
  3
Solid line
 72
65
 73
0
 40
0.0
  0
LTYPE
  5
1F5
100
AcDbSymbolTableRecord
100
AcDbLinetypeTableRecord
  2
CENTER
 70
64
  3
____ _ ____ _ ____ _ ____ _ ____ _ ____ _ ____
 72
65
 73
4
 40
0.6
 49
0.375
 74
0
 49
-0.075
 74
0
 49
0.075
 74
0
 49
-0.075
 74
0
  0
LTYPE
  5
1F6
100
AcDbSymbolTableRecord
100
AcDbLinetypeTableRecord
  2
HIDDEN
 70
64
  3
- - - - - - - - - - - - - - - - - - - -
 72
65
 73
2
 40
0.2
 49
0.1
 74
0
 49
-0.1
 74
0
  0
LTYPE
  5
1F7
100
AcDbSymbolTableRecord
100
AcDbLinetypeTableRecord
  2
PHANTOM
 70
64
  3
_____ _ _ _____ _ _ _____ _ _ _____
 72
65
 73
6
 40
0.8
 49
0.45
 74
0
 49
-0.05
 74
0
 49
0.1
 74
0
 49
-0.05
 74
0
 49
0.1
 74
0
 49
-0.05
 74
0
  0
LTYPE
  5
1F8
100
AcDbSymbolTableRecord
100
AcDbLinetypeTableRecord
  2
DOT
 70
64
  3
. . . . . . . . . . . . . . . . . . . .
 72
65
 73
2
 40
0.2
 49
0.1
 74
0
 49
-0.1
 74
0
  0
LTYPE
  5
1F9
100
AcDbSymbolTableRecord
100
AcDbLinetypeTableRecord
  2
DASHED
 70
64
  3
- - - - - - - - - - - - - - - - - - - -
 72
65
 73
2
 40
0.2
 49
0.1
 74
0
 49
-0.1
 74
0
  0
ENDTAB
  0
TABLE
  2
LAYER
  5
2
100
AcDbSymbolTable
 70
36
  0
LAYER
  5
10
100
AcDbSymbolTableRecord
100
AcDbLayerTableRecord
  2
0
 70
0
 62
7
  6
CONTINUOUS
370
-3
390
F
  0
LAYER
  5
1FA
100
AcDbSymbolTableRecord
100
AcDbLayerTableRecord
  2
DEFAULT_1
 70
0
 62
7
  6
CENTER
370
-3
390
F
  0
LAYER
  5
1FB
100
AcDbSymbolTableRecord
100
AcDbLayerTableRecord
  2
DEFAULT_2
 70
0
 62
7
  6
HIDDEN
370
-3
390
F
  0
LAYER
  5
1FC
100
AcDbSymbolTableRecord
100
AcDbLayerTableRecord
  2
DEFAULT_3
 70
0
 62
7
  6
PHANTOM
370
-3
390
F
  0
LAYER
  5
1FD
100
AcDbSymbolTableRecord
100
AcDbLayerTableRecord
  2
00_COMPONENTS
 70
0
 62
7
  6
CONTINUOUS
370
-3
390
F
  0
LAYER
  5
1FE
100
AcDbSymbolTableRecord
100
AcDbLayerTableRecord
  2
01_1_DEFAULT_DATUMS
 70
0
 62
7
  6
CONTINUOUS
370
-3
390
F
  0
LAYER
  5
1FF
100
AcDbSymbolTableRecord
100
AcDbLayerTableRecord
  2
01_PLANES
 70
0
 62
7
  6
CONTINUOUS
370
-3
390
F
  0
LAYER
  5
200
100
AcDbSymbolTableRecord
100
AcDbLayerTableRecord
  2
02_COORD_SYS
 70
0
 62
7
  6
CONTINUOUS
370
-3
390
F
  0
LAYER
  5
201
100
AcDbSymbolTableRecord
100
AcDbLayerTableRecord
  2
03_AXES
 70
0
 62
7
  6
CONTINUOUS
370
-3
390
F
  0
LAYER
  5
202
100
AcDbSymbolTableRecord
100
AcDbLayerTableRecord
  2
04_POINTS
 70
0
 62
7
  6
CONTINUOUS
370
-3
390
F
  0
LAYER
  5
203
100
AcDbSymbolTableRecord
100
AcDbLayerTableRecord
  2
05_CURVES
 70
0
 62
7
  6
CONTINUOUS
370
-3
390
F
  0
LAYER
  5
204
100
AcDbSymbolTableRecord
100
AcDbLayerTableRecord
  2
06_SURFS
 70
0
 62
7
  6
CONTINUOUS
370
-3
390
F
  0
LAYER
  5
205
100
AcDbSymbolTableRecord
100
AcDbLayerTableRecord
  2
07_COSMETICS
 70
0
 62
7
  6
CONTINUOUS
370
-3
390
F
  0
LAYER
  5
206
100
AcDbSymbolTableRecord
100
AcDbLayerTableRecord
  2
10_NOTES
 70
0
 62
7
  6
CONTINUOUS
370
-3
390
F
  0
LAYER
  5
207
100
AcDbSymbolTableRecord
100
AcDbLayerTableRecord
  2
11_NOTES_PUB
 70
0
 62
7
  6
CONTINUOUS
370
-3
390
F
  0
LAYER
  5
208
100
AcDbSymbolTableRecord
100
AcDbLayerTableRecord
  2
13_REF_GTOL
 70
0
 62
7
  6
CONTINUOUS
370
-3
390
F
  0
LAYER
  5
209
100
AcDbSymbolTableRecord
100
AcDbLayerTableRecord
  2
16_MISC
 70
0
 62
7
  6
CONTINUOUS
370
-3
390
F
  0
LAYER
  5
20A
100
AcDbSymbolTableRecord
100
AcDbLayerTableRecord
  2
17_NO_PRINT
 70
0
 62
7
  6
CONTINUOUS
370
-3
390
F
  0
LAYER
  5
20B
100
AcDbSymbolTableRecord
100
AcDbLayerTableRecord
  2
18_DATUM_CAMS_JOINTS
 70
0
 62
7
  6
CONTINUOUS
370
-3
390
F
  0
LAYER
  5
20C
100
AcDbSymbolTableRecord
100
AcDbLayerTableRecord
  2
19_DATUM_FUNCTIONAL
 70
0
 62
7
  6
CONTINUOUS
370
-3
390
F
  0
LAYER
  5
20D
100
AcDbSymbolTableRecord
100
AcDbLayerTableRecord
  2
20_DATUM_KINEMATIC_SCHEME
 70
0
 62
7
  6
CONTINUOUS
370
-3
390
F
  0
ENDTAB
  0
TABLE
  2
STYLE
  5
3
100
AcDbSymbolTable
 70
1
  0
STYLE
  5
11
100
AcDbSymbolTableRecord
100
AcDbTextStyleTableRecord
  2
STANDARD
 70
0
 40
0.0
 41
1.0
 50
0.0
 71
0
 42
0.2
  3
ARIAL.TTF
  4

  0
STYLE
  5
20E
100
AcDbSymbolTableRecord
100
AcDbTextStyleTableRecord
  2
TEXTSTYLE_1
 70
0
 40
0.0
 41
0.8
 50
0.0
 71
0
 42
0.2
  3
gdt
  4

  0
ENDTAB
  0
TABLE
  2
VIEW
  5
6
100
AcDbSymbolTable
 70
0
  0
ENDTAB
  0
TABLE
  2
UCS
  5
7
100
AcDbSymbolTable
 70
0
  0
ENDTAB
  0
TABLE
  2
APPID
  5
9
100
AcDbSymbolTable
 70
1
  0
APPID
  5
20F
100
AcDbSymbolTableRecord
100
AcDbRegAppTableRecord
  2
ACAD
 70
0
  0
ENDTAB
  0
TABLE
  2
BLOCK_RECORD
  5
1
100
AcDbSymbolTable
 70
0
  0
BLOCK_RECORD
  5
210
100
AcDbSymbolTableRecord
100
AcDbBlockTableRecord
  2
*Model_Space
  0
BLOCK_RECORD
  5
211
100
AcDbSymbolTableRecord
100
AcDbBlockTableRecord
  2
*Paper_Space
  0
BLOCK_RECORD
  5
212
100
AcDbSymbolTableRecord
100
AcDbBlockTableRecord
  2
_FILLED
  0
ENDTAB
  0
TABLE
  2
DIMSTYLE
  5
A
100
AcDbSymbolTable
 70
1
100
AcDbDimStyleTable
 71
0
  0
DIMSTYLE
105
213
100
AcDbSymbolTableRecord
100
AcDbDimStyleTableRecord
  2
STANDARD
 70
0
  3

  4

 40
1.0
 41
1.5598070073
 42
1.0
 43
0.38
 44
1.0
 45
0.0
 46
0.0
 47
0.01
 48
0.01
140
2.1837298102
141
0.09
142
0.0
143
25.4
144
1.0
145
0.0
146
1.0
147
0.625
 71
1
 72
0
 73
0
 74
0
 75
0
 76
0
 77
1
 78
8
 79
2
170
0
171
1
172
0
173
0
174
0
175
0
176
0
177
0
178
0
270
2
179
2
271
2
272
2
273
2
274
2
275
0
280
0
281
0
282
0
283
1
284
8
285
0
286
0
287
3
288
0
340
11
278
46
341
212
342
212
343
212
344
212
  0
ENDTAB
  0
ENDSEC
  0
SECTION
  2
BLOCKS
  0
BLOCK
  5
20
100
AcDbEntity
  8
0
100
AcDbBlockBegin
  2
*Model_Space
 70
0
 10
0.0
 20
0.0
 30
0.0
  3
*Model_Space
  1

  0
ENDBLK
  5
21
100
AcDbEntity
  8
0
100
AcDbBlockEnd
  0
BLOCK
  5
1C
100
AcDbEntity
  8
0
100
AcDbBlockBegin
  2
*Paper_Space
 70
0
 10
0.0
 20
0.0
 30
0.0
  3
*Paper_Space
  1

  0
ENDBLK
  5
1D
100
AcDbEntity
  8
0
100
AcDbBlockEnd
  0
BLOCK
  5
214
100
AcDbEntity
  8
0
100
AcDbBlockBegin
  2
_FILLED
 70
64
 10
0.0
 20
0.0
  3
_FILLED
  1

  0
SOLID
  5
215
100
AcDbEntity
  8
0
  6
BYBLOCK
 62
0
100
AcDbTrace
 10
0.0
 20
0.0
 11
-1.0
 21
0.25
 12
-1.0
 22
-0.25
 13
-1.0
 23
-0.25
  0
ENDBLK
  5
216
100
AcDbEntity
  8
0
  6
BYBLOCK
 62
0
100
AcDbBlockEnd
  0
ENDSEC
  0
SECTION
  2
ENTITIES
  0
LINE
  5
217
100
AcDbEntity
  8
0
100
AcDbLine
 62
7
  6
BYLAYER
 10
65.4434359146
 20
14.8561594203
 11
64.2434359146
 21
14.8561594203
  0
LINE
  5
218
100
AcDbEntity
  8
0
100
AcDbLine
 62
7
  6
BYLAYER
 10
53.726387059
 20
161.8561594203
 11
53.326387059
 21
161.4561594203
  0
LINE
  5
219
100
AcDbEntity
  8
0
100
AcDbLine
 62
7
  6
BYLAYER
 10
77.726387059
 20
161.8561594203
 11
77.326387059
 21
161.4561594203
  0
LINE
  5
21A
100
AcDbEntity
  8
0
100
AcDbLine
 62
7
  6
BYLAYER
 10
69.6934359146
 20
129.8561594203
 11
70.7469890208
 21
130.9097125265
  0
LINE
  5
21B
100
AcDbEntity
  8
0
100
AcDbLine
 62
7
  6
BYLAYER
 10
50.826387059
 20
141.8561594203
 11
50.826387059
 21
136.3561594203
  0
LINE
  5
21C
100
AcDbEntity
  8
0
100
AcDbLine
 62
7
  6
BYLAYER
 10
50.826387059
 20
142.0561594203
 11
50.826387059
 21
160.8561594203
  0
LINE
  5
21D
100
AcDbEntity
  8
0
100
AcDbLine
 62
7
  6
BYLAYER
 10
51.0263709003
 20
156.4561594203
 11
51.026387059
 21
161.0561594203
  0
LINE
  5
21E
100
AcDbEntity
  8
0
100
AcDbLine
 62
7
  6
BYLAYER
 10
52.326387059
 20
135.8561594203
 11
52.326387059
 21
156.4561594203
  0
LINE
  5
21F
100
AcDbEntity
  8
0
100
AcDbLine
 62
7
  6
BYLAYER
 10
53.326387059
 20
161.4561594203
 11
53.326387059
 21
156.4561594203
  0
LINE
  5
220
100
AcDbEntity
  8
0
100
AcDbLine
 62
7
  6
BYLAYER
 10
53.576387059
 20
161.7061594203
 11
53.576387059
 21
162.0561594203
  0
LINE
  5
221
100
AcDbEntity
  8
0
100
AcDbLine
 62
7
  6
BYLAYER
 10
57.326387059
 20
156.4561594203
 11
57.326387059
 21
161.4561594203
  0
LINE
  5
222
100
AcDbEntity
  8
0
100
AcDbLine
 62
7
  6
BYLAYER
 10
58.7263762455
 20
156.2561594206
 11
58.7263843875
 21
156.4561594203
  0
LINE
  5
223
100
AcDbEntity
  8
0
100
AcDbLine
 62
7
  6
BYLAYER
 10
58.84968455
 20
160.8561593409
 11
58.84968455
 21
156.6561745574
  0
LINE
  5
224
100
AcDbEntity
  8
0
100
AcDbLine
 62
7
  6
BYLAYER
 10
58.926387059
 20
156.656159419
 11
58.926387059
 21
160.8561594204
  0
LINE
  5
225
100
AcDbEntity
  8
0
100
AcDbLine
 62
7
  6
BYLAYER
 10
59.1263870584
 20
156.6562404403
 11
59.126387059
 21
161.0561594203
  0
LINE
  5
226
100
AcDbEntity
  8
0
100
AcDbLine
 62
7
  6
BYLAYER
 10
60.326387059
 20
171.3561594203
 11
60.326387059
 21
162.0561594203
  0
LINE
  5
227
100
AcDbEntity
  8
0
100
AcDbLine
 62
7
  6
BYLAYER
 10
60.9645458189
 20
135.3868930305
 11
61.1916952192
 21
132.7905635042
  0
LINE
  5
228
100
AcDbEntity
  8
0
100
AcDbLine
 62
7
  6
BYLAYER
 10
64.2434359146
 20
129.8561594203
 11
64.2434359146
 21
114.8561594203
  0
LINE
  5
229
100
AcDbEntity
  8
0
100
AcDbLine
 62
7
  6
BYLAYER
 10
64.2434359146
 20
14.8561594203
 11
64.2434359146
 21
113.4561594203
  0
LINE
  5
22A
100
AcDbEntity
  8
0
100
AcDbLine
 62
7
  6
BYLAYER
 10
65.4434359146
 20
113.4561594203
 11
65.4434359146
 21
14.8561594203
  0
LINE
  5
22B
100
AcDbEntity
  8
0
100
AcDbLine
 62
7
  6
BYLAYER
 10
66.826387059
 20
141.8561594203
 11
66.826387059
 21
140.8561594203
  0
LINE
  5
22C
100
AcDbEntity
  8
0
100
AcDbLine
 62
7
  6
BYLAYER
 10
67.826387059
 20
141.8561594203
 11
67.826387059
 21
140.8561594203
  0
LINE
  5
22D
100
AcDbEntity
  8
0
100
AcDbLine
 62
7
  6
BYLAYER
 10
70.4434359146
 20
129.8561594203
 11
70.4434359146
 21
114.8561594203
  0
LINE
  5
22E
100
AcDbEntity
  8
0
100
AcDbLine
 62
7
  6
BYLAYER
 10
73.4951766099
 20
132.7905635042
 11
73.7223260102
 21
135.3868930305
  0
LINE
  5
22F
100
AcDbEntity
  8
0
100
AcDbLine
 62
7
  6
BYLAYER
 10
74.326387059
 20
171.3561594203
 11
74.326387059
 21
162.0561594203
  0
LINE
  5
230
100
AcDbEntity
  8
0
100
AcDbLine
 62
7
  6
BYLAYER
 10
75.5263879881
 20
156.6570295324
 11
75.526387059
 21
161.0561594203
  0
LINE
  5
231
100
AcDbEntity
  8
0
100
AcDbLine
 62
7
  6
BYLAYER
 10
75.726387059
 20
160.856167564
 11
75.726387059
 21
156.6561593931
  0
LINE
  5
232
100
AcDbEntity
  8
0
100
AcDbLine
 62
7
  6
BYLAYER
 10
75.803089568
 20
156.6561745409
 11
75.803089568
 21
160.8561594314
  0
LINE
  5
233
100
AcDbEntity
  8
0
100
AcDbLine
 62
7
  6
BYLAYER
 10
75.9263893883
 20
156.4561594203
 11
75.9263969432
 21
156.2561594205
  0
LINE
  5
234
100
AcDbEntity
  8
0
100
AcDbLine
 62
7
  6
BYLAYER
 10
77.326387059
 20
161.4561594203
 11
77.326387059
 21
156.4561594203
  0
LINE
  5
235
100
AcDbEntity
  8
0
100
AcDbLine
 62
7
  6
BYLAYER
 10
81.076387059
 20
162.0561594203
 11
81.076387059
 21
161.7061594203
  0
LINE
  5
236
100
AcDbEntity
  8
0
100
AcDbLine
 62
7
  6
BYLAYER
 10
81.326387059
 20
156.4561594203
 11
81.326387059
 21
161.4561594203
  0
LINE
  5
237
100
AcDbEntity
  8
0
100
AcDbLine
 62
7
  6
BYLAYER
 10
82.326387059
 20
156.4561594203
 11
82.326387059
 21
135.8561594203
  0
LINE
  5
238
100
AcDbEntity
  8
0
100
AcDbLine
 62
7
  6
BYLAYER
 10
83.6264030826
 20
156.4561594203
 11
83.626387059
 21
161.0561594203
  0
LINE
  5
239
100
AcDbEntity
  8
0
100
AcDbLine
 62
7
  6
BYLAYER
 10
83.826387059
 20
136.3561594203
 11
83.826387059
 21
141.8561594203
  0
LINE
  5
23A
100
AcDbEntity
  8
0
100
AcDbLine
 62
7
  6
BYLAYER
 10
83.826387059
 20
142.0561594203
 11
83.826387059
 21
160.8561594203
  0
LINE
  5
23B
100
AcDbEntity
  8
0
100
AcDbLine
 62
7
  6
BYLAYER
 10
64.2434359146
 20
113.4561594203
 11
65.4434359146
 21
113.4561594203
  0
LINE
  5
23C
100
AcDbEntity
  8
0
100
AcDbLine
 62
7
  6
BYLAYER
 10
70.4434181494
 20
114.8561594203
 11
64.2436247234
 21
114.8561594203
  0
LINE
  5
23D
100
AcDbEntity
  8
0
100
AcDbLine
 62
7
  6
BYLAYER
 10
63.9398828084
 20
130.9097125265
 11
64.9934359146
 21
129.8561594203
  0
LINE
  5
23E
100
AcDbEntity
  8
0
100
AcDbLine
 62
7
  6
BYLAYER
 10
64.2434536797
 20
129.8561594203
 11
70.4434181494
 21
129.8561594203
  0
LINE
  5
23F
100
AcDbEntity
  8
0
100
AcDbLine
 62
7
  6
BYLAYER
 10
63.9398828084
 20
130.9097125265
 11
70.7469890208
 21
130.9097125265
  0
LINE
  5
240
100
AcDbEntity
  8
0
100
AcDbLine
 62
7
  6
BYLAYER
 10
71.6023492749
 20
131.0561594203
 11
63.0844652133
 21
131.0561594203
  0
LINE
  5
241
100
AcDbEntity
  8
0
100
AcDbLine
 62
7
  6
BYLAYER
 10
73.4951766099
 20
132.7905635042
 11
61.1916952192
 21
132.7905635042
  0
LINE
  5
242
100
AcDbEntity
  8
0
100
AcDbLine
 62
7
  6
BYLAYER
 10
60.9648550882
 20
135.3868930305
 11
73.7223260102
 21
135.3868930305
  0
LINE
  5
243
100
AcDbEntity
  8
0
100
AcDbLine
 62
7
  6
BYLAYER
 10
51.3263871839
 20
135.8561594203
 11
83.3263869341
 21
135.8561594203
  0
LINE
  5
244
100
AcDbEntity
  8
0
100
AcDbLine
 62
7
  6
BYLAYER
 10
83.826387059
 20
136.3561594203
 11
50.826387059
 21
136.3561594203
  0
LINE
  5
245
100
AcDbEntity
  8
0
100
AcDbLine
 62
7
  6
BYLAYER
 10
57.326387059
 20
161.4561594203
 11
56.926387059
 21
161.8561594203
  0
LINE
  5
246
100
AcDbEntity
  8
0
100
AcDbLine
 62
7
  6
BYLAYER
 10
67.826387059
 20
140.8561594203
 11
66.826387059
 21
140.8561594203
  0
LINE
  5
247
100
AcDbEntity
  8
0
100
AcDbLine
 62
7
  6
BYLAYER
 10
67.826387059
 20
141.4561594203
 11
66.826387059
 21
141.4561594203
  0
LINE
  5
248
100
AcDbEntity
  8
0
100
AcDbLine
 62
7
  6
BYLAYER
 10
50.826387059
 20
141.8561594203
 11
83.826387059
 21
141.8561594203
  0
LINE
  5
249
100
AcDbEntity
  8
0
100
AcDbLine
 62
7
  6
BYLAYER
 10
83.826387059
 20
142.0561594203
 11
50.826387059
 21
142.0561594203
  0
LINE
  5
24A
100
AcDbEntity
  8
0
100
AcDbLine
 62
7
  6
BYLAYER
 10
81.326387059
 20
161.4561594203
 11
80.926387059
 21
161.8561594203
  0
LINE
  5
24B
100
AcDbEntity
  8
0
100
AcDbLine
 62
7
  6
BYLAYER
 10
50.826387059
 20
156.2561594203
 11
58.7262940639
 21
156.2561594209
  0
LINE
  5
24C
100
AcDbEntity
  8
0
100
AcDbLine
 62
7
  6
BYLAYER
 10
75.9264718606
 20
156.2561594208
 11
83.826387059
 21
156.2561594203
  0
LINE
  5
24D
100
AcDbEntity
  8
0
100
AcDbLine
 62
7
  6
BYLAYER
 10
51.0263873814
 20
156.4561594203
 11
58.7263869721
 21
156.4561594203
  0
LINE
  5
24E
100
AcDbEntity
  8
0
100
AcDbLine
 62
7
  6
BYLAYER
 10
75.9263870589
 20
156.4561594203
 11
83.6263867366
 21
156.4561594203
  0
LINE
  5
24F
100
AcDbEntity
  8
0
100
AcDbLine
 62
7
  6
BYLAYER
 10
77.326387059
 20
156.6561594203
 11
75.726387059
 21
156.6561687419
  0
LINE
  5
250
100
AcDbEntity
  8
0
100
AcDbLine
 62
7
  6
BYLAYER
 10
51.0263820054
 20
156.6561593931
 11
53.326387059
 21
156.6561604129
  0
LINE
  5
251
100
AcDbEntity
  8
0
100
AcDbLine
 62
7
  6
BYLAYER
 10
81.326387059
 20
156.6561604277
 11
83.6263921944
 21
156.656159419
  0
LINE
  5
252
100
AcDbEntity
  8
0
100
AcDbLine
 62
7
  6
BYLAYER
 10
57.326387059
 20
156.6561594203
 11
58.926387059
 21
156.6561687522
  0
LINE
  5
253
100
AcDbEntity
  8
0
100
AcDbLine
 62
7
  6
BYLAYER
 10
51.0180828082
 20
156.6562201421
 11
51.026387059
 21
156.6561593557
  0
LINE
  5
254
100
AcDbEntity
  8
0
100
AcDbLine
 62
7
  6
BYLAYER
 10
75.7262145913
 20
156.6562201408
 11
75.726387059
 21
156.6561593558
  0
LINE
  5
255
100
AcDbEntity
  8
0
100
AcDbLine
 62
7
  6
BYLAYER
 10
58.926387059
 20
160.8561594203
 11
75.726387059
 21
160.8561594203
  0
LINE
  5
256
100
AcDbEntity
  8
0
100
AcDbLine
 62
7
  6
BYLAYER
 10
81.326387059
 20
160.8561594206
 11
83.826387059
 21
160.8561594203
  0
LINE
  5
257
100
AcDbEntity
  8
0
100
AcDbLine
 62
7
  6
BYLAYER
 10
53.326387059
 20
160.8561746117
 11
50.826387059
 21
160.8561594203
  0
LINE
  5
258
100
AcDbEntity
  8
0
100
AcDbLine
 62
7
  6
BYLAYER
 10
83.626387059
 20
161.0561594203
 11
81.326387059
 21
161.0561594203
  0
LINE
  5
259
100
AcDbEntity
  8
0
100
AcDbLine
 62
7
  6
BYLAYER
 10
75.5263870589
 20
161.0561594203
 11
59.1263870591
 21
161.0561594203
  0
LINE
  5
25A
100
AcDbEntity
  8
0
100
AcDbLine
 62
7
  6
BYLAYER
 10
51.026387059
 20
161.0561594203
 11
53.326387059
 21
161.0561594203
  0
LINE
  5
25B
100
AcDbEntity
  8
0
100
AcDbLine
 62
7
  6
BYLAYER
 10
75.4088238234
 20
161.2561594203
 11
59.2439497852
 21
161.2561594203
  0
LINE
  5
25C
100
AcDbEntity
  8
0
100
AcDbLine
 62
7
  6
BYLAYER
 10
53.326387059
 20
161.4561594203
 11
57.326387059
 21
161.4561594203
  0
LINE
  5
25D
100
AcDbEntity
  8
0
100
AcDbLine
 62
7
  6
BYLAYER
 10
77.326387059
 20
161.4561594203
 11
81.326387059
 21
161.4561594203
  0
LINE
  5
25E
100
AcDbEntity
  8
0
100
AcDbLine
 62
7
  6
BYLAYER
 10
53.726387059
 20
161.8561594203
 11
56.926387059
 21
161.8561594203
  0
LINE
  5
25F
100
AcDbEntity
  8
0
100
AcDbLine
 62
7
  6
BYLAYER
 10
77.726387059
 20
161.8561594203
 11
80.926387059
 21
161.8561594203
  0
LINE
  5
260
100
AcDbEntity
  8
0
100
AcDbLine
 62
7
  6
BYLAYER
 10
53.576387059
 20
162.0561594203
 11
81.076387059
 21
162.0561594203
  0
LINE
  5
261
100
AcDbEntity
  8
0
100
AcDbLine
 62
7
  6
BYLAYER
 10
60.3263966185
 20
171.3561594203
 11
74.3263774995
 21
171.3561594203
  0
ARC
  5
262
100
AcDbEntity
  8
0
100
AcDbCircle
 62
7
  6
BYLAYER
 10
67.3434359146
 20
113.4561594203
 40
3.1
100
AcDbArc
 50
153.1506962257
 51
180.0
  0
ARC
  5
263
100
AcDbEntity
  8
0
100
AcDbCircle
 62
7
  6
BYLAYER
 10
71.6024066839
 20
132.9561594203
 40
1.9
100
AcDbArc
 50
270.0
 51
354.9999998541
  0
ARC
  5
264
100
AcDbEntity
  8
0
100
AcDbCircle
 62
7
  6
BYLAYER
 10
63.0844651452
 20
132.9561594203
 40
1.9
100
AcDbArc
 50
185.0000001459
 51
270.0
  0
ARC
  5
265
100
AcDbEntity
  8
0
100
AcDbCircle
 62
7
  6
BYLAYER
 10
67.3434359146
 20
113.4561594203
 40
1.9
100
AcDbArc
 50
132.536898363
 51
180.0
  0
ARC
  5
266
100
AcDbEntity
  8
0
100
AcDbCircle
 62
7
  6
BYLAYER
 10
59.4702537714
 20
135.2561594203
 40
1.5
100
AcDbArc
 50
5.0
 51
26.8760219249
  0
ARC
  5
267
100
AcDbEntity
  8
0
100
AcDbCircle
 62
7
  6
BYLAYER
 10
75.2166180577
 20
135.2561594203
 40
1.5
100
AcDbArc
 50
153.1239780751
 51
175.0
  0
ARC
  5
268
100
AcDbEntity
  8
0
100
AcDbCircle
 62
7
  6
BYLAYER
 10
83.326387059
 20
136.3561594203
 40
0.5
100
AcDbArc
 50
270.0
 51
360.0
  0
ARC
  5
269
100
AcDbEntity
  8
0
100
AcDbCircle
 62
7
  6
BYLAYER
 10
51.326387059
 20
136.3561594203
 40
0.5
100
AcDbArc
 50
180.0
 51
270.0
  0
ARC
  5
26A
100
AcDbEntity
  8
0
100
AcDbCircle
 62
7
  6
BYLAYER
 10
71.1005426958
 20
130.5561594203
 40
0.5
100
AcDbArc
 50
90.0000731243
 51
135.0
  0
ARC
  5
26B
100
AcDbEntity
  8
0
100
AcDbCircle
 62
7
  6
BYLAYER
 10
63.5863291334
 20
130.5561594203
 40
0.5
100
AcDbArc
 50
45.0
 51
89.9999268757
  0
ARC
  5
26C
100
AcDbEntity
  8
0
100
AcDbCircle
 62
7
  6
BYLAYER
 10
75.9263551499
 20
156.6561281371
 40
0.399956657
100
AcDbArc
 50
179.8708742438
 51
270.0167188797
  0
ARC
  5
26D
100
AcDbEntity
  8
0
100
AcDbCircle
 62
7
  6
BYLAYER
 10
58.7264204692
 20
156.6561293843
 40
0.3999561896
100
AcDbArc
 50
269.9818924086
 51
0.0159089269
  0
ARC
  5
26E
100
AcDbEntity
  8
0
100
AcDbCircle
 62
7
  6
BYLAYER
 10
75.4549676266
 20
160.8605461698
 40
0.3481495741
100
AcDbArc
 50
359.2780401828
 51
2.7736988843
  0
ARC
  5
26F
100
AcDbEntity
  8
0
100
AcDbCircle
 62
7
  6
BYLAYER
 10
59.1331937435
 20
160.8664356981
 40
0.2836953731
100
AcDbArc
 50
177.8549392912
 51
182.0758953732
  0
ARC
  5
270
100
AcDbEntity
  8
0
100
AcDbCircle
 62
7
  6
BYLAYER
 10
51.026387059
 20
160.8561594203
 40
0.2
100
AcDbArc
 50
90.0
 51
180.0
  0
ARC
  5
271
100
AcDbEntity
  8
0
100
AcDbCircle
 62
7
  6
BYLAYER
 10
58.726387059
 20
156.6561594203
 40
0.2
100
AcDbArc
 50
270.0006559008
 51
360.0
  0
ARC
  5
272
100
AcDbEntity
  8
0
100
AcDbCircle
 62
7
  6
BYLAYER
 10
75.526387059
 20
160.8561594203
 40
0.2
100
AcDbArc
 50
0.0046660948
 51
90.0
  0
ARC
  5
273
100
AcDbEntity
  8
0
100
AcDbCircle
 62
7
  6
BYLAYER
 10
75.926387059
 20
156.6561594203
 40
0.2
100
AcDbArc
 50
180.0
 51
269.9993323676
  0
ARC
  5
274
100
AcDbEntity
  8
0
100
AcDbCircle
 62
7
  6
BYLAYER
 10
59.126387059
 20
160.8561594203
 40
0.2
100
AcDbArc
 50
90.0
 51
179.9999999063
  0
ARC
  5
275
100
AcDbEntity
  8
0
100
AcDbCircle
 62
7
  6
BYLAYER
 10
83.626387059
 20
160.8561594203
 40
0.2
100
AcDbArc
 50
0.0
 51
90.0
  0
ARC
  5
276
100
AcDbEntity
  8
0
100
AcDbCircle
 62
7
  6
BYLAYER
 10
83.626387059
 20
156.2561594203
 40
0.2
100
AcDbArc
 50
0.0000000846
 51
90.0
  0
ARC
  5
277
100
AcDbEntity
  8
0
100
AcDbCircle
 62
7
  6
BYLAYER
 10
83.626387059
 20
142.0561594203
 40
0.2
100
AcDbArc
 50
270.0
 51
360.0
  0
ARC
  5
278
100
AcDbEntity
  8
0
100
AcDbCircle
 62
7
  6
BYLAYER
 10
51.026387059
 20
156.2561594203
 40
0.2
100
AcDbArc
 50
90.0
 51
179.9999999262
  0
ARC
  5
279
100
AcDbEntity
  8
0
100
AcDbCircle
 62
7
  6
BYLAYER
 10
51.026387059
 20
142.0561594203
 40
0.2
100
AcDbArc
 50
180.0
 51
270.0
  0
SPLINE
  5
27A
100
AcDbEntity
  8
0
100
AcDbSpline
 62
7
  6
BYLAYER
 70
0
 71
3
 72
9
 73
5
 74
0
 42
0.0000001
 43
0.0000001
 44
0.0000000001
 40
0.0
 40
0.0
 40
0.0
 40
0.0
 40
0.492431533
 40
1.0
 40
1.0
 40
1.0
 40
1.0
 10
75.4088238234
 20
161.2561594203
 30
0.0
 10
75.452698193
 20
161.2535055888
 30
0.0
 10
75.5426407748
 20
161.2419158691
 30
0.0
 10
75.6221990595
 20
161.1957332383
 30
0.0
 10
75.6570920993
 20
161.1668354741
 30
0.0
  0
SPLINE
  5
27B
100
AcDbEntity
  8
0
100
AcDbSpline
 62
7
  6
BYLAYER
 70
0
 71
3
 72
11
 73
7
 74
0
 42
0.0000001
 43
0.0000001
 44
0.0000000001
 40
0.0
 40
0.0
 40
0.0
 40
0.0
 40
0.2345071597
 40
0.4792210844
 40
0.7355080606
 40
1.0
 40
1.0
 40
1.0
 40
1.0
 10
75.6570920993
 20
161.1668354741
 30
0.0
 10
75.6771297056
 20
161.1502407028
 30
0.0
 10
75.7150560533
 20
161.1124320776
 30
0.0
 10
75.7602620161
 20
161.04379043
 30
0.0
 10
75.7914861099
 20
160.9642163798
 30
0.0
 10
75.8012979051
 20
160.9067033863
 30
0.0
 10
75.8027093282
 20
160.8773935704
 30
0.0
  0
SPLINE
  5
27C
100
AcDbEntity
  8
0
100
AcDbSpline
 62
7
  6
BYLAYER
 70
0
 71
3
 72
11
 73
7
 74
0
 42
0.0000001
 43
0.0000001
 44
0.0000000001
 40
0.0
 40
0.0
 40
0.0
 40
0.0
 40
0.26442842
 40
0.5207243225
 40
0.7653027859
 40
1.0
 40
1.0
 40
1.0
 40
1.0
 10
58.8496971654
 20
160.8770543101
 30
0.0
 10
58.8507701288
 20
160.9061602209
 30
0.0
 10
58.8611988112
 20
160.9631987729
 30
0.0
 10
58.8918124719
 20
161.0422169216
 30
0.0
 10
58.9363104302
 20
161.1106518329
 30
0.0
 10
58.973776109
 20
161.1483740326
 30
0.0
 10
58.9935741791
 20
161.1649964917
 30
0.0
  0
SPLINE
  5
27D
100
AcDbEntity
  8
0
100
AcDbSpline
 62
7
  6
BYLAYER
 70
0
 71
3
 72
9
 73
5
 74
0
 42
0.0000001
 43
0.0000001
 44
0.0000000001
 40
0.0
 40
0.0
 40
0.0
 40
0.0
 40
0.5078777052
 40
1.0
 40
1.0
 40
1.0
 40
1.0
 10
58.9935741791
 20
161.1649964917
 30
0.0
 10
59.0286532674
 20
161.1944488932
 30
0.0
 10
59.1086944168
 20
161.24169141
 30
0.0
 10
59.199629835
 20
161.2537972732
 30
0.0
 10
59.2439497852
 20
161.2561594203
 30
0.0
  0
SPLINE
  5
27E
100
AcDbEntity
  8
0
100
AcDbSpline
 62
7
  6
BYLAYER
 70
0
 71
3
 72
21
 73
17
 74
0
 42
0.0000001
 43
0.0000001
 44
0.0000000001
 40
0.0
 40
0.0
 40
0.0
 40
0.0
 40
0.0012072919
 40
0.004799887
 40
0.0107597818
 40
0.0190661746
 40
0.0426339063
 40
0.0753335169
 40
0.1169390668
 40
0.1669979359
 40
0.2250001532
 40
0.290435841
 40
0.4413108322
 40
0.614243147
 40
0.8031282573
 40
1.0
 40
1.0
 40
1.0
 40
1.0
 10
50.826387059
 20
156.6569453567
 30
0.0
 10
50.8263871319
 20
156.6570225023
 30
0.0
 10
50.8268781278
 20
156.6568864782
 30
0.0
 10
50.8273883711
 20
156.6570458096
 30
0.0
 10
50.8286292294
 20
156.6569772964
 30
0.0
 10
50.830986604
 20
156.6570399007
 30
0.0
 10
50.8351572845
 20
156.6570037628
 30
0.0
 10
50.8413901033
 20
156.6569986241
 30
0.0
 10
50.8493449154
 20
156.656941938
 30
0.0
 10
50.858905471
 20
156.6568798547
 30
0.0
 10
50.8699926183
 20
156.6568116744
 30
0.0
 10
50.8875205695
 20
156.6567320971
 30
0.0
 10
50.9123933022
 20
156.6566929717
 30
0.0
 10
50.9451540593
 20
156.65663045
 30
0.0
 10
50.9808538122
 20
156.6564634949
 30
0.0
 10
51.0055030599
 20
156.6563067138
 30
0.0
 10
51.0180828082
 20
156.6562201421
 30
0.0
  0
SPLINE
  5
27F
100
AcDbEntity
  8
0
100
AcDbSpline
 62
7
  6
BYLAYER
 70
0
 71
3
 72
12
 73
8
 74
0
 42
0.0000001
 43
0.0000001
 44
0.0000000001
 40
0.0
 40
0.0
 40
0.0
 40
0.0
 40
0.3009908304
 40
0.5749123093
 40
0.6962740311
 40
0.8064703491
 40
1.0
 40
1.0
 40
1.0
 40
1.0
 10
58.8496845497
 20
156.6561745574
 30
0.0
 10
58.8496851493
 20
156.6304709896
 30
0.0
 10
58.8439385362
 20
156.5812048032
 30
0.0
 10
58.8221092317
 20
156.5248595799
 30
0.0
 10
58.7962807394
 20
156.4899056359
 30
0.0
 10
58.7691699932
 20
156.4655669641
 30
0.0
 10
58.7429231484
 20
156.4561614498
 30
0.0
 10
58.7263963909
 20
156.4561594209
 30
0.0
  0
SPLINE
  5
280
100
AcDbEntity
  8
0
100
AcDbSpline
 62
7
  6
BYLAYER
 70
0
 71
3
 72
18
 73
14
 74
0
 42
0.0000001
 43
0.0000001
 44
0.0000000001
 40
0.0
 40
0.0
 40
0.0
 40
0.0
 40
0.0042175527
 40
0.0167942085
 40
0.0376582983
 40
0.0667335251
 40
0.1039431605
 40
0.1492042876
 40
0.2632450579
 40
0.4073808565
 40
0.5800143349
 40
0.7786014873
 40
1.0
 40
1.0
 40
1.0
 40
1.0
 10
58.926387059
 20
160.8561594209
 30
0.0
 10
58.9263870589
 20
160.8562672563
 30
0.0
 10
58.9256976132
 20
160.8560541326
 30
0.0
 10
58.9249849674
 20
160.8562831136
 30
0.0
 10
58.9232446896
 20
160.8561648015
 30
0.0
 10
58.9210787656
 20
160.8562142147
 30
0.0
 10
58.9182027828
 20
160.8561760912
 30
0.0
 10
58.9131898757
 20
160.8561378787
 30
0.0
 10
58.9054246606
 20
160.8560451087
 30
0.0
 10
58.8944129519
 20
160.8559682799
 30
0.0
 10
58.8812349876
 20
160.8559636586
 30
0.0
 10
58.8660832604
 20
160.8560356917
 30
0.0
 10
58.8553451454
 20
160.8561142878
 30
0.0
 10
58.84968455
 20
160.8561593409
 30
0.0
  0
SPLINE
  5
281
100
AcDbEntity
  8
0
100
AcDbSpline
 62
7
  6
BYLAYER
 70
0
 71
3
 72
13
 73
9
 74
0
 42
0.0000001
 43
0.0000001
 44
0.0000000001
 40
0.0
 40
0.0
 40
0.0
 40
0.0
 40
0.0857060097
 40
0.1819269342
 40
0.2930618111
 40
0.4196698912
 40
0.7070660997
 40
1.0
 40
1.0
 40
1.0
 40
1.0
 10
59.1263895438
 20
161.0561683094
 30
0.0
 10
59.1336139885
 20
161.0561685809
 30
0.0
 10
59.1490325995
 20
161.0586761237
 30
0.0
 10
59.1714005522
 20
161.0699360319
 30
0.0
 10
59.1923990162
 20
161.089113496
 30
0.0
 10
59.2181900991
 20
161.125411714
 30
0.0
 10
59.2386926629
 20
161.1824548207
 30
0.0
 10
59.2439489723
 20
161.2314670471
 30
0.0
 10
59.243950223
 20
161.2561594202
 30
0.0
  0
SPLINE
  5
282
100
AcDbEntity
  8
0
100
AcDbSpline
 62
7
  6
BYLAYER
 70
0
 71
3
 72
13
 73
9
 74
0
 42
0.0000001
 43
0.0000001
 44
0.0000000001
 40
0.0
 40
0.0
 40
0.0
 40
0.0
 40
0.0857058498
 40
0.1819267277
 40
0.2930616675
 40
0.4196698638
 40
0.7070662561
 40
1.0
 40
1.0
 40
1.0
 40
1.0
 10
75.5263833387
 20
161.0561681303
 30
0.0
 10
75.5191589043
 20
161.0561684102
 30
0.0
 10
75.5037403071
 20
161.0586759771
 30
0.0
 10
75.4813723782
 20
161.0699359281
 30
0.0
 10
75.4603739205
 20
161.0891134313
 30
0.0
 10
75.4345828211
 20
161.1254116965
 30
0.0
 10
75.4140801914
 20
161.1824548111
 30
0.0
 10
75.4088237858
 20
161.2314670495
 30
0.0
 10
75.4088224844
 20
161.2561594203
 30
0.0
  0
SPLINE
  5
283
100
AcDbEntity
  8
0
100
AcDbSpline
 62
7
  6
BYLAYER
 70
0
 71
3
 72
14
 73
10
 74
0
 42
0.0000001
 43
0.0000001
 44
0.0000000001
 40
0.0
 40
0.0
 40
0.0
 40
0.0
 40
0.3733843344
 40
0.5430775503
 40
0.6928547926
 40
0.8173785779
 40
0.9122755003
 40
0.9738296961
 40
1.0
 40
1.0
 40
1.0
 40
1.0
 10
75.5263875236
 20
156.6569453567
 30
0.0
 10
75.5512590939
 20
156.6570065083
 30
0.0
 10
75.5874348157
 20
156.6570618332
 30
0.0
 10
75.6335855852
 20
156.656891413
 30
0.0
 10
75.6631627397
 20
156.6567681239
 30
0.0
 10
75.6877486475
 20
156.6566634545
 30
0.0
 10
75.7064816054
 20
156.6567373749
 30
0.0
 10
75.7186128454
 20
156.6563781362
 30
0.0
 10
75.7244947743
 20
156.6565049486
 30
0.0
 10
75.7262145913
 20
156.6562201408
 30
0.0
  0
SPLINE
  5
284
100
AcDbEntity
  8
0
100
AcDbSpline
 62
7
  6
BYLAYER
 70
0
 71
3
 72
12
 73
8
 74
0
 42
0.0000001
 43
0.0000001
 44
0.0000000001
 40
0.0
 40
0.0
 40
0.0
 40
0.0
 40
0.3009916842
 40
0.5749115525
 40
0.6962725054
 40
0.8064687854
 40
1.0
 40
1.0
 40
1.0
 40
1.0
 10
75.803089568
 20
156.6561594203
 30
0.0
 10
75.803088969
 20
156.6304572804
 30
0.0
 10
75.8088389273
 20
156.5811942941
 30
0.0
 10
75.8306683893
 20
156.5248533213
 30
0.0
 10
75.8564963816
 20
156.4899023838
 30
0.0
 10
75.8836063575
 20
156.465565946
 30
0.0
 10
75.9098518113
 20
156.4561614475
 30
0.0
 10
75.9263777373
 20
156.4561594209
 30
0.0
  0
SPLINE
  5
285
100
AcDbEntity
  8
0
100
AcDbSpline
 62
7
  6
BYLAYER
 70
0
 71
3
 72
21
 73
17
 74
0
 42
0.0000001
 43
0.0000001
 44
0.0000000001
 40
0.0
 40
0.0
 40
0.0
 40
0.0
 40
0.0012200618
 40
0.0048531232
 40
0.0108784738
 40
0.0192743001
 40
0.0430904657
 40
0.076130214
 40
0.1181578403
 40
0.1686725343
 40
0.2271148405
 40
0.292945046
 40
0.4444175472
 40
0.6173573625
 40
0.8053195155
 40
1.0
 40
1.0
 40
1.0
 40
1.0
 10
58.926387059
 20
156.6561594177
 30
0.0
 10
58.9263878294
 20
156.6560780566
 30
0.0
 10
58.9269048551
 20
156.6562286895
 30
0.0
 10
58.9274440691
 20
156.6560485133
 30
0.0
 10
58.9287526584
 20
156.6561195564
 30
0.0
 10
58.9312394887
 20
156.6560475122
 30
0.0
 10
58.9356377611
 20
156.6561100723
 30
0.0
 10
58.9422090762
 20
156.6562098537
 30
0.0
 10
58.9505889952
 20
156.6564625816
 30
0.0
 10
58.9606522214
 20
156.6567019048
 30
0.0
 10
58.9723094337
 20
156.6568266269
 30
0.0
 10
58.9906994633
 20
156.6566485879
 30
0.0
 10
59.0167002865
 20
156.6554679709
 30
0.0
 10
59.0508543095
 20
156.654285804
 30
0.0
 10
59.0879145541
 20
156.6546669881
 30
0.0
 10
59.1134164162
 20
156.6555970895
 30
0.0
 10
59.126387059
 20
156.6561645675
 30
0.0
  0
SPLINE
  5
286
100
AcDbEntity
  8
0
100
AcDbSpline
 62
7
  6
BYLAYER
 70
0
 71
3
 72
17
 73
13
 74
0
 42
0.0000001
 43
0.0000001
 44
0.0000000001
 40
0.0
 40
0.0
 40
0.0
 40
0.0
 40
0.1943324321
 40
0.3819877335
 40
0.5546571572
 40
0.7058478617
 40
0.8299673444
 40
0.9223678172
 40
0.9553231204
 40
0.9791376252
 40
0.9938111763
 40
1.0
 40
1.0
 40
1.0
 40
1.0
 10
83.6263903678
 20
156.6561594177
 30
0.0
 10
83.6393708488
 20
156.6561367417
 30
0.0
 10
83.6648850264
 20
156.6560513085
 30
0.0
 10
83.7019367307
 20
156.6561123018
 30
0.0
 10
83.7360921611
 20
156.6566994451
 30
0.0
 10
83.7660356054
 20
156.6569451003
 30
0.0
 10
83.7905431562
 20
156.6558023941
 30
0.0
 10
83.8072426512
 20
156.6546058963
 30
0.0
 10
83.8171049838
 20
156.6544330645
 30
0.0
 10
83.822052622
 20
156.654739787
 30
0.0
 10
83.8246813867
 20
156.6550663755
 30
0.0
 10
83.826387059
 20
156.6557511836
 30
0.0
 10
83.826387059
 20
156.6561645682
 30
0.0
  0
SPLINE
  5
287
100
AcDbEntity
  8
0
100
AcDbSpline
 62
7
  6
BYLAYER
 70
0
 71
3
 72
17
 73
13
 74
0
 42
0.0000001
 43
0.0000001
 44
0.0000000001
 40
0.0
 40
0.0
 40
0.0
 40
0.0
 40
0.2213970592
 40
0.4199789875
 40
0.5926037257
 40
0.7367400417
 40
0.8507888752
 40
0.9332627233
 40
0.9623379448
 40
0.9832017745
 40
0.9957786263
 40
1.0
 40
1.0
 40
1.0
 40
1.0
 10
75.803089568
 20
160.8561594314
 30
0.0
 10
75.7974291251
 20
160.8560818409
 30
0.0
 10
75.7866917157
 20
160.8559464504
 30
0.0
 10
75.7715383064
 20
160.8558242431
 30
0.0
 10
75.7583650532
 20
160.8558251679
 30
0.0
 10
75.747338785
 20
160.8559657235
 30
0.0
 10
75.7386596586
 20
160.8561046643
 30
0.0
 10
75.7328293312
 20
160.8562480986
 30
0.0
 10
75.7295285368
 20
160.8561964553
 30
0.0
 10
75.7277893042
 20
160.8563117942
 30
0.0
 10
75.7270762925
 20
160.8560899619
 30
0.0
 10
75.7263867796
 20
160.856291789
 30
0.0
 10
75.726387059
 20
160.8561838516
 30
0.0
  0
ENDSEC
  0
SECTION
  2
OBJECTS
  0
DICTIONARY
  5
C
100
AcDbDictionary
280
0
281
1
  3
ACAD_GROUP
350
D
  3
ACAD_MLINESTYLE
350
17
  3
ACAD_LAYOUT
350
1A
  3
ACAD_PLOTSETTINGS
350
19
  3
ACAD_PLOTSTYLENAME
350
E
  0
DICTIONARY
  5
D
102
{ACAD_REACTORS
330
C
102
}
100
AcDbDictionary
280
0
281
1
  0
ACDBDICTIONARYWDFLT
  5
E
102
{ACAD_REACTORS
330
C
102
}
100
AcDbDictionary
281
1
  3
Normal
350
F
100
AcDbDictionaryWithDefault
340
F
  0
DICTIONARY
  5
17
102
{ACAD_REACTORS
330
C
102
}
100
AcDbDictionary
280
0
281
1
  3
Standard
350
18
  0
DICTIONARY
  5
19
102
{ACAD_REACTORS
330
C
102
}
100
AcDbDictionary
281
1
  0
DICTIONARY
  5
1A
102
{ACAD_REACTORS
330
C
102
}
100
AcDbDictionary
281
1
  3
Model
350
288
  3
Layout1
350
289
  0
ACDBPLACEHOLDER
  5
F
102
{ACAD_REACTORS
330
E
102
}
  0
MLINESTYLE
  5
18
102
{ACAD_REACTORS
330
17
102
}
100
AcDbMlineStyle
  2
STANDARD
 70
0
  3

 62
256
 51
90.0
 52
90.0
 71
2
 49
0.5
 62
256
  6
BYLAYER
 49
-0.5
 62
256
  6
BYLAYER
  0
LAYOUT
  5
288
102
{ACAD_REACTORS
330
1A
102
}
100
AcDbPlotSettings
  1

  2
none_device
  4

  6

 40
0.0
 41
0.0
 42
0.0
 43
0.0
 44
210.0
 45
297.0
 46
0.0
 47
0.0
 48
0.0
 49
0.0
140
0.0
141
0.0
142
1.0
143
1.0
 70
1024
 72
1
 73
0
 74
0
  7

 75
0
147
1.0
148
0.0
149
0.0
100
AcDbLayout
  1
Model
 70
0
 71
0
 10
0.0
 20
0.0
 11
210.0
 21
297.0
 12
0.0
 22
0.0
 32
0.0
 14
0.0
 24
0.0
 34
0.0
 15
0.0
 25
0.0
 35
0.0
146
0.0
 13
0.0
 23
0.0
 33
0.0
 16
1.0
 26
0.0
 36
0.0
 17
0.0
 27
1.0
 37
0.0
 76
0
330
210
345
0
346
0
  0
LAYOUT
  5
289
102
{ACAD_REACTORS
330
1A
102
}
100
AcDbPlotSettings
  1

  2
none_device
  4

  6

 40
0.0
 41
0.0
 42
0.0
 43
0.0
 44
210.0
 45
297.0
 46
0.0
 47
0.0
 48
0.0
 49
0.0
140
0.0
141
0.0
142
1.0
143
1.0
 70
0
 72
1
 73
0
 74
0
  7

 75
0
147
1.0
148
0.0
149
0.0
100
AcDbLayout
  1
Layout1
 70
0
 71
1
 10
0.0
 20
0.0
 11
210.0
 21
297.0
 12
0.0
 22
0.0
 32
0.0
 14
0.0
 24
0.0
 34
0.0
 15
0.0
 25
0.0
 35
0.0
146
0.0
 13
0.0
 23
0.0
 33
0.0
 16
1.0
 26
0.0
 36
0.0
 17
0.0
 27
1.0
 37
0.0
 76
0
330
211
345
0
346
0
  0
ENDSEC
  0
EOF
