999
DXF file: C:\Users\sesa63760\Dev\_Creo\CAD\MCADID0004763_3D-CAD\drw0001_7.dxf
999
Pro/ENGINEER 2019471 by Parametric Technology Corporation
  0
SECTION
  2
HEADER
  9
$ACADVER
  1
AC1024
  9
$DWGCODEPAGE
  3
ANSI_1252
  9
$EXTMAX
 10
122.5087373737
 20
173.2623571429
 30
0.0
  9
$EXTMIN
 10
0.0
 20
0.0
 30
0.0
  9
$LIMMIN
 10
0.0
 20
0.0
  9
$LIMMAX
 10
122.5087373737
 20
173.2623571429
  9
$VIEWCTR
 10
61.2543686869
 20
86.6311785714
  9
$VIEWSIZE
 40
173.2623571429
  9
$CLAYER
  8
0
  9
$LTSCALE
 40
11.294138836
  9
$CELTYPE
  6
BYLAYER
  9
$DIMSCALE
 40
1.0
  9
$DIMASZ
 40
1.4584373497
  9
$DIMEXO
 40
1.0
  9
$DIMDLI
 40
7.8032231958
  9
$DIMEXE
 40
1.0
  9
$DIMCEN
 40
1.8481318095
  9
$DIMLFAC
 40
1.0
  9
$DIMBLK
  1
_FILLED
  9
$DIMALT
 70
0
  9
$DIMALTF
 40
0.0393700787
  9
$DIMTXT
 40
2.0418122896
  9
$DIMTOL
 70
1
  9
$DIMLIM
 70
0
  9
$DIMTFAC
 40
1.0
  9
$DIMTP
 40
0.01
  9
$DIMTM
 40
0.01
  9
$DIMGAP
 40
0.625
  9
$DIMDSEP
 70
46
  9
$AUNITS
 70
0
  9
$PDMODE
 70
3
  9
$PDSIZE
 40
0.3125
  9
$HANDSEED
  5
29B
  9
$TILEMODE
 70
1
  9
$MEASUREMENT
 70
1
  9
$INSUNITS
 70
4
  0
ENDSEC
  0
SECTION
  2
CLASSES
  0
CLASS
  1
ACDBDICTIONARYWDFLT
  2
AcDbDictionaryWithDefault
  3
AutoCAD 2000
 90
0
 91
1
280
0
281
0
  0
CLASS
  1
ACDBPLACEHOLDER
  2
AcDbPlaceHolder
  3
AutoCAD 2000
 90
0
 91
1
280
0
281
0
  0
CLASS
  1
LAYOUT
  2
AcDbLayout
  3
AutoCAD 2000
 90
0
 91
0
280
0
281
0
  0
ENDSEC
  0
SECTION
  2
TABLES
  0
TABLE
  2
VPORT
  5
8
100
AcDbSymbolTable
 70
2
  0
VPORT
  5
1F4
100
AcDbSymbolTableRecord
100
AcDbViewportTableRecord
  2
*ACTIVE
 70
0
 10
0.0
 20
0.0
 11
1.0
 21
1.0
 12
61.2543686869
 22
86.6311785714
 13
0.0
 23
0.0
 14
1.0
 24
1.0
 15
0.0
 25
0.0
 16
0.0
 26
0.0
 36
1.0
 17
0.0
 27
0.0
 37
0.0
 40
173.2623571429
 41
0.7070707071
 42
50.0
 43
0.0
 44
0.0
 50
0.0
 51
0.0
 71
0
 72
100
 73
1
 74
1
 75
0
 76
0
 77
0
 78
0
  0
ENDTAB
  0
TABLE
  2
LTYPE
  5
5
100
AcDbSymbolTable
 70
6
  0
LTYPE
  5
14
100
AcDbSymbolTableRecord
100
AcDbLinetypeTableRecord
  2
BYBLOCK
 70
0
  3

 72
65
 73
0
 40
0.0
  0
LTYPE
  5
15
100
AcDbSymbolTableRecord
100
AcDbLinetypeTableRecord
  2
BYLAYER
 70
0
  3

 72
65
 73
0
 40
0.0
  0
LTYPE
  5
16
100
AcDbSymbolTableRecord
100
AcDbLinetypeTableRecord
  2
CONTINUOUS
 70
64
  3
Solid line
 72
65
 73
0
 40
0.0
  0
LTYPE
  5
1F5
100
AcDbSymbolTableRecord
100
AcDbLinetypeTableRecord
  2
CENTER
 70
64
  3
____ _ ____ _ ____ _ ____ _ ____ _ ____ _ ____
 72
65
 73
4
 40
0.6
 49
0.375
 74
0
 49
-0.075
 74
0
 49
0.075
 74
0
 49
-0.075
 74
0
  0
LTYPE
  5
1F6
100
AcDbSymbolTableRecord
100
AcDbLinetypeTableRecord
  2
HIDDEN
 70
64
  3
- - - - - - - - - - - - - - - - - - - -
 72
65
 73
2
 40
0.2
 49
0.1
 74
0
 49
-0.1
 74
0
  0
LTYPE
  5
1F7
100
AcDbSymbolTableRecord
100
AcDbLinetypeTableRecord
  2
PHANTOM
 70
64
  3
_____ _ _ _____ _ _ _____ _ _ _____
 72
65
 73
6
 40
0.8
 49
0.45
 74
0
 49
-0.05
 74
0
 49
0.1
 74
0
 49
-0.05
 74
0
 49
0.1
 74
0
 49
-0.05
 74
0
  0
LTYPE
  5
1F8
100
AcDbSymbolTableRecord
100
AcDbLinetypeTableRecord
  2
DOT
 70
64
  3
. . . . . . . . . . . . . . . . . . . .
 72
65
 73
2
 40
0.2
 49
0.1
 74
0
 49
-0.1
 74
0
  0
LTYPE
  5
1F9
100
AcDbSymbolTableRecord
100
AcDbLinetypeTableRecord
  2
DASHED
 70
64
  3
- - - - - - - - - - - - - - - - - - - -
 72
65
 73
2
 40
0.2
 49
0.1
 74
0
 49
-0.1
 74
0
  0
ENDTAB
  0
TABLE
  2
LAYER
  5
2
100
AcDbSymbolTable
 70
36
  0
LAYER
  5
10
100
AcDbSymbolTableRecord
100
AcDbLayerTableRecord
  2
0
 70
0
 62
7
  6
CONTINUOUS
370
-3
390
F
  0
LAYER
  5
1FA
100
AcDbSymbolTableRecord
100
AcDbLayerTableRecord
  2
DEFAULT_1
 70
0
 62
7
  6
CENTER
370
-3
390
F
  0
LAYER
  5
1FB
100
AcDbSymbolTableRecord
100
AcDbLayerTableRecord
  2
DEFAULT_2
 70
0
 62
7
  6
HIDDEN
370
-3
390
F
  0
LAYER
  5
1FC
100
AcDbSymbolTableRecord
100
AcDbLayerTableRecord
  2
DEFAULT_3
 70
0
 62
7
  6
PHANTOM
370
-3
390
F
  0
LAYER
  5
1FD
100
AcDbSymbolTableRecord
100
AcDbLayerTableRecord
  2
00_COMPONENTS
 70
0
 62
7
  6
CONTINUOUS
370
-3
390
F
  0
LAYER
  5
1FE
100
AcDbSymbolTableRecord
100
AcDbLayerTableRecord
  2
01_1_DEFAULT_DATUMS
 70
0
 62
7
  6
CONTINUOUS
370
-3
390
F
  0
LAYER
  5
1FF
100
AcDbSymbolTableRecord
100
AcDbLayerTableRecord
  2
01_PLANES
 70
0
 62
7
  6
CONTINUOUS
370
-3
390
F
  0
LAYER
  5
200
100
AcDbSymbolTableRecord
100
AcDbLayerTableRecord
  2
02_COORD_SYS
 70
0
 62
7
  6
CONTINUOUS
370
-3
390
F
  0
LAYER
  5
201
100
AcDbSymbolTableRecord
100
AcDbLayerTableRecord
  2
03_AXES
 70
0
 62
7
  6
CONTINUOUS
370
-3
390
F
  0
LAYER
  5
202
100
AcDbSymbolTableRecord
100
AcDbLayerTableRecord
  2
04_POINTS
 70
0
 62
7
  6
CONTINUOUS
370
-3
390
F
  0
LAYER
  5
203
100
AcDbSymbolTableRecord
100
AcDbLayerTableRecord
  2
05_CURVES
 70
0
 62
7
  6
CONTINUOUS
370
-3
390
F
  0
LAYER
  5
204
100
AcDbSymbolTableRecord
100
AcDbLayerTableRecord
  2
06_SURFS
 70
0
 62
7
  6
CONTINUOUS
370
-3
390
F
  0
LAYER
  5
205
100
AcDbSymbolTableRecord
100
AcDbLayerTableRecord
  2
07_COSMETICS
 70
0
 62
7
  6
CONTINUOUS
370
-3
390
F
  0
LAYER
  5
206
100
AcDbSymbolTableRecord
100
AcDbLayerTableRecord
  2
10_NOTES
 70
0
 62
7
  6
CONTINUOUS
370
-3
390
F
  0
LAYER
  5
207
100
AcDbSymbolTableRecord
100
AcDbLayerTableRecord
  2
11_NOTES_PUB
 70
0
 62
7
  6
CONTINUOUS
370
-3
390
F
  0
LAYER
  5
208
100
AcDbSymbolTableRecord
100
AcDbLayerTableRecord
  2
13_REF_GTOL
 70
0
 62
7
  6
CONTINUOUS
370
-3
390
F
  0
LAYER
  5
209
100
AcDbSymbolTableRecord
100
AcDbLayerTableRecord
  2
16_MISC
 70
0
 62
7
  6
CONTINUOUS
370
-3
390
F
  0
LAYER
  5
20A
100
AcDbSymbolTableRecord
100
AcDbLayerTableRecord
  2
17_NO_PRINT
 70
0
 62
7
  6
CONTINUOUS
370
-3
390
F
  0
LAYER
  5
20B
100
AcDbSymbolTableRecord
100
AcDbLayerTableRecord
  2
18_DATUM_CAMS_JOINTS
 70
0
 62
7
  6
CONTINUOUS
370
-3
390
F
  0
LAYER
  5
20C
100
AcDbSymbolTableRecord
100
AcDbLayerTableRecord
  2
19_DATUM_FUNCTIONAL
 70
0
 62
7
  6
CONTINUOUS
370
-3
390
F
  0
LAYER
  5
20D
100
AcDbSymbolTableRecord
100
AcDbLayerTableRecord
  2
20_DATUM_KINEMATIC_SCHEME
 70
0
 62
7
  6
CONTINUOUS
370
-3
390
F
  0
ENDTAB
  0
TABLE
  2
STYLE
  5
3
100
AcDbSymbolTable
 70
1
  0
STYLE
  5
11
100
AcDbSymbolTableRecord
100
AcDbTextStyleTableRecord
  2
STANDARD
 70
0
 40
0.0
 41
1.0
 50
0.0
 71
0
 42
0.2
  3
ARIAL.TTF
  4

  0
STYLE
  5
20E
100
AcDbSymbolTableRecord
100
AcDbTextStyleTableRecord
  2
TEXTSTYLE_1
 70
0
 40
0.0
 41
0.8
 50
0.0
 71
0
 42
0.2
  3
gdt
  4

  0
ENDTAB
  0
TABLE
  2
VIEW
  5
6
100
AcDbSymbolTable
 70
0
  0
ENDTAB
  0
TABLE
  2
UCS
  5
7
100
AcDbSymbolTable
 70
0
  0
ENDTAB
  0
TABLE
  2
APPID
  5
9
100
AcDbSymbolTable
 70
1
  0
APPID
  5
20F
100
AcDbSymbolTableRecord
100
AcDbRegAppTableRecord
  2
ACAD
 70
0
  0
ENDTAB
  0
TABLE
  2
BLOCK_RECORD
  5
1
100
AcDbSymbolTable
 70
0
  0
BLOCK_RECORD
  5
210
100
AcDbSymbolTableRecord
100
AcDbBlockTableRecord
  2
*Model_Space
  0
BLOCK_RECORD
  5
211
100
AcDbSymbolTableRecord
100
AcDbBlockTableRecord
  2
*Paper_Space
  0
BLOCK_RECORD
  5
212
100
AcDbSymbolTableRecord
100
AcDbBlockTableRecord
  2
_FILLED
  0
ENDTAB
  0
TABLE
  2
DIMSTYLE
  5
A
100
AcDbSymbolTable
 70
1
100
AcDbDimStyleTable
 71
0
  0
DIMSTYLE
105
213
100
AcDbSymbolTableRecord
100
AcDbDimStyleTableRecord
  2
STANDARD
 70
0
  3

  4

 40
1.0
 41
1.4584373497
 42
1.0
 43
0.38
 44
1.0
 45
0.0
 46
0.0
 47
0.01
 48
0.01
140
2.0418122896
141
0.09
142
0.0
143
25.4
144
1.0
145
0.0
146
1.0
147
0.625
 71
1
 72
0
 73
0
 74
0
 75
0
 76
0
 77
1
 78
8
 79
2
170
0
171
1
172
0
173
0
174
0
175
0
176
0
177
0
178
0
270
2
179
2
271
2
272
2
273
2
274
2
275
0
280
0
281
0
282
0
283
1
284
8
285
0
286
0
287
3
288
0
340
11
278
46
341
212
342
212
343
212
344
212
  0
ENDTAB
  0
ENDSEC
  0
SECTION
  2
BLOCKS
  0
BLOCK
  5
20
100
AcDbEntity
  8
0
100
AcDbBlockBegin
  2
*Model_Space
 70
0
 10
0.0
 20
0.0
 30
0.0
  3
*Model_Space
  1

  0
ENDBLK
  5
21
100
AcDbEntity
  8
0
100
AcDbBlockEnd
  0
BLOCK
  5
1C
100
AcDbEntity
  8
0
100
AcDbBlockBegin
  2
*Paper_Space
 70
0
 10
0.0
 20
0.0
 30
0.0
  3
*Paper_Space
  1

  0
ENDBLK
  5
1D
100
AcDbEntity
  8
0
100
AcDbBlockEnd
  0
BLOCK
  5
214
100
AcDbEntity
  8
0
100
AcDbBlockBegin
  2
_FILLED
 70
64
 10
0.0
 20
0.0
  3
_FILLED
  1

  0
SOLID
  5
215
100
AcDbEntity
  8
0
  6
BYBLOCK
 62
0
100
AcDbTrace
 10
0.0
 20
0.0
 11
-1.0
 21
0.25
 12
-1.0
 22
-0.25
 13
-1.0
 23
-0.25
  0
ENDBLK
  5
216
100
AcDbEntity
  8
0
  6
BYBLOCK
 62
0
100
AcDbBlockEnd
  0
ENDSEC
  0
SECTION
  2
ENTITIES
  0
LINE
  5
217
100
AcDbEntity
  8
0
100
AcDbLine
 62
7
  6
BYLAYER
 10
67.8433650241
 20
12.8303214286
 11
55.0895152072
 21
12.8303214286
  0
LINE
  5
218
100
AcDbEntity
  8
0
100
AcDbLine
 62
7
  6
BYLAYER
 10
68.1940878503
 20
13.2434973397
 11
66.7798742879
 21
13.2434973397
  0
LINE
  5
219
100
AcDbEntity
  8
0
100
AcDbLine
 62
7
  6
BYLAYER
 10
64.923164841
 20
13.2434973397
 11
58.0097153899
 21
13.2434973397
  0
LINE
  5
21A
100
AcDbEntity
  8
0
100
AcDbLine
 62
7
  6
BYLAYER
 10
56.153005943
 20
13.2434973397
 11
54.7387923806
 21
13.2434973397
  0
LINE
  5
21B
100
AcDbEntity
  8
0
100
AcDbLine
 62
7
  6
BYLAYER
 10
57.6908754127
 20
15.7671455174
 11
65.2420048182
 21
15.7671455174
  0
LINE
  5
21C
100
AcDbEntity
  8
0
100
AcDbLine
 62
7
  6
BYLAYER
 10
70.6116222966
 20
16.1803214286
 11
52.3212566245
 21
16.1803214286
  0
LINE
  5
21D
100
AcDbEntity
  8
0
100
AcDbLine
 62
7
  6
BYLAYER
 10
71.044752279
 20
16.4303214286
 11
68.5836487272
 21
16.4303214286
  0
LINE
  5
21E
100
AcDbEntity
  8
0
100
AcDbLine
 62
7
  6
BYLAYER
 10
67.876541946
 20
16.4303214286
 11
51.8881279519
 21
16.4303214286
  0
LINE
  5
21F
100
AcDbEntity
  8
0
100
AcDbLine
 62
7
  6
BYLAYER
 10
72.7663899332
 20
17.1803214286
 11
70.1664902976
 21
17.1803214286
  0
LINE
  5
220
100
AcDbEntity
  8
0
100
AcDbLine
 62
7
  6
BYLAYER
 10
52.7663899332
 20
17.1803214286
 11
50.1664902976
 21
17.1803214286
  0
LINE
  5
221
100
AcDbEntity
  8
0
100
AcDbLine
 62
7
  6
BYLAYER
 10
72.9664401154
 20
17.3803214286
 11
69.9664401154
 21
17.3803214286
  0
LINE
  5
222
100
AcDbEntity
  8
0
100
AcDbLine
 62
7
  6
BYLAYER
 10
52.9664401154
 20
17.3803214286
 11
49.9664401154
 21
17.3803214286
  0
LINE
  5
223
100
AcDbEntity
  8
0
100
AcDbLine
 62
7
  6
BYLAYER
 10
52.9664401154
 20
17.4124587653
 11
68.2780145967
 21
17.4124587653
  0
LINE
  5
224
100
AcDbEntity
  8
0
100
AcDbLine
 62
7
  6
BYLAYER
 10
68.9851213779
 20
17.4124587653
 11
69.9664401154
 21
17.4124587653
  0
LINE
  5
225
100
AcDbEntity
  8
0
100
AcDbLine
 62
7
  6
BYLAYER
 10
69.9664401154
 20
17.6537325621
 11
69.0320127148
 21
17.6537325621
  0
LINE
  5
226
100
AcDbEntity
  8
0
100
AcDbLine
 62
7
  6
BYLAYER
 10
68.3259136441
 20
17.6537325621
 11
52.9664401154
 21
17.6537325621
  0
LINE
  5
227
100
AcDbEntity
  8
0
100
AcDbLine
 62
7
  6
BYLAYER
 10
49.9664401154
 20
22.1803214286
 11
52.9664401154
 21
22.1803214286
  0
LINE
  5
228
100
AcDbEntity
  8
0
100
AcDbLine
 62
7
  6
BYLAYER
 10
69.9664401154
 20
22.1803214286
 11
72.9664401154
 21
22.1803214286
  0
LINE
  5
229
100
AcDbEntity
  8
0
100
AcDbLine
 62
7
  6
BYLAYER
 10
72.7664401154
 20
22.3803214286
 11
70.1664401154
 21
22.3803214286
  0
LINE
  5
22A
100
AcDbEntity
  8
0
100
AcDbLine
 62
7
  6
BYLAYER
 10
52.7664401154
 20
22.3803214286
 11
50.1664401154
 21
22.3803214286
  0
LINE
  5
22B
100
AcDbEntity
  8
0
100
AcDbLine
 62
7
  6
BYLAYER
 10
70.1664401154
 20
22.6803214286
 11
69.0948468094
 21
22.6803214286
  0
LINE
  5
22C
100
AcDbEntity
  8
0
100
AcDbLine
 62
7
  6
BYLAYER
 10
68.3869712446
 20
22.6803214286
 11
52.7664401154
 21
22.6803214286
  0
LINE
  5
22D
100
AcDbEntity
  8
0
100
AcDbLine
 62
7
  6
BYLAYER
 10
73.4664401154
 20
23.0803214286
 11
72.7664401154
 21
23.0803214286
  0
LINE
  5
22E
100
AcDbEntity
  8
0
100
AcDbLine
 62
7
  6
BYLAYER
 10
72.2471210898
 20
23.0803214286
 11
66.998861572
 21
23.0803214286
  0
LINE
  5
22F
100
AcDbEntity
  8
0
100
AcDbLine
 62
7
  6
BYLAYER
 10
55.9340186589
 20
23.0803214286
 11
50.6857591411
 21
23.0803214286
  0
LINE
  5
230
100
AcDbEntity
  8
0
100
AcDbLine
 62
7
  6
BYLAYER
 10
50.1664401154
 20
23.0803214286
 11
49.4664401154
 21
23.0803214286
  0
LINE
  5
231
100
AcDbEntity
  8
0
100
AcDbLine
 62
7
  6
BYLAYER
 10
74.9664401154
 20
23.6803214286
 11
47.9664401154
 21
23.6803214286
  0
LINE
  5
232
100
AcDbEntity
  8
0
100
AcDbLine
 62
7
  6
BYLAYER
 10
47.9664401154
 20
30.1803214286
 11
74.9664401154
 21
30.1803214286
  0
LINE
  5
233
100
AcDbEntity
  8
0
100
AcDbLine
 62
7
  6
BYLAYER
 10
50.1664401154
 20
17.1803214286
 11
49.9664401154
 21
17.3803214286
  0
LINE
  5
234
100
AcDbEntity
  8
0
100
AcDbLine
 62
7
  6
BYLAYER
 10
74.9664401154
 20
32.6803214286
 11
47.9664401154
 21
32.6803214286
  0
LINE
  5
235
100
AcDbEntity
  8
0
100
AcDbLine
 62
7
  6
BYLAYER
 10
47.9664401154
 20
33.6803214286
 11
74.9664401154
 21
33.6803214286
  0
LINE
  5
236
100
AcDbEntity
  8
0
100
AcDbLine
 62
7
  6
BYLAYER
 10
48.4664401154
 20
35.6803214286
 11
74.4664401154
 21
35.6803214286
  0
LINE
  5
237
100
AcDbEntity
  8
0
100
AcDbLine
 62
7
  6
BYLAYER
 10
53.7164401154
 20
36.1803214286
 11
69.2164401154
 21
36.1803214286
  0
LINE
  5
238
100
AcDbEntity
  8
0
100
AcDbLine
 62
7
  6
BYLAYER
 10
66.7164401154
 20
36.9303214286
 11
56.2164401154
 21
36.9303214286
  0
LINE
  5
239
100
AcDbEntity
  8
0
100
AcDbLine
 62
7
  6
BYLAYER
 10
52.7664401154
 20
22.3803214286
 11
52.9664401154
 21
22.1803214286
  0
LINE
  5
23A
100
AcDbEntity
  8
0
100
AcDbLine
 62
7
  6
BYLAYER
 10
56.2164401154
 20
42.7303214286
 11
66.7164401154
 21
42.7303214286
  0
LINE
  5
23B
100
AcDbEntity
  8
0
100
AcDbLine
 62
7
  6
BYLAYER
 10
57.2664401154
 20
43.7803214286
 11
65.6664401154
 21
43.7803214286
  0
LINE
  5
23C
100
AcDbEntity
  8
0
100
AcDbLine
 62
7
  6
BYLAYER
 10
64.6690680596
 20
44.0303214286
 11
58.2638121713
 21
44.0303214286
  0
LINE
  5
23D
100
AcDbEntity
  8
0
100
AcDbLine
 62
7
  6
BYLAYER
 10
59.2164401154
 20
45.6803214286
 11
63.7164401154
 21
45.6803214286
  0
LINE
  5
23E
100
AcDbEntity
  8
0
100
AcDbLine
 62
7
  6
BYLAYER
 10
64.5664401154
 20
46.2803214286
 11
58.3664401154
 21
46.2803214286
  0
LINE
  5
23F
100
AcDbEntity
  8
0
100
AcDbLine
 62
7
  6
BYLAYER
 10
70.1664401154
 20
17.1803214286
 11
69.9664401154
 21
17.3803214286
  0
LINE
  5
240
100
AcDbEntity
  8
0
100
AcDbLine
 62
7
  6
BYLAYER
 10
51.8881279519
 20
16.4303214286
 11
51.45511525
 21
17.1803214286
  0
LINE
  5
241
100
AcDbEntity
  8
0
100
AcDbLine
 62
7
  6
BYLAYER
 10
72.7664401154
 20
22.3803214286
 11
72.9664401154
 21
22.1803214286
  0
LINE
  5
242
100
AcDbEntity
  8
0
100
AcDbLine
 62
7
  6
BYLAYER
 10
58.3664401154
 20
60.1803214286
 11
63.5797061565
 21
60.1803214286
  0
LINE
  5
243
100
AcDbEntity
  8
0
100
AcDbLine
 62
7
  6
BYLAYER
 10
64.5664401154
 20
62.0803214286
 11
63.3664401154
 21
62.0803214286
  0
LINE
  5
244
100
AcDbEntity
  8
0
100
AcDbLine
 62
7
  6
BYLAYER
 10
63.7164401154
 20
45.6803214286
 11
64.6690680596
 21
44.0303214286
  0
LINE
  5
245
100
AcDbEntity
  8
0
100
AcDbLine
 62
7
  6
BYLAYER
 10
47.9664401154
 20
33.6803214286
 11
47.9664401154
 21
32.6803214286
  0
LINE
  5
246
100
AcDbEntity
  8
0
100
AcDbLine
 62
7
  6
BYLAYER
 10
47.9664401154
 20
23.6803214286
 11
47.9664401154
 21
30.1803214286
  0
LINE
  5
247
100
AcDbEntity
  8
0
100
AcDbLine
 62
7
  6
BYLAYER
 10
48.0164401154
 20
32.6803214286
 11
48.0164401154
 21
30.1803214286
  0
LINE
  5
248
100
AcDbEntity
  8
0
100
AcDbLine
 62
7
  6
BYLAYER
 10
48.4664401154
 20
32.6803214286
 11
48.4664401154
 21
35.6803214286
  0
LINE
  5
249
100
AcDbEntity
  8
0
100
AcDbLine
 62
7
  6
BYLAYER
 10
48.6663444861
 20
23.6803214286
 11
48.666340825
 21
30.1803214286
  0
LINE
  5
24A
100
AcDbEntity
  8
0
100
AcDbLine
 62
7
  6
BYLAYER
 10
48.7164401154
 20
30.1803214286
 11
48.7164401154
 21
32.6803214286
  0
LINE
  5
24B
100
AcDbEntity
  8
0
100
AcDbLine
 62
7
  6
BYLAYER
 10
49.4664401154
 20
23.6803214286
 11
49.4664401154
 21
23.0803214286
  0
LINE
  5
24C
100
AcDbEntity
  8
0
100
AcDbLine
 62
7
  6
BYLAYER
 10
49.6250989693
 20
23.0803214286
 11
49.6250989693
 21
23.6803214286
  0
LINE
  5
24D
100
AcDbEntity
  8
0
100
AcDbLine
 62
7
  6
BYLAYER
 10
49.9664401154
 20
22.1803214286
 11
49.9664401154
 21
17.3803214286
  0
LINE
  5
24E
100
AcDbEntity
  8
0
100
AcDbLine
 62
7
  6
BYLAYER
 10
50.1664401154
 20
23.6803214286
 11
50.1664401154
 21
22.3803214286
  0
LINE
  5
24F
100
AcDbEntity
  8
0
100
AcDbLine
 62
7
  6
BYLAYER
 10
50.6857591411
 20
23.6803214286
 11
50.6857591411
 21
23.0803214286
  0
LINE
  5
250
100
AcDbEntity
  8
0
100
AcDbLine
 62
7
  6
BYLAYER
 10
51.9840782056
 20
23.0803214286
 11
51.9840782056
 21
23.6803214286
  0
LINE
  5
251
100
AcDbEntity
  8
0
100
AcDbLine
 62
7
  6
BYLAYER
 10
49.8198384805
 20
23.0803214286
 11
49.828042894
 21
23.6803214286
  0
LINE
  5
252
100
AcDbEntity
  8
0
100
AcDbLine
 62
7
  6
BYLAYER
 10
52.7664401154
 20
23.0803214286
 11
52.7664401154
 21
22.3803214286
  0
LINE
  5
253
100
AcDbEntity
  8
0
100
AcDbLine
 62
7
  6
BYLAYER
 10
52.9664401154
 20
22.1803214286
 11
52.9664401154
 21
17.3803214286
  0
LINE
  5
254
100
AcDbEntity
  8
0
100
AcDbLine
 62
7
  6
BYLAYER
 10
54.4664401154
 20
33.6803214286
 11
54.4664401154
 21
35.6803214286
  0
LINE
  5
255
100
AcDbEntity
  8
0
100
AcDbLine
 62
7
  6
BYLAYER
 10
55.9340186589
 20
23.6803214286
 11
55.9340186589
 21
23.0803214286
  0
LINE
  5
256
100
AcDbEntity
  8
0
100
AcDbLine
 62
7
  6
BYLAYER
 10
56.2164401154
 20
42.7303214286
 11
56.2164401154
 21
36.9303214286
  0
LINE
  5
257
100
AcDbEntity
  8
0
100
AcDbLine
 62
7
  6
BYLAYER
 10
58.3664401154
 20
46.2803214286
 11
58.3664401154
 21
60.1803214286
  0
LINE
  5
258
100
AcDbEntity
  8
0
100
AcDbLine
 62
7
  6
BYLAYER
 10
63.3664401154
 20
60.1803214286
 11
63.3664401154
 21
161.2803214286
  0
LINE
  5
259
100
AcDbEntity
  8
0
100
AcDbLine
 62
7
  6
BYLAYER
 10
64.5664401154
 20
46.2803214286
 11
64.5664401154
 21
161.2803214286
  0
LINE
  5
25A
100
AcDbEntity
  8
0
100
AcDbLine
 62
7
  6
BYLAYER
 10
66.7164401154
 20
42.7303214286
 11
66.7164401154
 21
36.9303214286
  0
LINE
  5
25B
100
AcDbEntity
  8
0
100
AcDbLine
 62
7
  6
BYLAYER
 10
66.998861572
 20
23.0803214286
 11
66.998861572
 21
23.6803214286
  0
LINE
  5
25C
100
AcDbEntity
  8
0
100
AcDbLine
 62
7
  6
BYLAYER
 10
68.3874755526
 20
22.6803214286
 11
68.3874853782
 21
23.0803214286
  0
LINE
  5
25D
100
AcDbEntity
  8
0
100
AcDbLine
 62
7
  6
BYLAYER
 10
68.4664401154
 20
35.6803214286
 11
68.4664401154
 21
33.6803214286
  0
LINE
  5
25E
100
AcDbEntity
  8
0
100
AcDbLine
 62
7
  6
BYLAYER
 10
68.5289214729
 20
16.3289511031
 11
68.5289214729
 21
23.0803214286
  0
LINE
  5
25F
100
AcDbEntity
  8
0
100
AcDbLine
 62
7
  6
BYLAYER
 10
69.0945921594
 20
23.0803214286
 11
69.0945823338
 21
22.6803214286
  0
LINE
  5
260
100
AcDbEntity
  8
0
100
AcDbLine
 62
7
  6
BYLAYER
 10
69.9664401154
 20
22.1803214286
 11
69.9664401154
 21
17.3803214286
  0
LINE
  5
261
100
AcDbEntity
  8
0
100
AcDbLine
 62
7
  6
BYLAYER
 10
70.1664401154
 20
23.0803214286
 11
70.1664401154
 21
22.3803214286
  0
LINE
  5
262
100
AcDbEntity
  8
0
100
AcDbLine
 62
7
  6
BYLAYER
 10
70.9488020252
 20
23.6803214286
 11
70.9488020252
 21
23.0803214286
  0
LINE
  5
263
100
AcDbEntity
  8
0
100
AcDbLine
 62
7
  6
BYLAYER
 10
68.3874755526
 20
22.6803214286
 11
68.3254097537
 21
17.6537325621
  0
LINE
  5
264
100
AcDbEntity
  8
0
100
AcDbLine
 62
7
  6
BYLAYER
 10
69.0325165349
 20
17.6537325621
 11
69.0945823338
 21
22.6803214286
  0
LINE
  5
265
100
AcDbEntity
  8
0
100
AcDbLine
 62
7
  6
BYLAYER
 10
73.1048373368
 20
23.6803214286
 11
73.1130417504
 21
23.0803214286
  0
LINE
  5
266
100
AcDbEntity
  8
0
100
AcDbLine
 62
7
  6
BYLAYER
 10
72.2471210898
 20
23.0803214286
 11
72.2471210898
 21
23.6803214286
  0
LINE
  5
267
100
AcDbEntity
  8
0
100
AcDbLine
 62
7
  6
BYLAYER
 10
72.7664401154
 20
23.6803214286
 11
72.7664401154
 21
22.3803214286
  0
LINE
  5
268
100
AcDbEntity
  8
0
100
AcDbLine
 62
7
  6
BYLAYER
 10
72.9664401154
 20
22.1803214286
 11
72.9664401154
 21
17.3803214286
  0
LINE
  5
269
100
AcDbEntity
  8
0
100
AcDbLine
 62
7
  6
BYLAYER
 10
73.3077812615
 20
23.6803214286
 11
73.3077812615
 21
23.0803214286
  0
LINE
  5
26A
100
AcDbEntity
  8
0
100
AcDbLine
 62
7
  6
BYLAYER
 10
73.4664401154
 20
23.0803214286
 11
73.4664401154
 21
23.6803214286
  0
LINE
  5
26B
100
AcDbEntity
  8
0
100
AcDbLine
 62
7
  6
BYLAYER
 10
74.2164401154
 20
32.6803214286
 11
74.2164401154
 21
30.1803214286
  0
LINE
  5
26C
100
AcDbEntity
  8
0
100
AcDbLine
 62
7
  6
BYLAYER
 10
74.2665379277
 20
23.6803214286
 11
74.2665408613
 21
30.1803214286
  0
LINE
  5
26D
100
AcDbEntity
  8
0
100
AcDbLine
 62
7
  6
BYLAYER
 10
74.4664401154
 20
32.6803214286
 11
74.4664401154
 21
35.6803214286
  0
LINE
  5
26E
100
AcDbEntity
  8
0
100
AcDbLine
 62
7
  6
BYLAYER
 10
74.9164401154
 20
30.1803214286
 11
74.9164401154
 21
32.6803214286
  0
LINE
  5
26F
100
AcDbEntity
  8
0
100
AcDbLine
 62
7
  6
BYLAYER
 10
74.9664401154
 20
23.6803214286
 11
74.9664401154
 21
30.1803214286
  0
LINE
  5
270
100
AcDbEntity
  8
0
100
AcDbLine
 62
7
  6
BYLAYER
 10
74.9664401154
 20
32.6803214286
 11
74.9664401154
 21
33.6803214286
  0
LINE
  5
271
100
AcDbEntity
  8
0
100
AcDbLine
 62
7
  6
BYLAYER
 10
59.2164401154
 20
45.6803214286
 11
58.2638121713
 21
44.0303214286
  0
LINE
  5
272
100
AcDbEntity
  8
0
100
AcDbLine
 62
7
  6
BYLAYER
 10
50.1664401154
 20
22.3803214286
 11
49.9664401154
 21
22.1803214286
  0
LINE
  5
273
100
AcDbEntity
  8
0
100
AcDbLine
 62
7
  6
BYLAYER
 10
71.044752279
 20
16.4303214286
 11
71.4777649808
 21
17.1803214286
  0
LINE
  5
274
100
AcDbEntity
  8
0
100
AcDbLine
 62
7
  6
BYLAYER
 10
52.7664401154
 20
17.1803214286
 11
52.9664401154
 21
17.3803214286
  0
LINE
  5
275
100
AcDbEntity
  8
0
100
AcDbLine
 62
7
  6
BYLAYER
 10
70.1664401154
 20
22.3803214286
 11
69.9664401154
 21
22.1803214286
  0
LINE
  5
276
100
AcDbEntity
  8
0
100
AcDbLine
 62
7
  6
BYLAYER
 10
72.7664401154
 20
17.1803214286
 11
72.9664401154
 21
17.3803214286
  0
LINE
  5
277
100
AcDbEntity
  8
0
100
AcDbLine
 62
7
  6
BYLAYER
 10
63.366456618
 20
161.2803214286
 11
64.5664236128
 21
161.2803214286
  0
ARC
  5
278
100
AcDbEntity
  8
0
100
AcDbCircle
 62
7
  6
BYLAYER
 10
65.6664401154
 20
42.7303214286
 40
1.05
100
AcDbArc
 50
0.0
 51
90.0
  0
ARC
  5
279
100
AcDbEntity
  8
0
100
AcDbCircle
 62
7
  6
BYLAYER
 10
57.2664401154
 20
42.7303214286
 40
1.05
100
AcDbArc
 50
90.0
 51
180.0
  0
ARC
  5
27A
100
AcDbEntity
  8
0
100
AcDbCircle
 62
7
  6
BYLAYER
 10
55.4664401154
 20
36.9303214286
 40
0.75
100
AcDbArc
 50
270.0
 51
360.0
  0
ARC
  5
27B
100
AcDbEntity
  8
0
100
AcDbCircle
 62
7
  6
BYLAYER
 10
67.4664401154
 20
36.9303214286
 40
0.75
100
AcDbArc
 50
180.0
 51
270.0
  0
ARC
  5
27C
100
AcDbEntity
  8
0
100
AcDbCircle
 62
7
  6
BYLAYER
 10
69.2164401154
 20
35.6803214286
 40
0.5
100
AcDbArc
 50
0.0
 51
90.0
  0
ARC
  5
27D
100
AcDbEntity
  8
0
100
AcDbCircle
 62
7
  6
BYLAYER
 10
53.7164401154
 20
35.6803214286
 40
0.5
100
AcDbArc
 50
90.0
 51
180.0
  0
ARC
  5
27E
100
AcDbEntity
  8
0
100
AcDbCircle
 62
7
  6
BYLAYER
 10
57.8307994694
 20
44.2803214286
 40
0.5
100
AcDbArc
 50
270.0
 51
330.0
  0
ARC
  5
27F
100
AcDbEntity
  8
0
100
AcDbCircle
 62
7
  6
BYLAYER
 10
65.1020807615
 20
44.2803214286
 40
0.5
100
AcDbArc
 50
210.0
 51
270.0
  0
ARC
  5
280
100
AcDbEntity
  8
0
100
AcDbCircle
 62
7
  6
BYLAYER
 10
52.3211406538
 20
16.6803214286
 40
0.5
100
AcDbArc
 50
210.0
 51
270.0
  0
ARC
  5
281
100
AcDbEntity
  8
0
100
AcDbCircle
 62
7
  6
BYLAYER
 10
70.6117395771
 20
16.6803214286
 40
0.5
100
AcDbArc
 50
270.0
 51
330.0
  0
LINE
  5
282
100
AcDbEntity
  8
0
100
AcDbLine
 62
7
  6
BYLAYER
 10
67.876541946
 20
16.4303214286
 11
68.2780145967
 21
17.4124587653
  0
SPLINE
  5
283
100
AcDbEntity
  8
0
100
AcDbSpline
 62
7
  6
BYLAYER
 70
0
 71
3
 72
12
 73
8
 74
0
 42
0.0000001
 43
0.0000001
 44
0.0000000001
 40
0.0
 40
0.0
 40
0.0
 40
0.0
 40
0.105600779
 40
0.2143735998
 40
0.4484824583
 40
0.7123116522
 40
1.0
 40
1.0
 40
1.0
 40
1.0
 10
55.0895152694
 20
12.8303214286
 30
0.0
 10
55.0688249215
 20
12.8303214286
 30
0.0
 10
55.0266608053
 20
12.8356276184
 30
0.0
 10
54.9438340448
 20
12.8670292857
 30
0.0
 10
54.8503210947
 20
12.9460126139
 30
0.0
 10
54.7725880222
 20
13.0813912426
 30
0.0
 10
54.7458134953
 20
13.1875695856
 30
0.0
 10
54.7387923806
 20
13.2434973397
 30
0.0
  0
LINE
  5
284
100
AcDbEntity
  8
0
100
AcDbLine
 62
7
  6
BYLAYER
 10
54.3702511392
 20
16.1803214286
 11
54.7387923806
 21
13.2434973397
  0
LINE
  5
285
100
AcDbEntity
  8
0
100
AcDbLine
 62
7
  6
BYLAYER
 10
68.1940878503
 20
13.2434973397
 11
68.5626290917
 21
16.1803214286
  0
SPLINE
  5
286
100
AcDbEntity
  8
0
100
AcDbSpline
 62
7
  6
BYLAYER
 70
0
 71
3
 72
12
 73
8
 74
0
 42
0.0000001
 43
0.0000001
 44
0.0000000001
 40
0.0
 40
0.0
 40
0.0
 40
0.0
 40
0.2876965506
 40
0.5515237812
 40
0.7856297066
 40
0.8944000209
 40
1.0
 40
1.0
 40
1.0
 40
1.0
 10
68.1940878503
 20
13.2434973397
 30
0.0
 10
68.1870665398
 20
13.187568026
 30
0.0
 10
68.160288251
 20
13.0813898728
 30
0.0
 10
68.0825585243
 20
12.9460080209
 30
0.0
 10
67.9890433533
 20
12.8670302453
 30
0.0
 10
67.906218913
 20
12.8356263471
 30
0.0
 10
67.8640552015
 20
12.8303214286
 30
0.0
 10
67.8433650233
 20
12.8303214286
 30
0.0
  0
SPLINE
  5
287
100
AcDbEntity
  8
0
100
AcDbSpline
 62
7
  6
BYLAYER
 70
0
 71
3
 72
9
 73
5
 74
0
 42
0.0000001
 43
0.0000001
 44
0.0000000001
 40
0.0
 40
0.0
 40
0.0
 40
0.0
 40
0.2558910653
 40
1.0
 40
1.0
 40
1.0
 40
1.0
 10
68.3254097537
 20
17.6537325621
 30
0.0
 10
68.3251497691
 20
17.6326937397
 30
0.0
 10
68.3204288335
 20
17.5505935129
 30
0.0
 10
68.3011639845
 20
17.4690940477
 30
0.0
 10
68.2780145967
 20
17.4124587653
 30
0.0
  0
SPLINE
  5
288
100
AcDbEntity
  8
0
100
AcDbSpline
 62
7
  6
BYLAYER
 70
0
 71
3
 72
9
 73
5
 74
0
 42
0.0000001
 43
0.0000001
 44
0.0000000001
 40
0.0
 40
0.0
 40
0.0
 40
0.0
 40
0.2571252285
 40
1.0
 40
1.0
 40
1.0
 40
1.0
 10
67.876541946
 20
16.4303214286
 30
0.0
 10
67.8728014783
 20
16.4211716833
 30
0.0
 10
67.8573472378
 20
16.3859700352
 30
0.0
 10
67.8381829625
 20
16.3523536173
 30
0.0
 10
67.8218146917
 20
16.3289511031
 30
0.0
  0
LINE
  5
289
100
AcDbEntity
  8
0
100
AcDbLine
 62
7
  6
BYLAYER
 10
57.6908754127
 20
15.7671455174
 11
58.0097153899
 21
13.2434973397
  0
LINE
  5
28A
100
AcDbEntity
  8
0
100
AcDbLine
 62
7
  6
BYLAYER
 10
64.923164841
 20
13.2434973397
 11
65.2420048182
 21
15.7671455174
  0
LINE
  5
28B
100
AcDbEntity
  8
0
100
AcDbLine
 62
7
  6
BYLAYER
 10
68.9851213779
 20
17.4124587653
 11
68.5836487272
 21
16.4303214286
  0
SPLINE
  5
28C
100
AcDbEntity
  8
0
100
AcDbSpline
 62
7
  6
BYLAYER
 70
0
 71
3
 72
9
 73
5
 74
0
 42
0.0000001
 43
0.0000001
 44
0.0000000001
 40
0.0
 40
0.0
 40
0.0
 40
0.0
 40
0.5000000214
 40
1.0
 40
1.0
 40
1.0
 40
1.0
 10
67.8218146917
 20
16.3289511031
 30
0.0
 10
67.9394104581
 20
16.3200907041
 30
0.0
 10
68.1753680874
 20
16.3120877466
 30
0.0
 10
68.4113257165
 20
16.3200907049
 30
0.0
 10
68.5289214729
 20
16.3289511031
 30
0.0
  0
SPLINE
  5
28D
100
AcDbEntity
  8
0
100
AcDbSpline
 62
7
  6
BYLAYER
 70
0
 71
3
 72
9
 73
5
 74
0
 42
0.0000001
 43
0.0000001
 44
0.0000000001
 40
0.0
 40
0.0
 40
0.0
 40
0.0
 40
0.2429918624
 40
1.0
 40
1.0
 40
1.0
 40
1.0
 10
68.5289214729
 20
16.3289511031
 30
0.0
 10
68.5342757126
 20
16.3366063205
 30
0.0
 10
68.555353517
 20
16.3687746994
 30
0.0
 10
68.5726358536
 20
16.403382287
 30
0.0
 10
68.5836487272
 20
16.4303214286
 30
0.0
  0
SPLINE
  5
28E
100
AcDbEntity
  8
0
100
AcDbSpline
 62
7
  6
BYLAYER
 70
0
 71
3
 72
9
 73
5
 74
0
 42
0.0000001
 43
0.0000001
 44
0.0000000001
 40
0.0
 40
0.0
 40
0.0
 40
0.0
 40
0.2432891913
 40
1.0
 40
1.0
 40
1.0
 40
1.0
 10
68.9851213779
 20
17.4124587653
 30
0.0
 10
68.9926910256
 20
17.4309780084
 30
0.0
 10
69.0198483267
 20
17.5086813819
 30
0.0
 10
69.0317476306
 20
17.5915102552
 30
0.0
 10
69.0325165349
 20
17.6537325621
 30
0.0
  0
LINE
  5
28F
100
AcDbEntity
  8
0
100
AcDbLine
 62
7
  6
BYLAYER
 10
56.153005943
 20
13.2434973397
 11
55.7844647016
 21
16.1803214286
  0
SPLINE
  5
290
100
AcDbEntity
  8
0
100
AcDbSpline
 62
7
  6
BYLAYER
 70
0
 71
3
 72
12
 73
8
 74
0
 42
0.0000001
 43
0.0000001
 44
0.0000000001
 40
0.0
 40
0.0
 40
0.0
 40
0.0
 40
0.2877427757
 40
0.551476923
 40
0.7855375389
 40
0.8943438507
 40
1.0
 40
1.0
 40
1.0
 40
1.0
 10
57.6908754127
 20
15.7671455174
 30
0.0
 10
57.6838035241
 20
15.8231721567
 30
0.0
 10
57.6568138173
 20
15.9294943551
 30
0.0
 10
57.5785721653
 20
16.0648757418
 30
0.0
 10
57.4847029244
 20
16.1436899404
 30
0.0
 10
57.4016919306
 20
16.1750212328
 30
0.0
 10
57.3594416982
 20
16.1803214286
 30
0.0
 10
57.3387060636
 20
16.1803214286
 30
0.0
  0
SPLINE
  5
291
100
AcDbEntity
  8
0
100
AcDbSpline
 62
7
  6
BYLAYER
 70
0
 71
3
 72
12
 73
8
 74
0
 42
0.0000001
 43
0.0000001
 44
0.0000000001
 40
0.0
 40
0.0
 40
0.0
 40
0.0
 40
0.1057104619
 40
0.214528503
 40
0.448495596
 40
0.7121722147
 40
1.0
 40
1.0
 40
1.0
 40
1.0
 10
58.3633477046
 20
12.8303214286
 30
0.0
 10
58.3425606398
 20
12.8303214286
 30
0.0
 10
58.3002162381
 20
12.8355754755
 30
0.0
 10
58.2169577092
 20
12.866709569
 30
0.0
 10
58.1226406137
 20
12.9453277632
 30
0.0
 10
58.0439363711
 20
13.0808145226
 30
0.0
 10
58.0168167231
 20
13.1873457108
 30
0.0
 10
58.0097153899
 20
13.2434973397
 30
0.0
  0
SPLINE
  5
292
100
AcDbEntity
  8
0
100
AcDbSpline
 62
7
  6
BYLAYER
 70
0
 71
3
 72
12
 73
8
 74
0
 42
0.0000001
 43
0.0000001
 44
0.0000000001
 40
0.0
 40
0.0
 40
0.0
 40
0.0
 40
0.2876965506
 40
0.5515237812
 40
0.7856297066
 40
0.8944000209
 40
1.0
 40
1.0
 40
1.0
 40
1.0
 10
56.153005943
 20
13.2434973397
 30
0.0
 10
56.1600272535
 20
13.187568026
 30
0.0
 10
56.1868055423
 20
13.0813898728
 30
0.0
 10
56.2645352689
 20
12.9460080209
 30
0.0
 10
56.3580504399
 20
12.8670302453
 30
0.0
 10
56.4408748802
 20
12.8356263471
 30
0.0
 10
56.4830385918
 20
12.8303214286
 30
0.0
 10
56.5037287699
 20
12.8303214286
 30
0.0
  0
SPLINE
  5
293
100
AcDbEntity
  8
0
100
AcDbSpline
 62
7
  6
BYLAYER
 70
0
 71
3
 72
12
 73
8
 74
0
 42
0.0000001
 43
0.0000001
 44
0.0000000001
 40
0.0
 40
0.0
 40
0.0
 40
0.0
 40
0.105600779
 40
0.2143735998
 40
0.4484824583
 40
0.7123116522
 40
1.0
 40
1.0
 40
1.0
 40
1.0
 10
66.4291513992
 20
12.8303214286
 30
0.0
 10
66.449841747
 20
12.8303214286
 30
0.0
 10
66.4920058632
 20
12.8356276184
 30
0.0
 10
66.5748326237
 20
12.8670292857
 30
0.0
 10
66.6683455738
 20
12.9460126139
 30
0.0
 10
66.7460786463
 20
13.0813912426
 30
0.0
 10
66.7728531732
 20
13.1875695856
 30
0.0
 10
66.7798742879
 20
13.2434973397
 30
0.0
  0
SPLINE
  5
294
100
AcDbEntity
  8
0
100
AcDbSpline
 62
7
  6
BYLAYER
 70
0
 71
3
 72
12
 73
8
 74
0
 42
0.0000001
 43
0.0000001
 44
0.0000000001
 40
0.0
 40
0.0
 40
0.0
 40
0.0
 40
0.2878378194
 40
0.5515112689
 40
0.7854724586
 40
0.8942898936
 40
1.0
 40
1.0
 40
1.0
 40
1.0
 10
64.923164841
 20
13.2434973397
 30
0.0
 10
64.9160633511
 20
13.1873444717
 30
0.0
 10
64.8889373795
 20
13.0808159865
 30
0.0
 10
64.8102434937
 20
12.9453241343
 30
0.0
 10
64.7159229414
 20
12.8667159289
 30
0.0
 10
64.6326694709
 20
12.8355773916
 30
0.0
 10
64.5903257199
 20
12.8303214286
 30
0.0
 10
64.569538991
 20
12.8303214286
 30
0.0
  0
SPLINE
  5
295
100
AcDbEntity
  8
0
100
AcDbSpline
 62
7
  6
BYLAYER
 70
0
 71
3
 72
12
 73
8
 74
0
 42
0.0000001
 43
0.0000001
 44
0.0000000001
 40
0.0
 40
0.0
 40
0.0
 40
0.0
 40
0.1056566199
 40
0.2144639023
 40
0.4485291953
 40
0.7122653044
 40
1.0
 40
1.0
 40
1.0
 40
1.0
 10
65.5941776089
 20
16.1803214286
 30
0.0
 10
65.5734417332
 20
16.1803214286
 30
0.0
 10
65.5311909599
 20
16.1750224644
 30
0.0
 10
65.448176548
 20
16.1436936087
 30
0.0
 10
65.3543102024
 20
16.0648721274
 30
0.0
 10
65.2760614429
 20
15.9294947032
 30
0.0
 10
65.2490765589
 20
15.8231709852
 30
0.0
 10
65.2420048182
 20
15.7671455174
 30
0.0
  0
LINE
  5
296
100
AcDbEntity
  8
0
100
AcDbLine
 62
7
  6
BYLAYER
 10
67.1484155293
 20
16.1803214286
 11
66.7798742879
 21
13.2434973397
  0
SPLINE
  5
297
100
AcDbEntity
  8
0
100
AcDbSpline
 62
7
  6
BYLAYER
 70
0
 71
3
 72
15
 73
11
 74
0
 42
0.0000001
 43
0.0000001
 44
0.0000000001
 40
0.0
 40
0.0
 40
0.0
 40
0.0
 40
0.2051660119
 40
0.3769763269
 40
0.51502319
 40
0.6230476301
 40
0.7106885611
 40
0.7936526941
 40
0.8872828577
 40
1.0
 40
1.0
 40
1.0
 40
1.0
 10
63.9664401154
 20
59.5803214286
 30
0.0
 10
64.0065424995
 20
59.5402190445
 30
0.0
 10
64.0848799931
 20
59.470904077
 30
0.0
 10
64.2049892894
 20
59.393277804
 30
0.0
 10
64.3128600384
 20
59.3495904918
 30
0.0
 10
64.4059488407
 20
59.3379422832
 30
0.0
 10
64.4828681531
 20
59.3599821062
 30
0.0
 10
64.5354839331
 20
59.4148794492
 30
0.0
 10
64.5622035104
 20
59.4918798866
 30
0.0
 10
64.5664401154
 20
59.5491634164
 30
0.0
 10
64.5664401154
 20
59.5803214286
 30
0.0
  0
SPLINE
  5
298
100
AcDbEntity
  8
0
100
AcDbSpline
 62
7
  6
BYLAYER
 70
0
 71
3
 72
9
 73
5
 74
0
 42
0.0000001
 43
0.0000001
 44
0.0000000001
 40
0.0
 40
0.0
 40
0.0
 40
0.0
 40
0.2732093988
 40
1.0
 40
1.0
 40
1.0
 40
1.0
 10
63.5797061565
 20
60.1803214286
 30
0.0
 10
63.6045759138
 20
60.1200107526
 30
0.0
 10
63.7051055433
 20
59.9035316342
 30
0.0
 10
63.8437262937
 20
59.7030352503
 30
0.0
 10
63.9664401154
 20
59.5803214286
 30
0.0
  0
ENDSEC
  0
SECTION
  2
OBJECTS
  0
DICTIONARY
  5
C
100
AcDbDictionary
280
0
281
1
  3
ACAD_GROUP
350
D
  3
ACAD_MLINESTYLE
350
17
  3
ACAD_LAYOUT
350
1A
  3
ACAD_PLOTSETTINGS
350
19
  3
ACAD_PLOTSTYLENAME
350
E
  0
DICTIONARY
  5
D
102
{ACAD_REACTORS
330
C
102
}
100
AcDbDictionary
280
0
281
1
  0
ACDBDICTIONARYWDFLT
  5
E
102
{ACAD_REACTORS
330
C
102
}
100
AcDbDictionary
281
1
  3
Normal
350
F
100
AcDbDictionaryWithDefault
340
F
  0
DICTIONARY
  5
17
102
{ACAD_REACTORS
330
C
102
}
100
AcDbDictionary
280
0
281
1
  3
Standard
350
18
  0
DICTIONARY
  5
19
102
{ACAD_REACTORS
330
C
102
}
100
AcDbDictionary
281
1
  0
DICTIONARY
  5
1A
102
{ACAD_REACTORS
330
C
102
}
100
AcDbDictionary
281
1
  3
Model
350
299
  3
Layout1
350
29A
  0
ACDBPLACEHOLDER
  5
F
102
{ACAD_REACTORS
330
E
102
}
  0
MLINESTYLE
  5
18
102
{ACAD_REACTORS
330
17
102
}
100
AcDbMlineStyle
  2
STANDARD
 70
0
  3

 62
256
 51
90.0
 52
90.0
 71
2
 49
0.5
 62
256
  6
BYLAYER
 49
-0.5
 62
256
  6
BYLAYER
  0
LAYOUT
  5
299
102
{ACAD_REACTORS
330
1A
102
}
100
AcDbPlotSettings
  1

  2
none_device
  4

  6

 40
0.0
 41
0.0
 42
0.0
 43
0.0
 44
210.0
 45
297.0
 46
0.0
 47
0.0
 48
0.0
 49
0.0
140
0.0
141
0.0
142
1.0
143
1.0
 70
1024
 72
1
 73
0
 74
0
  7

 75
0
147
1.0
148
0.0
149
0.0
100
AcDbLayout
  1
Model
 70
0
 71
0
 10
0.0
 20
0.0
 11
210.0
 21
297.0
 12
0.0
 22
0.0
 32
0.0
 14
0.0
 24
0.0
 34
0.0
 15
0.0
 25
0.0
 35
0.0
146
0.0
 13
0.0
 23
0.0
 33
0.0
 16
1.0
 26
0.0
 36
0.0
 17
0.0
 27
1.0
 37
0.0
 76
0
330
210
345
0
346
0
  0
LAYOUT
  5
29A
102
{ACAD_REACTORS
330
1A
102
}
100
AcDbPlotSettings
  1

  2
none_device
  4

  6

 40
0.0
 41
0.0
 42
0.0
 43
0.0
 44
210.0
 45
297.0
 46
0.0
 47
0.0
 48
0.0
 49
0.0
140
0.0
141
0.0
142
1.0
143
1.0
 70
0
 72
1
 73
0
 74
0
  7

 75
0
147
1.0
148
0.0
149
0.0
100
AcDbLayout
  1
Layout1
 70
0
 71
1
 10
0.0
 20
0.0
 11
210.0
 21
297.0
 12
0.0
 22
0.0
 32
0.0
 14
0.0
 24
0.0
 34
0.0
 15
0.0
 25
0.0
 35
0.0
146
0.0
 13
0.0
 23
0.0
 33
0.0
 16
1.0
 26
0.0
 36
0.0
 17
0.0
 27
1.0
 37
0.0
 76
0
330
211
345
0
346
0
  0
ENDSEC
  0
EOF
