999
DXF file: C:\Users\sesa63760\Dev\_Creo\CAD\MCADID0004829_3D-CAD\drw0001_7.dxf
999
Pro/ENGINEER 2019471 by Parametric Technology Corporation
  0
SECTION
  2
HEADER
  9
$ACADVER
  1
AC1024
  9
$DWGCODEPAGE
  3
ANSI_1252
  9
$EXTMAX
 10
64.4672103972
 20
91.1750547046
 30
0.0
  9
$EXTMIN
 10
0.0
 20
0.0
 30
0.0
  9
$LIMMIN
 10
0.0
 20
0.0
  9
$LIMMAX
 10
64.4672103972
 20
91.1750547046
  9
$VIEWCTR
 10
32.2336051986
 20
45.5875273523
  9
$VIEWSIZE
 40
91.1750547046
  9
$CLAYER
  8
0
  9
$LTSCALE
 40
5.9432628252
  9
$CELTYPE
  6
BYLAYER
  9
$DIMSCALE
 40
1.0
  9
$DIMASZ
 40
0.7674667904
  9
$DIMEXO
 40
1.0
  9
$DIMDLI
 40
4.1062543156
  9
$DIMEXE
 40
1.0
  9
$DIMCEN
 40
0.9725339168
  9
$DIMLFAC
 40
1.0
  9
$DIMBLK
  1
_FILLED
  9
$DIMALT
 70
0
  9
$DIMALTF
 40
0.0393700787
  9
$DIMTXT
 40
1.0744535066
  9
$DIMTOL
 70
1
  9
$DIMLIM
 70
0
  9
$DIMTFAC
 40
1.0
  9
$DIMTP
 40
0.01
  9
$DIMTM
 40
0.01
  9
$DIMGAP
 40
0.625
  9
$DIMDSEP
 70
46
  9
$AUNITS
 70
0
  9
$PDMODE
 70
3
  9
$PDSIZE
 40
0.3125
  9
$HANDSEED
  5
2A7
  9
$TILEMODE
 70
1
  9
$MEASUREMENT
 70
1
  9
$INSUNITS
 70
4
  0
ENDSEC
  0
SECTION
  2
CLASSES
  0
CLASS
  1
ACDBDICTIONARYWDFLT
  2
AcDbDictionaryWithDefault
  3
AutoCAD 2000
 90
0
 91
1
280
0
281
0
  0
CLASS
  1
ACDBPLACEHOLDER
  2
AcDbPlaceHolder
  3
AutoCAD 2000
 90
0
 91
1
280
0
281
0
  0
CLASS
  1
LAYOUT
  2
AcDbLayout
  3
AutoCAD 2000
 90
0
 91
0
280
0
281
0
  0
ENDSEC
  0
SECTION
  2
TABLES
  0
TABLE
  2
VPORT
  5
8
100
AcDbSymbolTable
 70
2
  0
VPORT
  5
1F4
100
AcDbSymbolTableRecord
100
AcDbViewportTableRecord
  2
*ACTIVE
 70
0
 10
0.0
 20
0.0
 11
1.0
 21
1.0
 12
32.2336051986
 22
45.5875273523
 13
0.0
 23
0.0
 14
1.0
 24
1.0
 15
0.0
 25
0.0
 16
0.0
 26
0.0
 36
1.0
 17
0.0
 27
0.0
 37
0.0
 40
91.1750547046
 41
0.7070707071
 42
50.0
 43
0.0
 44
0.0
 50
0.0
 51
0.0
 71
0
 72
100
 73
1
 74
1
 75
0
 76
0
 77
0
 78
0
  0
ENDTAB
  0
TABLE
  2
LTYPE
  5
5
100
AcDbSymbolTable
 70
6
  0
LTYPE
  5
14
100
AcDbSymbolTableRecord
100
AcDbLinetypeTableRecord
  2
BYBLOCK
 70
0
  3

 72
65
 73
0
 40
0.0
  0
LTYPE
  5
15
100
AcDbSymbolTableRecord
100
AcDbLinetypeTableRecord
  2
BYLAYER
 70
0
  3

 72
65
 73
0
 40
0.0
  0
LTYPE
  5
16
100
AcDbSymbolTableRecord
100
AcDbLinetypeTableRecord
  2
CONTINUOUS
 70
64
  3
Solid line
 72
65
 73
0
 40
0.0
  0
LTYPE
  5
1F5
100
AcDbSymbolTableRecord
100
AcDbLinetypeTableRecord
  2
CENTER
 70
64
  3
____ _ ____ _ ____ _ ____ _ ____ _ ____ _ ____
 72
65
 73
4
 40
0.6
 49
0.375
 74
0
 49
-0.075
 74
0
 49
0.075
 74
0
 49
-0.075
 74
0
  0
LTYPE
  5
1F6
100
AcDbSymbolTableRecord
100
AcDbLinetypeTableRecord
  2
HIDDEN
 70
64
  3
- - - - - - - - - - - - - - - - - - - -
 72
65
 73
2
 40
0.2
 49
0.1
 74
0
 49
-0.1
 74
0
  0
LTYPE
  5
1F7
100
AcDbSymbolTableRecord
100
AcDbLinetypeTableRecord
  2
PHANTOM
 70
64
  3
_____ _ _ _____ _ _ _____ _ _ _____
 72
65
 73
6
 40
0.8
 49
0.45
 74
0
 49
-0.05
 74
0
 49
0.1
 74
0
 49
-0.05
 74
0
 49
0.1
 74
0
 49
-0.05
 74
0
  0
LTYPE
  5
1F8
100
AcDbSymbolTableRecord
100
AcDbLinetypeTableRecord
  2
DOT
 70
64
  3
. . . . . . . . . . . . . . . . . . . .
 72
65
 73
2
 40
0.2
 49
0.1
 74
0
 49
-0.1
 74
0
  0
LTYPE
  5
1F9
100
AcDbSymbolTableRecord
100
AcDbLinetypeTableRecord
  2
DASHED
 70
64
  3
- - - - - - - - - - - - - - - - - - - -
 72
65
 73
2
 40
0.2
 49
0.1
 74
0
 49
-0.1
 74
0
  0
ENDTAB
  0
TABLE
  2
LAYER
  5
2
100
AcDbSymbolTable
 70
36
  0
LAYER
  5
10
100
AcDbSymbolTableRecord
100
AcDbLayerTableRecord
  2
0
 70
0
 62
7
  6
CONTINUOUS
370
-3
390
F
  0
LAYER
  5
1FA
100
AcDbSymbolTableRecord
100
AcDbLayerTableRecord
  2
DEFAULT_1
 70
0
 62
7
  6
CENTER
370
-3
390
F
  0
LAYER
  5
1FB
100
AcDbSymbolTableRecord
100
AcDbLayerTableRecord
  2
DEFAULT_2
 70
0
 62
7
  6
HIDDEN
370
-3
390
F
  0
LAYER
  5
1FC
100
AcDbSymbolTableRecord
100
AcDbLayerTableRecord
  2
DEFAULT_3
 70
0
 62
7
  6
PHANTOM
370
-3
390
F
  0
LAYER
  5
1FD
100
AcDbSymbolTableRecord
100
AcDbLayerTableRecord
  2
00_COMPONENTS
 70
0
 62
7
  6
CONTINUOUS
370
-3
390
F
  0
LAYER
  5
1FE
100
AcDbSymbolTableRecord
100
AcDbLayerTableRecord
  2
01_1_DEFAULT_DATUMS
 70
0
 62
7
  6
CONTINUOUS
370
-3
390
F
  0
LAYER
  5
1FF
100
AcDbSymbolTableRecord
100
AcDbLayerTableRecord
  2
01_PLANES
 70
0
 62
7
  6
CONTINUOUS
370
-3
390
F
  0
LAYER
  5
200
100
AcDbSymbolTableRecord
100
AcDbLayerTableRecord
  2
02_COORD_SYS
 70
0
 62
7
  6
CONTINUOUS
370
-3
390
F
  0
LAYER
  5
201
100
AcDbSymbolTableRecord
100
AcDbLayerTableRecord
  2
03_AXES
 70
0
 62
7
  6
CONTINUOUS
370
-3
390
F
  0
LAYER
  5
202
100
AcDbSymbolTableRecord
100
AcDbLayerTableRecord
  2
04_POINTS
 70
0
 62
7
  6
CONTINUOUS
370
-3
390
F
  0
LAYER
  5
203
100
AcDbSymbolTableRecord
100
AcDbLayerTableRecord
  2
05_CURVES
 70
0
 62
7
  6
CONTINUOUS
370
-3
390
F
  0
LAYER
  5
204
100
AcDbSymbolTableRecord
100
AcDbLayerTableRecord
  2
06_SURFS
 70
0
 62
7
  6
CONTINUOUS
370
-3
390
F
  0
LAYER
  5
205
100
AcDbSymbolTableRecord
100
AcDbLayerTableRecord
  2
07_COSMETICS
 70
0
 62
7
  6
CONTINUOUS
370
-3
390
F
  0
LAYER
  5
206
100
AcDbSymbolTableRecord
100
AcDbLayerTableRecord
  2
10_NOTES
 70
0
 62
7
  6
CONTINUOUS
370
-3
390
F
  0
LAYER
  5
207
100
AcDbSymbolTableRecord
100
AcDbLayerTableRecord
  2
11_NOTES_PUB
 70
0
 62
7
  6
CONTINUOUS
370
-3
390
F
  0
LAYER
  5
208
100
AcDbSymbolTableRecord
100
AcDbLayerTableRecord
  2
13_REF_GTOL
 70
0
 62
7
  6
CONTINUOUS
370
-3
390
F
  0
LAYER
  5
209
100
AcDbSymbolTableRecord
100
AcDbLayerTableRecord
  2
16_MISC
 70
0
 62
7
  6
CONTINUOUS
370
-3
390
F
  0
LAYER
  5
20A
100
AcDbSymbolTableRecord
100
AcDbLayerTableRecord
  2
17_NO_PRINT
 70
0
 62
7
  6
CONTINUOUS
370
-3
390
F
  0
LAYER
  5
20B
100
AcDbSymbolTableRecord
100
AcDbLayerTableRecord
  2
18_DATUM_CAMS_JOINTS
 70
0
 62
7
  6
CONTINUOUS
370
-3
390
F
  0
LAYER
  5
20C
100
AcDbSymbolTableRecord
100
AcDbLayerTableRecord
  2
19_DATUM_FUNCTIONAL
 70
0
 62
7
  6
CONTINUOUS
370
-3
390
F
  0
LAYER
  5
20D
100
AcDbSymbolTableRecord
100
AcDbLayerTableRecord
  2
20_DATUM_KINEMATIC_SCHEME
 70
0
 62
7
  6
CONTINUOUS
370
-3
390
F
  0
ENDTAB
  0
TABLE
  2
STYLE
  5
3
100
AcDbSymbolTable
 70
1
  0
STYLE
  5
11
100
AcDbSymbolTableRecord
100
AcDbTextStyleTableRecord
  2
STANDARD
 70
0
 40
0.0
 41
1.0
 50
0.0
 71
0
 42
0.2
  3
ARIAL.TTF
  4

  0
STYLE
  5
20E
100
AcDbSymbolTableRecord
100
AcDbTextStyleTableRecord
  2
TEXTSTYLE_1
 70
0
 40
0.0
 41
0.8
 50
0.0
 71
0
 42
0.2
  3
gdt
  4

  0
ENDTAB
  0
TABLE
  2
VIEW
  5
6
100
AcDbSymbolTable
 70
0
  0
ENDTAB
  0
TABLE
  2
UCS
  5
7
100
AcDbSymbolTable
 70
0
  0
ENDTAB
  0
TABLE
  2
APPID
  5
9
100
AcDbSymbolTable
 70
1
  0
APPID
  5
20F
100
AcDbSymbolTableRecord
100
AcDbRegAppTableRecord
  2
ACAD
 70
0
  0
ENDTAB
  0
TABLE
  2
BLOCK_RECORD
  5
1
100
AcDbSymbolTable
 70
0
  0
BLOCK_RECORD
  5
210
100
AcDbSymbolTableRecord
100
AcDbBlockTableRecord
  2
*Model_Space
  0
BLOCK_RECORD
  5
211
100
AcDbSymbolTableRecord
100
AcDbBlockTableRecord
  2
*Paper_Space
  0
BLOCK_RECORD
  5
212
100
AcDbSymbolTableRecord
100
AcDbBlockTableRecord
  2
_FILLED
  0
ENDTAB
  0
TABLE
  2
DIMSTYLE
  5
A
100
AcDbSymbolTable
 70
1
100
AcDbDimStyleTable
 71
0
  0
DIMSTYLE
105
213
100
AcDbSymbolTableRecord
100
AcDbDimStyleTableRecord
  2
STANDARD
 70
0
  3

  4

 40
1.0
 41
0.7674667904
 42
1.0
 43
0.38
 44
1.0
 45
0.0
 46
0.0
 47
0.01
 48
0.01
140
1.0744535066
141
0.09
142
0.0
143
25.4
144
1.0
145
0.0
146
1.0
147
0.625
 71
1
 72
0
 73
0
 74
0
 75
0
 76
0
 77
1
 78
8
 79
2
170
0
171
1
172
0
173
0
174
0
175
0
176
0
177
0
178
0
270
2
179
2
271
2
272
2
273
2
274
2
275
0
280
0
281
0
282
0
283
1
284
8
285
0
286
0
287
3
288
0
340
11
278
46
341
212
342
212
343
212
344
212
  0
ENDTAB
  0
ENDSEC
  0
SECTION
  2
BLOCKS
  0
BLOCK
  5
20
100
AcDbEntity
  8
0
100
AcDbBlockBegin
  2
*Model_Space
 70
0
 10
0.0
 20
0.0
 30
0.0
  3
*Model_Space
  1

  0
ENDBLK
  5
21
100
AcDbEntity
  8
0
100
AcDbBlockEnd
  0
BLOCK
  5
1C
100
AcDbEntity
  8
0
100
AcDbBlockBegin
  2
*Paper_Space
 70
0
 10
0.0
 20
0.0
 30
0.0
  3
*Paper_Space
  1

  0
ENDBLK
  5
1D
100
AcDbEntity
  8
0
100
AcDbBlockEnd
  0
BLOCK
  5
214
100
AcDbEntity
  8
0
100
AcDbBlockBegin
  2
_FILLED
 70
64
 10
0.0
 20
0.0
  3
_FILLED
  1

  0
SOLID
  5
215
100
AcDbEntity
  8
0
  6
BYBLOCK
 62
0
100
AcDbTrace
 10
0.0
 20
0.0
 11
-1.0
 21
0.25
 12
-1.0
 22
-0.25
 13
-1.0
 23
-0.25
  0
ENDBLK
  5
216
100
AcDbEntity
  8
0
  6
BYBLOCK
 62
0
100
AcDbBlockEnd
  0
ENDSEC
  0
SECTION
  2
ENTITIES
  0
LINE
  5
217
100
AcDbEntity
  8
0
100
AcDbLine
 62
7
  6
BYLAYER
 10
55.7650199506
 20
16.1607221007
 11
23.9253851949
 21
16.1607221007
  0
LINE
  5
218
100
AcDbEntity
  8
0
100
AcDbLine
 62
7
  6
BYLAYER
 10
6.8452025728
 20
37.1609298387
 11
6.8452025728
 21
53.1605143626
  0
LINE
  5
219
100
AcDbEntity
  8
0
100
AcDbLine
 62
7
  6
BYLAYER
 10
6.8452025728
 20
53.1607221007
 11
7.1164378249
 21
53.4319573528
  0
LINE
  5
21A
100
AcDbEntity
  8
0
100
AcDbLine
 62
7
  6
BYLAYER
 10
9.3452025728
 20
20.1607221007
 11
57.8452025728
 21
20.1607221007
  0
LINE
  5
21B
100
AcDbEntity
  8
0
100
AcDbLine
 62
7
  6
BYLAYER
 10
23.9816176169
 20
20.3107221007
 11
57.8452025728
 21
20.3107221007
  0
LINE
  5
21C
100
AcDbEntity
  8
0
100
AcDbLine
 62
7
  6
BYLAYER
 10
14.8452025728
 20
22.0607221007
 11
16.8452025728
 21
22.0607221007
  0
LINE
  5
21D
100
AcDbEntity
  8
0
100
AcDbLine
 62
7
  6
BYLAYER
 10
6.8452025728
 20
37.1607221007
 11
7.1164378249
 21
36.8894868485
  0
LINE
  5
21E
100
AcDbEntity
  8
0
100
AcDbLine
 62
7
  6
BYLAYER
 10
9.3952025728
 20
35.1607221007
 11
9.3952025728
 21
55.1607221007
  0
LINE
  5
21F
100
AcDbEntity
  8
0
100
AcDbLine
 62
7
  6
BYLAYER
 10
10.6952025728
 20
35.1607221007
 11
10.6952025728
 21
43.0110724872
  0
LINE
  5
220
100
AcDbEntity
  8
0
100
AcDbLine
 62
7
  6
BYLAYER
 10
10.6952025728
 20
47.3103717141
 11
10.6952025728
 21
55.1607221007
  0
LINE
  5
221
100
AcDbEntity
  8
0
100
AcDbLine
 62
7
  6
BYLAYER
 10
30.0952025728
 20
75.4607221007
 11
29.5952025728
 21
74.9607221007
  0
LINE
  5
222
100
AcDbEntity
  8
0
100
AcDbLine
 62
7
  6
BYLAYER
 10
15.0563481908
 20
26.2607221007
 11
14.8452025728
 21
26.2607221007
  0
LINE
  5
223
100
AcDbEntity
  8
0
100
AcDbLine
 62
7
  6
BYLAYER
 10
16.5752025728
 20
44.5907221007
 11
16.5752025728
 21
44.6907221007
  0
LINE
  5
224
100
AcDbEntity
  8
0
100
AcDbLine
 62
7
  6
BYLAYER
 10
16.5752025728
 20
45.6307221007
 11
16.5752025728
 21
45.7307221007
  0
LINE
  5
225
100
AcDbEntity
  8
0
100
AcDbLine
 62
7
  6
BYLAYER
 10
16.7752025728
 20
43.9225540889
 11
16.7752025728
 21
44.4907221007
  0
LINE
  5
226
100
AcDbEntity
  8
0
100
AcDbLine
 62
7
  6
BYLAYER
 10
16.7752025728
 20
45.8307221007
 11
16.7752025728
 21
46.3988901124
  0
LINE
  5
227
100
AcDbEntity
  8
0
100
AcDbLine
 62
7
  6
BYLAYER
 10
17.5152025728
 20
46.3988901124
 11
17.5152025728
 21
45.8307221007
  0
LINE
  5
228
100
AcDbEntity
  8
0
100
AcDbLine
 62
7
  6
BYLAYER
 10
17.5152025728
 20
44.4907221007
 11
17.5152025728
 21
43.9225540889
  0
LINE
  5
229
100
AcDbEntity
  8
0
100
AcDbLine
 62
7
  6
BYLAYER
 10
17.7152025728
 20
44.5907221007
 11
17.7152025728
 21
44.6907221007
  0
LINE
  5
22A
100
AcDbEntity
  8
0
100
AcDbLine
 62
7
  6
BYLAYER
 10
17.7152025728
 20
45.6307221007
 11
17.7152025728
 21
45.7307221007
  0
LINE
  5
22B
100
AcDbEntity
  8
0
100
AcDbLine
 62
7
  6
BYLAYER
 10
18.9452025728
 20
24.1607221007
 11
18.9452025728
 21
25.1607221007
  0
LINE
  5
22C
100
AcDbEntity
  8
0
100
AcDbLine
 62
7
  6
BYLAYER
 10
18.9452025728
 20
34.1607221007
 11
18.9452025728
 21
35.1607221007
  0
LINE
  5
22D
100
AcDbEntity
  8
0
100
AcDbLine
 62
7
  6
BYLAYER
 10
18.9452025728
 20
55.1607221007
 11
18.9452025728
 21
56.1607221007
  0
LINE
  5
22E
100
AcDbEntity
  8
0
100
AcDbLine
 62
7
  6
BYLAYER
 10
18.9452025728
 20
65.1607221007
 11
18.9452025728
 21
66.1607221007
  0
LINE
  5
22F
100
AcDbEntity
  8
0
100
AcDbLine
 62
7
  6
BYLAYER
 10
14.8452025728
 20
32.0607221007
 11
16.8452025728
 21
32.0607221007
  0
LINE
  5
230
100
AcDbEntity
  8
0
100
AcDbLine
 62
7
  6
BYLAYER
 10
16.5752025728
 20
44.5907221007
 11
16.2462303714
 21
44.2617498993
  0
LINE
  5
231
100
AcDbEntity
  8
0
100
AcDbLine
 62
7
  6
BYLAYER
 10
17.7152025728
 20
45.7307221007
 11
18.0672370039
 21
46.0827565318
  0
LINE
  5
232
100
AcDbEntity
  8
0
100
AcDbLine
 62
7
  6
BYLAYER
 10
9.3952025728
 20
35.1607221007
 11
10.6952025728
 21
35.1607221007
  0
LINE
  5
233
100
AcDbEntity
  8
0
100
AcDbLine
 62
7
  6
BYLAYER
 10
10.6952025728
 20
35.5607221007
 11
9.3952025728
 21
35.5607221007
  0
LINE
  5
234
100
AcDbEntity
  8
0
100
AcDbLine
 62
7
  6
BYLAYER
 10
17.7152025728
 20
44.5907221007
 11
18.0672370039
 21
44.2386876695
  0
LINE
  5
235
100
AcDbEntity
  8
0
100
AcDbLine
 62
7
  6
BYLAYER
 10
16.5752025728
 20
45.7307221007
 11
16.2462303714
 21
46.059694302
  0
LINE
  5
236
100
AcDbEntity
  8
0
100
AcDbLine
 62
7
  6
BYLAYER
 10
23.9253851949
 20
74.1607221007
 11
23.9253851949
 21
70.1607221007
  0
LINE
  5
237
100
AcDbEntity
  8
0
100
AcDbLine
 62
7
  6
BYLAYER
 10
23.9253851949
 20
20.1607221007
 11
23.9253851949
 21
16.1607221007
  0
LINE
  5
238
100
AcDbEntity
  8
0
100
AcDbLine
 62
7
  6
BYLAYER
 10
15.0563481908
 20
36.2607221007
 11
14.8452025728
 21
36.2607221007
  0
LINE
  5
239
100
AcDbEntity
  8
0
100
AcDbLine
 62
7
  6
BYLAYER
 10
11.7952025728
 20
36.6607221007
 11
10.6952025728
 21
36.6607221007
  0
LINE
  5
23A
100
AcDbEntity
  8
0
100
AcDbLine
 62
7
  6
BYLAYER
 10
26.7402834148
 20
74.1607221007
 11
26.7402834148
 21
70.1607221007
  0
LINE
  5
23B
100
AcDbEntity
  8
0
100
AcDbLine
 62
7
  6
BYLAYER
 10
26.7402834148
 20
16.1607221007
 11
26.7402834148
 21
20.1607221007
  0
LINE
  5
23C
100
AcDbEntity
  8
0
100
AcDbLine
 62
7
  6
BYLAYER
 10
10.6952025728
 20
40.7607221007
 11
9.3952025728
 21
40.7607221007
  0
LINE
  5
23D
100
AcDbEntity
  8
0
100
AcDbLine
 62
7
  6
BYLAYER
 10
29.5952025728
 20
74.1607221007
 11
29.5952025728
 21
74.9607221007
  0
LINE
  5
23E
100
AcDbEntity
  8
0
100
AcDbLine
 62
7
  6
BYLAYER
 10
16.4089815116
 20
44.589448787
 11
16.5752025728
 21
44.597347506
  0
LINE
  5
23F
100
AcDbEntity
  8
0
100
AcDbLine
 62
7
  6
BYLAYER
 10
17.5152025728
 20
44.1882953115
 11
16.7752025728
 21
44.1882953115
  0
LINE
  5
240
100
AcDbEntity
  8
0
100
AcDbLine
 62
7
  6
BYLAYER
 10
16.5752025728
 20
44.5907221007
 11
16.6752025728
 21
44.5907221007
  0
LINE
  5
241
100
AcDbEntity
  8
0
100
AcDbLine
 62
7
  6
BYLAYER
 10
17.6152025728
 20
44.5907221007
 11
17.7152025728
 21
44.5907221007
  0
LINE
  5
242
100
AcDbEntity
  8
0
100
AcDbLine
 62
7
  6
BYLAYER
 10
14.567340023
 20
44.6107221007
 11
16.5752025728
 21
44.6107221007
  0
LINE
  5
243
100
AcDbEntity
  8
0
100
AcDbLine
 62
7
  6
BYLAYER
 10
17.7152025728
 20
44.6107221007
 11
19.7230651226
 21
44.6107221007
  0
LINE
  5
244
100
AcDbEntity
  8
0
100
AcDbLine
 62
7
  6
BYLAYER
 10
17.9118653208
 20
44.7907221007
 11
17.8152025728
 21
44.7907221007
  0
LINE
  5
245
100
AcDbEntity
  8
0
100
AcDbLine
 62
7
  6
BYLAYER
 10
16.4752025728
 20
44.7907221007
 11
16.3785398247
 21
44.7907221007
  0
LINE
  5
246
100
AcDbEntity
  8
0
100
AcDbLine
 62
7
  6
BYLAYER
 10
16.3785398247
 20
45.5307221007
 11
16.4752025728
 21
45.5307221007
  0
LINE
  5
247
100
AcDbEntity
  8
0
100
AcDbLine
 62
7
  6
BYLAYER
 10
17.8152025728
 20
45.5307221007
 11
17.9118653208
 21
45.5307221007
  0
LINE
  5
248
100
AcDbEntity
  8
0
100
AcDbLine
 62
7
  6
BYLAYER
 10
14.567340023
 20
45.7107221007
 11
16.5752025728
 21
45.7107221007
  0
LINE
  5
249
100
AcDbEntity
  8
0
100
AcDbLine
 62
7
  6
BYLAYER
 10
17.7152025728
 20
45.7107221007
 11
19.7230651226
 21
45.7107221007
  0
LINE
  5
24A
100
AcDbEntity
  8
0
100
AcDbLine
 62
7
  6
BYLAYER
 10
16.5752025728
 20
45.7307221007
 11
16.6752025728
 21
45.7307221007
  0
LINE
  5
24B
100
AcDbEntity
  8
0
100
AcDbLine
 62
7
  6
BYLAYER
 10
17.6152025728
 20
45.7307221007
 11
17.7152025728
 21
45.7307221007
  0
LINE
  5
24C
100
AcDbEntity
  8
0
100
AcDbLine
 62
7
  6
BYLAYER
 10
17.5152025728
 20
46.1331488898
 11
16.7752025728
 21
46.1331488898
  0
LINE
  5
24D
100
AcDbEntity
  8
0
100
AcDbLine
 62
7
  6
BYLAYER
 10
17.7152025728
 20
44.597982809
 11
17.8937678886
 21
44.5894974989
  0
LINE
  5
24E
100
AcDbEntity
  8
0
100
AcDbLine
 62
7
  6
BYLAYER
 10
16.5752025728
 20
45.7240966953
 11
16.4089815116
 21
45.7319954143
  0
LINE
  5
24F
100
AcDbEntity
  8
0
100
AcDbLine
 62
7
  6
BYLAYER
 10
17.8937678886
 20
45.7319467024
 11
17.7152025728
 21
45.7234613923
  0
LINE
  5
250
100
AcDbEntity
  8
0
100
AcDbLine
 62
7
  6
BYLAYER
 10
10.6952025728
 20
49.5607221007
 11
9.3952025728
 21
49.5607221007
  0
LINE
  5
251
100
AcDbEntity
  8
0
100
AcDbLine
 62
7
  6
BYLAYER
 10
10.6952025728
 20
53.6607221007
 11
11.7952025728
 21
53.6607221007
  0
LINE
  5
252
100
AcDbEntity
  8
0
100
AcDbLine
 62
7
  6
BYLAYER
 10
14.8452025728
 20
54.0607221007
 11
15.0563481908
 21
54.0607221007
  0
LINE
  5
253
100
AcDbEntity
  8
0
100
AcDbLine
 62
7
  6
BYLAYER
 10
10.6952025728
 20
54.7607221007
 11
9.3952025728
 21
54.7607221007
  0
LINE
  5
254
100
AcDbEntity
  8
0
100
AcDbLine
 62
7
  6
BYLAYER
 10
9.3952025728
 20
55.1607221007
 11
10.6952025728
 21
55.1607221007
  0
LINE
  5
255
100
AcDbEntity
  8
0
100
AcDbLine
 62
7
  6
BYLAYER
 10
16.8452025728
 20
58.2607221007
 11
14.8452025728
 21
58.2607221007
  0
LINE
  5
256
100
AcDbEntity
  8
0
100
AcDbLine
 62
7
  6
BYLAYER
 10
50.0952025728
 20
74.1607221007
 11
50.0952025728
 21
74.9607221007
  0
LINE
  5
257
100
AcDbEntity
  8
0
100
AcDbLine
 62
7
  6
BYLAYER
 10
14.8452025728
 20
64.0607221007
 11
15.0563481908
 21
64.0607221007
  0
LINE
  5
258
100
AcDbEntity
  8
0
100
AcDbLine
 62
7
  6
BYLAYER
 10
52.9501217307
 20
74.1607221007
 11
52.9501217307
 21
70.1607221007
  0
LINE
  5
259
100
AcDbEntity
  8
0
100
AcDbLine
 62
7
  6
BYLAYER
 10
52.9501217307
 20
16.1607221007
 11
52.9501217307
 21
20.1607221007
  0
LINE
  5
25A
100
AcDbEntity
  8
0
100
AcDbLine
 62
7
  6
BYLAYER
 10
55.7650199506
 20
16.1607221007
 11
55.7650199506
 21
20.1607221007
  0
LINE
  5
25B
100
AcDbEntity
  8
0
100
AcDbLine
 62
7
  6
BYLAYER
 10
55.7650199506
 20
70.1607221007
 11
55.7650199506
 21
74.1607221007
  0
LINE
  5
25C
100
AcDbEntity
  8
0
100
AcDbLine
 62
7
  6
BYLAYER
 10
16.8452025728
 20
68.2607221007
 11
14.8452025728
 21
68.2607221007
  0
LINE
  5
25D
100
AcDbEntity
  8
0
100
AcDbLine
 62
7
  6
BYLAYER
 10
56.3452025728
 20
70.1607221007
 11
56.3452025728
 21
70.0107221007
  0
LINE
  5
25E
100
AcDbEntity
  8
0
100
AcDbLine
 62
7
  6
BYLAYER
 10
56.3452025728
 20
20.3107221007
 11
56.3452025728
 21
20.1607221007
  0
LINE
  5
25F
100
AcDbEntity
  8
0
100
AcDbLine
 62
7
  6
BYLAYER
 10
57.8452025728
 20
70.1607221007
 11
57.8452025728
 21
20.1607221007
  0
LINE
  5
260
100
AcDbEntity
  8
0
100
AcDbLine
 62
7
  6
BYLAYER
 10
23.9815979691
 20
70.0107221007
 11
57.8452025728
 21
70.0107221007
  0
LINE
  5
261
100
AcDbEntity
  8
0
100
AcDbLine
 62
7
  6
BYLAYER
 10
9.3452025728
 20
70.1607221007
 11
57.8452025728
 21
70.1607221007
  0
LINE
  5
262
100
AcDbEntity
  8
0
100
AcDbLine
 62
7
  6
BYLAYER
 10
23.9253851949
 20
74.1607221007
 11
55.7650199506
 21
74.1607221007
  0
LINE
  5
263
100
AcDbEntity
  8
0
100
AcDbLine
 62
7
  6
BYLAYER
 10
29.5952025728
 20
74.9607221007
 11
50.0952025728
 21
74.9607221007
  0
LINE
  5
264
100
AcDbEntity
  8
0
100
AcDbLine
 62
7
  6
BYLAYER
 10
30.0952871748
 20
75.4607221007
 11
49.5951179708
 21
75.4607221007
  0
LINE
  5
265
100
AcDbEntity
  8
0
100
AcDbLine
 62
7
  6
BYLAYER
 10
49.5952025728
 20
75.4607221007
 11
50.0952025728
 21
74.9607221007
  0
ARC
  5
266
100
AcDbEntity
  8
0
100
AcDbCircle
 62
7
  6
BYLAYER
 10
-0.5640045215
 20
45.1607221007
 40
15.0
100
AcDbArc
 50
16.472753246
 51
34.5181078411
  0
ARC
  5
267
100
AcDbEntity
  8
0
100
AcDbCircle
 62
7
  6
BYLAYER
 10
-0.5640045215
 20
45.1607221007
 40
15.0
100
AcDbArc
 50
325.4818921589
 51
343.5272467538
  0
ARC
  5
268
100
AcDbEntity
  8
0
100
AcDbCircle
 62
7
  6
BYLAYER
 10
11.6000957143
 20
36.2940532674
 40
10.8145416948
100
AcDbArc
 50
61.4529912315
 51
64.5566045043
  0
ARC
  5
269
100
AcDbEntity
  8
0
100
AcDbCircle
 62
7
  6
BYLAYER
 10
8.5109263333
 20
39.7315584785
 40
10.5658547774
100
AcDbArc
 50
25.2503947052
 51
27.3727309215
  0
ARC
  5
26A
100
AcDbEntity
  8
0
100
AcDbCircle
 62
7
  6
BYLAYER
 10
11.9452025728
 20
45.1607221007
 40
2.5
100
AcDbArc
 50
131.7083909829
 51
228.291609017
  0
ARC
  5
26B
100
AcDbEntity
  8
0
100
AcDbCircle
 62
7
  6
BYLAYER
 10
17.0041922681
 20
-116.0340974724
 40
161.767187908
100
AcDbArc
 50
90.2108161838
 51
90.7766985264
  0
ARC
  5
26C
100
AcDbEntity
  8
0
100
AcDbCircle
 62
7
  6
BYLAYER
 10
17.2880794369
 20
-115.8516767743
 40
161.5847586698
100
AcDbArc
 50
89.2230864446
 51
89.7852305283
  0
ARC
  5
26D
100
AcDbEntity
  8
0
100
AcDbCircle
 62
7
  6
BYLAYER
 10
23.2559773519
 20
32.4695293318
 40
19.5
100
AcDbArc
 50
95.2946040439
 51
131.708390983
  0
ARC
  5
26E
100
AcDbEntity
  8
0
100
AcDbCircle
 62
7
  6
BYLAYER
 10
17.1454987018
 20
31.8955565068
 40
14.5080448934
100
AcDbArc
 50
88.5397918992
 51
90.0011694851
  0
ARC
  5
26F
100
AcDbEntity
  8
0
100
AcDbCircle
 62
7
  6
BYLAYER
 10
17.1449039534
 20
31.8957520851
 40
14.5078493151
100
AcDbArc
 50
89.998820664
 51
91.4602179517
  0
ARC
  5
270
100
AcDbEntity
  8
0
100
AcDbCircle
 62
7
  6
BYLAYER
 10
22.6838849356
 20
36.3057206519
 40
10.8122092434
100
AcDbArc
 50
115.2763533309
 51
118.5362887634
  0
ARC
  5
271
100
AcDbEntity
  8
0
100
AcDbCircle
 62
7
  6
BYLAYER
 10
25.8793884942
 20
39.6817214749
 40
10.6665081346
100
AcDbArc
 50
152.6060346323
 51
154.5715234641
  0
CIRCLE
  5
272
100
AcDbEntity
  8
0
100
AcDbCircle
 62
7
  6
BYLAYER
 10
17.1452025728
 20
45.1607221007
 40
2.6576604467
  0
ARC
  5
273
100
AcDbEntity
  8
0
100
AcDbCircle
 62
7
  6
BYLAYER
 10
17.1452025728
 20
45.1607221007
 40
2.635882267
100
AcDbArc
 50
167.9562346078
 51
192.0437653922
  0
ARC
  5
274
100
AcDbEntity
  8
0
100
AcDbCircle
 62
7
  6
BYLAYER
 10
17.1452025728
 20
45.1607221007
 40
2.635882267
100
AcDbArc
 50
347.9562346078
 51
12.0437653922
  0
ARC
  5
275
100
AcDbEntity
  8
0
100
AcDbCircle
 62
7
  6
BYLAYER
 10
17.1452025728
 20
45.1607221007
 40
2.3995145529
100
AcDbArc
 50
193.4349228262
 51
346.5650771738
  0
ARC
  5
276
100
AcDbEntity
  8
0
100
AcDbCircle
 62
7
  6
BYLAYER
 10
17.1452025728
 20
45.1607221007
 40
2.3995145529
100
AcDbArc
 50
13.4349228262
 51
166.5650771738
  0
ARC
  5
277
100
AcDbEntity
  8
0
100
AcDbCircle
 62
7
  6
BYLAYER
 10
14.8452025728
 20
34.1607221007
 40
2.1
100
AcDbArc
 50
90.0
 51
270.0
  0
ARC
  5
278
100
AcDbEntity
  8
0
100
AcDbCircle
 62
7
  6
BYLAYER
 10
16.8452025728
 20
34.1607221007
 40
2.1
100
AcDbArc
 50
270.0
 51
360.0
  0
ARC
  5
279
100
AcDbEntity
  8
0
100
AcDbCircle
 62
7
  6
BYLAYER
 10
16.8452025728
 20
35.1607221007
 40
2.1
100
AcDbArc
 50
0.0
 51
148.4118644948
  0
ARC
  5
27A
100
AcDbEntity
  8
0
100
AcDbCircle
 62
7
  6
BYLAYER
 10
14.8452025728
 20
24.1607221007
 40
2.1
100
AcDbArc
 50
90.0
 51
270.0
  0
ARC
  5
27B
100
AcDbEntity
  8
0
100
AcDbCircle
 62
7
  6
BYLAYER
 10
16.8452025728
 20
24.1607221007
 40
2.1
100
AcDbArc
 50
270.0
 51
360.0
  0
ARC
  5
27C
100
AcDbEntity
  8
0
100
AcDbCircle
 62
7
  6
BYLAYER
 10
16.8452025728
 20
25.1607221007
 40
2.1
100
AcDbArc
 50
0.0
 51
148.4118644948
  0
ARC
  5
27D
100
AcDbEntity
  8
0
100
AcDbCircle
 62
7
  6
BYLAYER
 10
17.1452025728
 20
45.1607221007
 40
0.8512765528
100
AcDbArc
 50
154.2375246411
 51
205.7624753589
  0
ARC
  5
27E
100
AcDbEntity
  8
0
100
AcDbCircle
 62
7
  6
BYLAYER
 10
17.1452025728
 20
45.1607221007
 40
0.8512765528
100
AcDbArc
 50
244.2373902193
 51
295.7626025921
  0
ARC
  5
27F
100
AcDbEntity
  8
0
100
AcDbCircle
 62
7
  6
BYLAYER
 10
17.1452025728
 20
45.1607221007
 40
0.8512765528
100
AcDbArc
 50
334.2375246411
 51
25.7624753589
  0
ARC
  5
280
100
AcDbEntity
  8
0
100
AcDbCircle
 62
7
  6
BYLAYER
 10
17.1452025728
 20
45.1607221007
 40
0.8512765528
100
AcDbArc
 50
64.2373902193
 51
115.7626025921
  0
CIRCLE
  5
281
100
AcDbEntity
  8
0
100
AcDbCircle
 62
7
  6
BYLAYER
 10
17.1452025728
 20
45.1607221007
 40
0.65
  0
ARC
  5
282
100
AcDbEntity
  8
0
100
AcDbCircle
 62
7
  6
BYLAYER
 10
17.8152025728
 20
44.6907221007
 40
0.1
100
AcDbArc
 50
90.0
 51
180.0
  0
ARC
  5
283
100
AcDbEntity
  8
0
100
AcDbCircle
 62
7
  6
BYLAYER
 10
16.4752025728
 20
44.6907221007
 40
0.1
100
AcDbArc
 50
0.0
 51
90.0
  0
ARC
  5
284
100
AcDbEntity
  8
0
100
AcDbCircle
 62
7
  6
BYLAYER
 10
16.6752025728
 20
44.4907221007
 40
0.1
100
AcDbArc
 50
0.0
 51
90.0
  0
ARC
  5
285
100
AcDbEntity
  8
0
100
AcDbCircle
 62
7
  6
BYLAYER
 10
17.6152025728
 20
44.4907221007
 40
0.1
100
AcDbArc
 50
90.0
 51
180.0
  0
ARC
  5
286
100
AcDbEntity
  8
0
100
AcDbCircle
 62
7
  6
BYLAYER
 10
17.0041923815
 20
206.3555548327
 40
161.7672010674
100
AcDbArc
 50
269.2233014966
 51
269.7891837932
  0
ARC
  5
287
100
AcDbEntity
  8
0
100
AcDbCircle
 62
7
  6
BYLAYER
 10
17.2880787726
 20
206.1731977338
 40
161.5848354299
100
AcDbArc
 50
270.2147696052
 51
270.7769134218
  0
ARC
  5
288
100
AcDbEntity
  8
0
100
AcDbCircle
 62
7
  6
BYLAYER
 10
23.2559773519
 20
57.8519148695
 40
19.5
100
AcDbArc
 50
228.291609017
 51
264.7053959528
  0
ARC
  5
289
100
AcDbEntity
  8
0
100
AcDbCircle
 62
7
  6
BYLAYER
 10
17.1451323763
 20
58.4436312703
 40
14.5257884662
100
AcDbArc
 50
268.5406845001
 51
271.4593146554
  0
ARC
  5
28A
100
AcDbEntity
  8
0
100
AcDbCircle
 62
7
  6
BYLAYER
 10
11.6529125467
 20
53.9237106015
 40
10.6982266404
100
AcDbArc
 50
295.426519489
 51
298.5638847752
  0
ARC
  5
28B
100
AcDbEntity
  8
0
100
AcDbCircle
 62
7
  6
BYLAYER
 10
22.6257463565
 20
53.901157477
 40
10.6837881998
100
AcDbArc
 50
241.4441133504
 51
244.7432445553
  0
ARC
  5
28C
100
AcDbEntity
  8
0
100
AcDbCircle
 62
7
  6
BYLAYER
 10
8.4324082033
 20
50.6287115179
 40
10.6534329093
100
AcDbArc
 50
332.6359935543
 51
334.740880819
  0
ARC
  5
28D
100
AcDbEntity
  8
0
100
AcDbCircle
 62
7
  6
BYLAYER
 10
25.8072313444
 20
50.6038859908
 40
10.5859537931
100
AcDbArc
 50
205.4209975516
 51
207.401444352
  0
ARC
  5
28E
100
AcDbEntity
  8
0
100
AcDbCircle
 62
7
  6
BYLAYER
 10
16.8452025728
 20
56.1607221007
 40
2.1
100
AcDbArc
 50
0.0
 51
90.0
  0
ARC
  5
28F
100
AcDbEntity
  8
0
100
AcDbCircle
 62
7
  6
BYLAYER
 10
14.8452025728
 20
56.1607221007
 40
2.1
100
AcDbArc
 50
90.0
 51
270.0
  0
ARC
  5
290
100
AcDbEntity
  8
0
100
AcDbCircle
 62
7
  6
BYLAYER
 10
16.8452025728
 20
55.1607221007
 40
2.1
100
AcDbArc
 50
211.5881355052
 51
360.0
  0
ARC
  5
291
100
AcDbEntity
  8
0
100
AcDbCircle
 62
7
  6
BYLAYER
 10
16.8452025728
 20
66.1607221007
 40
2.1
100
AcDbArc
 50
0.0
 51
90.0
  0
ARC
  5
292
100
AcDbEntity
  8
0
100
AcDbCircle
 62
7
  6
BYLAYER
 10
14.8452025728
 20
66.1607221007
 40
2.1
100
AcDbArc
 50
90.0
 51
270.0
  0
ARC
  5
293
100
AcDbEntity
  8
0
100
AcDbCircle
 62
7
  6
BYLAYER
 10
16.8452025728
 20
65.1607221007
 40
2.1
100
AcDbArc
 50
211.5881355052
 51
360.0
  0
ARC
  5
294
100
AcDbEntity
  8
0
100
AcDbCircle
 62
7
  6
BYLAYER
 10
17.8152025728
 20
45.6307221007
 40
0.1
100
AcDbArc
 50
180.0
 51
270.0
  0
ARC
  5
295
100
AcDbEntity
  8
0
100
AcDbCircle
 62
7
  6
BYLAYER
 10
16.4752025728
 20
45.6307221007
 40
0.1
100
AcDbArc
 50
270.0
 51
360.0
  0
ARC
  5
296
100
AcDbEntity
  8
0
100
AcDbCircle
 62
7
  6
BYLAYER
 10
17.6152025728
 20
45.8307221007
 40
0.1
100
AcDbArc
 50
180.0
 51
270.0
  0
ARC
  5
297
100
AcDbEntity
  8
0
100
AcDbCircle
 62
7
  6
BYLAYER
 10
16.6752025728
 20
45.8307221007
 40
0.1
100
AcDbArc
 50
270.0
 51
360.0
  0
ARC
  5
298
100
AcDbEntity
  8
0
100
AcDbCircle
 62
7
  6
BYLAYER
 10
133.0952025728
 20
45.1607221007
 40
126.25
100
AcDbArc
 50
168.578813725
 51
191.421186275
  0
ARC
  5
299
100
AcDbEntity
  8
0
100
AcDbCircle
 62
7
  6
BYLAYER
 10
102.3452025728
 20
45.1607221007
 40
82.5
100
AcDbArc
 50
162.3602986058
 51
175.48575372
  0
ARC
  5
29A
100
AcDbEntity
  8
0
100
AcDbCircle
 62
7
  6
BYLAYER
 10
102.3452025728
 20
45.1607221007
 40
82.5
100
AcDbArc
 50
184.51424628
 51
197.6397013942
  0
ARC
  5
29B
100
AcDbEntity
  8
0
100
AcDbCircle
 62
7
  6
BYLAYER
 10
102.5452025728
 20
45.1607221007
 40
82.4
100
AcDbArc
 50
162.4476136997
 51
175.4311162356
  0
ARC
  5
29C
100
AcDbEntity
  8
0
100
AcDbCircle
 62
7
  6
BYLAYER
 10
102.5452025728
 20
45.1607221007
 40
82.4
100
AcDbArc
 50
184.5688837645
 51
197.5523863003
  0
SPLINE
  5
29D
100
AcDbEntity
  8
0
100
AcDbSpline
 62
7
  6
BYLAYER
 70
0
 71
3
 72
11
 73
7
 74
0
 42
0.0000001
 43
0.0000001
 44
0.0000000001
 40
0.0
 40
0.0
 40
0.0
 40
0.0
 40
0.3297822644
 40
0.613300507
 40
0.8397160326
 40
1.0
 40
1.0
 40
1.0
 40
1.0
 10
14.8113520723
 20
44.6032170056
 30
0.0
 10
14.784515595
 20
44.60358965
 30
0.0
 10
14.7346095178
 20
44.6044275251
 30
0.0
 10
14.6662882686
 20
44.6060937685
 30
0.0
 10
14.6117790272
 20
44.6080458377
 30
0.0
 10
14.5803442171
 20
44.6096964059
 30
0.0
 10
14.567340023
 20
44.6107221007
 30
0.0
  0
SPLINE
  5
29E
100
AcDbEntity
  8
0
100
AcDbSpline
 62
7
  6
BYLAYER
 70
0
 71
3
 72
11
 73
7
 74
0
 42
0.0000001
 43
0.0000001
 44
0.0000000001
 40
0.0
 40
0.0
 40
0.0
 40
0.0
 40
0.1602840039
 40
0.3866996746
 40
0.6702179072
 40
1.0
 40
1.0
 40
1.0
 40
1.0
 10
14.567340023
 20
45.7107221007
 30
0.0
 10
14.5803442201
 20
45.7117477957
 30
0.0
 10
14.6117790449
 20
45.7133983644
 30
0.0
 10
14.6662883003
 20
45.7153504337
 30
0.0
 10
14.7346095465
 20
45.7170166768
 30
0.0
 10
14.7845156089
 20
45.7178545515
 30
0.0
 10
14.8113520723
 20
45.7182271958
 30
0.0
  0
SPLINE
  5
29F
100
AcDbEntity
  8
0
100
AcDbSpline
 62
7
  6
BYLAYER
 70
0
 71
3
 72
11
 73
7
 74
0
 42
0.0000001
 43
0.0000001
 44
0.0000000001
 40
0.0
 40
0.0
 40
0.0
 40
0.0
 40
0.1602840371
 40
0.3866996374
 40
0.6702178366
 40
1.0
 40
1.0
 40
1.0
 40
1.0
 10
19.7230651226
 20
44.6107221007
 30
0.0
 10
19.7100609228
 20
44.6096964054
 30
0.0
 10
19.678626101
 20
44.6080458369
 30
0.0
 10
19.6241168513
 20
44.6060937678
 30
0.0
 10
19.5557956078
 20
44.6044275247
 30
0.0
 10
19.5058895424
 20
44.6035896499
 30
0.0
 10
19.4790530732
 20
44.6032170056
 30
0.0
  0
SPLINE
  5
2A0
100
AcDbEntity
  8
0
100
AcDbSpline
 62
7
  6
BYLAYER
 70
0
 71
3
 72
11
 73
7
 74
0
 42
0.0000001
 43
0.0000001
 44
0.0000000001
 40
0.0
 40
0.0
 40
0.0
 40
0.0
 40
0.3297821937
 40
0.6133004695
 40
0.8397160657
 40
1.0
 40
1.0
 40
1.0
 40
1.0
 10
19.4790530732
 20
45.7182271958
 30
0.0
 10
19.5058895448
 20
45.7178545514
 30
0.0
 10
19.555795619
 20
45.7170166764
 30
0.0
 10
19.6241168708
 20
45.7153504329
 30
0.0
 10
19.678626118
 20
45.7133983637
 30
0.0
 10
19.7100609311
 20
45.7117477953
 30
0.0
 10
19.7230651226
 20
45.7107221007
 30
0.0
  0
SPLINE
  5
2A1
100
AcDbEntity
  8
0
100
AcDbSpline
 62
7
  6
BYLAYER
 70
0
 71
3
 72
13
 73
9
 74
0
 42
0.0000001
 43
0.0000001
 44
0.0000000001
 40
0.0
 40
0.0
 40
0.0
 40
0.0
 40
0.2499845957
 40
0.3749982722
 40
0.5000000138
 40
0.6250017488
 40
0.7500154117
 40
1.0
 40
1.0
 40
1.0
 40
1.0
 10
21.4565795087
 20
51.8863304948
 30
0.0
 10
21.3421359723
 20
50.7695237571
 30
0.0
 10
21.217322258
 20
49.0890296282
 30
0.0
 10
21.1356054399
 20
46.8449397928
 30
0.0
 10
21.1150638366
 20
45.1607219306
 30
0.0
 10
21.1356047219
 20
43.4765041153
 30
0.0
 10
21.2173218648
 20
41.2324144077
 30
0.0
 10
21.3421359775
 20
39.5519204116
 30
0.0
 10
21.4565795076
 20
38.4351137066
 30
0.0
  0
SPLINE
  5
2A2
100
AcDbEntity
  8
0
100
AcDbSpline
 62
7
  6
BYLAYER
 70
0
 71
3
 72
9
 73
5
 74
0
 42
0.0000001
 43
0.0000001
 44
0.0000000001
 40
0.0
 40
0.0
 40
0.0
 40
0.0
 40
0.5003857344
 40
1.0
 40
1.0
 40
1.0
 40
1.0
 10
21.1332232533
 20
38.4677998438
 30
0.0
 10
21.3643974115
 20
35.393453422
 30
0.0
 10
22.1460703043
 20
29.2692037763
 30
0.0
 10
23.5744109307
 20
23.2616940771
 30
0.0
 10
24.4504664873
 20
20.3107132415
 30
0.0
  0
SPLINE
  5
2A3
100
AcDbEntity
  8
0
100
AcDbSpline
 62
7
  6
BYLAYER
 70
0
 71
3
 72
15
 73
11
 74
0
 42
0.0000001
 43
0.0000001
 44
0.0000000001
 40
0.0
 40
0.0
 40
0.0
 40
0.0
 40
0.1248141206
 40
0.2497847895
 40
0.3748631332
 40
0.5
 40
0.6251368667
 40
0.7502152105
 40
0.8751858795
 40
1.0
 40
1.0
 40
1.0
 40
1.0
 10
25.4409674896
 20
70.010721698
 30
0.0
 10
24.8387096239
 20
68.0027809743
 30
0.0
 10
23.7854976599
 20
63.9370727776
 30
0.0
 10
22.660012955
 20
57.7370720841
 30
0.0
 10
21.9856546491
 20
51.4662779241
 30
0.0
 10
21.7613293241
 20
45.1607221028
 30
0.0
 10
21.985654645
 20
38.8551662806
 30
0.0
 10
22.6600129527
 20
32.5843721177
 30
0.0
 10
23.7854976678
 20
26.3843714245
 30
0.0
 10
24.8387096302
 20
22.3186632271
 30
0.0
 10
25.4409674902
 20
20.3107225034
 30
0.0
  0
SPLINE
  5
2A4
100
AcDbEntity
  8
0
100
AcDbSpline
 62
7
  6
BYLAYER
 70
0
 71
3
 72
11
 73
7
 74
0
 42
0.0000001
 43
0.0000001
 44
0.0000000001
 40
0.0
 40
0.0
 40
0.0
 40
0.0
 40
0.2496809097
 40
0.4996180499
 40
0.7497459779
 40
1.0
 40
1.0
 40
1.0
 40
1.0
 10
24.4502960811
 20
70.0107280943
 30
0.0
 10
24.012759211
 20
68.535334567
 30
0.0
 10
23.2178572459
 20
65.5584606525
 30
0.0
 10
22.2678667165
 20
61.0339408737
 30
0.0
 10
21.5596063207
 20
56.4618100298
 30
0.0
 10
21.2484279944
 20
53.3917732508
 30
0.0
 10
21.1332305063
 20
51.8536449931
 30
0.0
  0
ENDSEC
  0
SECTION
  2
OBJECTS
  0
DICTIONARY
  5
C
100
AcDbDictionary
280
0
281
1
  3
ACAD_GROUP
350
D
  3
ACAD_MLINESTYLE
350
17
  3
ACAD_LAYOUT
350
1A
  3
ACAD_PLOTSETTINGS
350
19
  3
ACAD_PLOTSTYLENAME
350
E
  0
DICTIONARY
  5
D
102
{ACAD_REACTORS
330
C
102
}
100
AcDbDictionary
280
0
281
1
  0
ACDBDICTIONARYWDFLT
  5
E
102
{ACAD_REACTORS
330
C
102
}
100
AcDbDictionary
281
1
  3
Normal
350
F
100
AcDbDictionaryWithDefault
340
F
  0
DICTIONARY
  5
17
102
{ACAD_REACTORS
330
C
102
}
100
AcDbDictionary
280
0
281
1
  3
Standard
350
18
  0
DICTIONARY
  5
19
102
{ACAD_REACTORS
330
C
102
}
100
AcDbDictionary
281
1
  0
DICTIONARY
  5
1A
102
{ACAD_REACTORS
330
C
102
}
100
AcDbDictionary
281
1
  3
Model
350
2A5
  3
Layout1
350
2A6
  0
ACDBPLACEHOLDER
  5
F
102
{ACAD_REACTORS
330
E
102
}
  0
MLINESTYLE
  5
18
102
{ACAD_REACTORS
330
17
102
}
100
AcDbMlineStyle
  2
STANDARD
 70
0
  3

 62
256
 51
90.0
 52
90.0
 71
2
 49
0.5
 62
256
  6
BYLAYER
 49
-0.5
 62
256
  6
BYLAYER
  0
LAYOUT
  5
2A5
102
{ACAD_REACTORS
330
1A
102
}
100
AcDbPlotSettings
  1

  2
none_device
  4

  6

 40
0.0
 41
0.0
 42
0.0
 43
0.0
 44
210.0
 45
297.0
 46
0.0
 47
0.0
 48
0.0
 49
0.0
140
0.0
141
0.0
142
1.0
143
1.0
 70
1024
 72
1
 73
0
 74
0
  7

 75
0
147
1.0
148
0.0
149
0.0
100
AcDbLayout
  1
Model
 70
0
 71
0
 10
0.0
 20
0.0
 11
210.0
 21
297.0
 12
0.0
 22
0.0
 32
0.0
 14
0.0
 24
0.0
 34
0.0
 15
0.0
 25
0.0
 35
0.0
146
0.0
 13
0.0
 23
0.0
 33
0.0
 16
1.0
 26
0.0
 36
0.0
 17
0.0
 27
1.0
 37
0.0
 76
0
330
210
345
0
346
0
  0
LAYOUT
  5
2A6
102
{ACAD_REACTORS
330
1A
102
}
100
AcDbPlotSettings
  1

  2
none_device
  4

  6

 40
0.0
 41
0.0
 42
0.0
 43
0.0
 44
210.0
 45
297.0
 46
0.0
 47
0.0
 48
0.0
 49
0.0
140
0.0
141
0.0
142
1.0
143
1.0
 70
0
 72
1
 73
0
 74
0
  7

 75
0
147
1.0
148
0.0
149
0.0
100
AcDbLayout
  1
Layout1
 70
0
 71
1
 10
0.0
 20
0.0
 11
210.0
 21
297.0
 12
0.0
 22
0.0
 32
0.0
 14
0.0
 24
0.0
 34
0.0
 15
0.0
 25
0.0
 35
0.0
146
0.0
 13
0.0
 23
0.0
 33
0.0
 16
1.0
 26
0.0
 36
0.0
 17
0.0
 27
1.0
 37
0.0
 76
0
330
211
345
0
346
0
  0
ENDSEC
  0
EOF
