999
DXF file: C:\Users\sesa63760\Dev\_Creo\CAD\MCADID0004826_3D-CAD\drw0001_5.dxf
999
Pro/ENGINEER 2019471 by Parametric Technology Corporation
  0
SECTION
  2
HEADER
  9
$ACADVER
  1
AC1024
  9
$DWGCODEPAGE
  3
ANSI_1252
  9
$EXTMAX
 10
82.1545865022
 20
116.1900580531
 30
0.0
  9
$EXTMIN
 10
0.0
 20
0.0
 30
0.0
  9
$LIMMIN
 10
0.0
 20
0.0
  9
$LIMMAX
 10
82.1545865022
 20
116.1900580531
  9
$VIEWCTR
 10
41.0772932511
 20
58.0950290266
  9
$VIEWSIZE
 40
116.1900580531
  9
$CLAYER
  8
0
  9
$LTSCALE
 40
7.5738704509
  9
$CELTYPE
  6
BYLAYER
  9
$DIMSCALE
 40
1.0
  9
$DIMASZ
 40
0.9780307917
  9
$DIMEXO
 40
1.0
  9
$DIMDLI
 40
5.2328559479
  9
$DIMEXE
 40
1.0
  9
$DIMCEN
 40
1.2393606192
  9
$DIMLFAC
 40
1.0
  9
$DIMBLK
  1
_FILLED
  9
$DIMALT
 70
0
  9
$DIMALTF
 40
0.0393700787
  9
$DIMTXT
 40
1.3692431084
  9
$DIMTOL
 70
1
  9
$DIMLIM
 70
0
  9
$DIMTFAC
 40
1.0
  9
$DIMTP
 40
0.01
  9
$DIMTM
 40
0.01
  9
$DIMGAP
 40
0.625
  9
$DIMDSEP
 70
46
  9
$AUNITS
 70
0
  9
$PDMODE
 70
3
  9
$PDSIZE
 40
0.3125
  9
$HANDSEED
  5
267
  9
$TILEMODE
 70
1
  9
$MEASUREMENT
 70
1
  9
$INSUNITS
 70
4
  0
ENDSEC
  0
SECTION
  2
CLASSES
  0
CLASS
  1
ACDBDICTIONARYWDFLT
  2
AcDbDictionaryWithDefault
  3
AutoCAD 2000
 90
0
 91
1
280
0
281
0
  0
CLASS
  1
ACDBPLACEHOLDER
  2
AcDbPlaceHolder
  3
AutoCAD 2000
 90
0
 91
1
280
0
281
0
  0
CLASS
  1
LAYOUT
  2
AcDbLayout
  3
AutoCAD 2000
 90
0
 91
0
280
0
281
0
  0
ENDSEC
  0
SECTION
  2
TABLES
  0
TABLE
  2
VPORT
  5
8
100
AcDbSymbolTable
 70
2
  0
VPORT
  5
1F4
100
AcDbSymbolTableRecord
100
AcDbViewportTableRecord
  2
*ACTIVE
 70
0
 10
0.0
 20
0.0
 11
1.0
 21
1.0
 12
41.0772932511
 22
58.0950290266
 13
0.0
 23
0.0
 14
1.0
 24
1.0
 15
0.0
 25
0.0
 16
0.0
 26
0.0
 36
1.0
 17
0.0
 27
0.0
 37
0.0
 40
116.1900580531
 41
0.7070707071
 42
50.0
 43
0.0
 44
0.0
 50
0.0
 51
0.0
 71
0
 72
100
 73
1
 74
1
 75
0
 76
0
 77
0
 78
0
  0
ENDTAB
  0
TABLE
  2
LTYPE
  5
5
100
AcDbSymbolTable
 70
6
  0
LTYPE
  5
14
100
AcDbSymbolTableRecord
100
AcDbLinetypeTableRecord
  2
BYBLOCK
 70
0
  3

 72
65
 73
0
 40
0.0
  0
LTYPE
  5
15
100
AcDbSymbolTableRecord
100
AcDbLinetypeTableRecord
  2
BYLAYER
 70
0
  3

 72
65
 73
0
 40
0.0
  0
LTYPE
  5
16
100
AcDbSymbolTableRecord
100
AcDbLinetypeTableRecord
  2
CONTINUOUS
 70
64
  3
Solid line
 72
65
 73
0
 40
0.0
  0
LTYPE
  5
1F5
100
AcDbSymbolTableRecord
100
AcDbLinetypeTableRecord
  2
CENTER
 70
64
  3
____ _ ____ _ ____ _ ____ _ ____ _ ____ _ ____
 72
65
 73
4
 40
0.6
 49
0.375
 74
0
 49
-0.075
 74
0
 49
0.075
 74
0
 49
-0.075
 74
0
  0
LTYPE
  5
1F6
100
AcDbSymbolTableRecord
100
AcDbLinetypeTableRecord
  2
HIDDEN
 70
64
  3
- - - - - - - - - - - - - - - - - - - -
 72
65
 73
2
 40
0.2
 49
0.1
 74
0
 49
-0.1
 74
0
  0
LTYPE
  5
1F7
100
AcDbSymbolTableRecord
100
AcDbLinetypeTableRecord
  2
PHANTOM
 70
64
  3
_____ _ _ _____ _ _ _____ _ _ _____
 72
65
 73
6
 40
0.8
 49
0.45
 74
0
 49
-0.05
 74
0
 49
0.1
 74
0
 49
-0.05
 74
0
 49
0.1
 74
0
 49
-0.05
 74
0
  0
LTYPE
  5
1F8
100
AcDbSymbolTableRecord
100
AcDbLinetypeTableRecord
  2
DOT
 70
64
  3
. . . . . . . . . . . . . . . . . . . .
 72
65
 73
2
 40
0.2
 49
0.1
 74
0
 49
-0.1
 74
0
  0
LTYPE
  5
1F9
100
AcDbSymbolTableRecord
100
AcDbLinetypeTableRecord
  2
DASHED
 70
64
  3
- - - - - - - - - - - - - - - - - - - -
 72
65
 73
2
 40
0.2
 49
0.1
 74
0
 49
-0.1
 74
0
  0
ENDTAB
  0
TABLE
  2
LAYER
  5
2
100
AcDbSymbolTable
 70
36
  0
LAYER
  5
10
100
AcDbSymbolTableRecord
100
AcDbLayerTableRecord
  2
0
 70
0
 62
7
  6
CONTINUOUS
370
-3
390
F
  0
LAYER
  5
1FA
100
AcDbSymbolTableRecord
100
AcDbLayerTableRecord
  2
DEFAULT_1
 70
0
 62
7
  6
CENTER
370
-3
390
F
  0
LAYER
  5
1FB
100
AcDbSymbolTableRecord
100
AcDbLayerTableRecord
  2
DEFAULT_2
 70
0
 62
7
  6
HIDDEN
370
-3
390
F
  0
LAYER
  5
1FC
100
AcDbSymbolTableRecord
100
AcDbLayerTableRecord
  2
DEFAULT_3
 70
0
 62
7
  6
PHANTOM
370
-3
390
F
  0
LAYER
  5
1FD
100
AcDbSymbolTableRecord
100
AcDbLayerTableRecord
  2
00_COMPONENTS
 70
0
 62
7
  6
CONTINUOUS
370
-3
390
F
  0
LAYER
  5
1FE
100
AcDbSymbolTableRecord
100
AcDbLayerTableRecord
  2
01_1_DEFAULT_DATUMS
 70
0
 62
7
  6
CONTINUOUS
370
-3
390
F
  0
LAYER
  5
1FF
100
AcDbSymbolTableRecord
100
AcDbLayerTableRecord
  2
01_PLANES
 70
0
 62
7
  6
CONTINUOUS
370
-3
390
F
  0
LAYER
  5
200
100
AcDbSymbolTableRecord
100
AcDbLayerTableRecord
  2
02_COORD_SYS
 70
0
 62
7
  6
CONTINUOUS
370
-3
390
F
  0
LAYER
  5
201
100
AcDbSymbolTableRecord
100
AcDbLayerTableRecord
  2
03_AXES
 70
0
 62
7
  6
CONTINUOUS
370
-3
390
F
  0
LAYER
  5
202
100
AcDbSymbolTableRecord
100
AcDbLayerTableRecord
  2
04_POINTS
 70
0
 62
7
  6
CONTINUOUS
370
-3
390
F
  0
LAYER
  5
203
100
AcDbSymbolTableRecord
100
AcDbLayerTableRecord
  2
05_CURVES
 70
0
 62
7
  6
CONTINUOUS
370
-3
390
F
  0
LAYER
  5
204
100
AcDbSymbolTableRecord
100
AcDbLayerTableRecord
  2
06_SURFS
 70
0
 62
7
  6
CONTINUOUS
370
-3
390
F
  0
LAYER
  5
205
100
AcDbSymbolTableRecord
100
AcDbLayerTableRecord
  2
07_COSMETICS
 70
0
 62
7
  6
CONTINUOUS
370
-3
390
F
  0
LAYER
  5
206
100
AcDbSymbolTableRecord
100
AcDbLayerTableRecord
  2
10_NOTES
 70
0
 62
7
  6
CONTINUOUS
370
-3
390
F
  0
LAYER
  5
207
100
AcDbSymbolTableRecord
100
AcDbLayerTableRecord
  2
11_NOTES_PUB
 70
0
 62
7
  6
CONTINUOUS
370
-3
390
F
  0
LAYER
  5
208
100
AcDbSymbolTableRecord
100
AcDbLayerTableRecord
  2
13_REF_GTOL
 70
0
 62
7
  6
CONTINUOUS
370
-3
390
F
  0
LAYER
  5
209
100
AcDbSymbolTableRecord
100
AcDbLayerTableRecord
  2
16_MISC
 70
0
 62
7
  6
CONTINUOUS
370
-3
390
F
  0
LAYER
  5
20A
100
AcDbSymbolTableRecord
100
AcDbLayerTableRecord
  2
17_NO_PRINT
 70
0
 62
7
  6
CONTINUOUS
370
-3
390
F
  0
LAYER
  5
20B
100
AcDbSymbolTableRecord
100
AcDbLayerTableRecord
  2
18_DATUM_CAMS_JOINTS
 70
0
 62
7
  6
CONTINUOUS
370
-3
390
F
  0
LAYER
  5
20C
100
AcDbSymbolTableRecord
100
AcDbLayerTableRecord
  2
19_DATUM_FUNCTIONAL
 70
0
 62
7
  6
CONTINUOUS
370
-3
390
F
  0
LAYER
  5
20D
100
AcDbSymbolTableRecord
100
AcDbLayerTableRecord
  2
20_DATUM_KINEMATIC_SCHEME
 70
0
 62
7
  6
CONTINUOUS
370
-3
390
F
  0
ENDTAB
  0
TABLE
  2
STYLE
  5
3
100
AcDbSymbolTable
 70
1
  0
STYLE
  5
11
100
AcDbSymbolTableRecord
100
AcDbTextStyleTableRecord
  2
STANDARD
 70
0
 40
0.0
 41
1.0
 50
0.0
 71
0
 42
0.2
  3
ARIAL.TTF
  4

  0
STYLE
  5
20E
100
AcDbSymbolTableRecord
100
AcDbTextStyleTableRecord
  2
TEXTSTYLE_1
 70
0
 40
0.0
 41
0.8
 50
0.0
 71
0
 42
0.2
  3
gdt
  4

  0
ENDTAB
  0
TABLE
  2
VIEW
  5
6
100
AcDbSymbolTable
 70
0
  0
ENDTAB
  0
TABLE
  2
UCS
  5
7
100
AcDbSymbolTable
 70
0
  0
ENDTAB
  0
TABLE
  2
APPID
  5
9
100
AcDbSymbolTable
 70
1
  0
APPID
  5
20F
100
AcDbSymbolTableRecord
100
AcDbRegAppTableRecord
  2
ACAD
 70
0
  0
ENDTAB
  0
TABLE
  2
BLOCK_RECORD
  5
1
100
AcDbSymbolTable
 70
0
  0
BLOCK_RECORD
  5
210
100
AcDbSymbolTableRecord
100
AcDbBlockTableRecord
  2
*Model_Space
  0
BLOCK_RECORD
  5
211
100
AcDbSymbolTableRecord
100
AcDbBlockTableRecord
  2
*Paper_Space
  0
BLOCK_RECORD
  5
212
100
AcDbSymbolTableRecord
100
AcDbBlockTableRecord
  2
_FILLED
  0
ENDTAB
  0
TABLE
  2
DIMSTYLE
  5
A
100
AcDbSymbolTable
 70
1
100
AcDbDimStyleTable
 71
0
  0
DIMSTYLE
105
213
100
AcDbSymbolTableRecord
100
AcDbDimStyleTableRecord
  2
STANDARD
 70
0
  3

  4

 40
1.0
 41
0.9780307917
 42
1.0
 43
0.38
 44
1.0
 45
0.0
 46
0.0
 47
0.01
 48
0.01
140
1.3692431084
141
0.09
142
0.0
143
25.4
144
1.0
145
0.0
146
1.0
147
0.625
 71
1
 72
0
 73
0
 74
0
 75
0
 76
0
 77
1
 78
8
 79
2
170
0
171
1
172
0
173
0
174
0
175
0
176
0
177
0
178
0
270
2
179
2
271
2
272
2
273
2
274
2
275
0
280
0
281
0
282
0
283
1
284
8
285
0
286
0
287
3
288
0
340
11
278
46
341
212
342
212
343
212
344
212
  0
ENDTAB
  0
ENDSEC
  0
SECTION
  2
BLOCKS
  0
BLOCK
  5
20
100
AcDbEntity
  8
0
100
AcDbBlockBegin
  2
*Model_Space
 70
0
 10
0.0
 20
0.0
 30
0.0
  3
*Model_Space
  1

  0
ENDBLK
  5
21
100
AcDbEntity
  8
0
100
AcDbBlockEnd
  0
BLOCK
  5
1C
100
AcDbEntity
  8
0
100
AcDbBlockBegin
  2
*Paper_Space
 70
0
 10
0.0
 20
0.0
 30
0.0
  3
*Paper_Space
  1

  0
ENDBLK
  5
1D
100
AcDbEntity
  8
0
100
AcDbBlockEnd
  0
BLOCK
  5
214
100
AcDbEntity
  8
0
100
AcDbBlockBegin
  2
_FILLED
 70
64
 10
0.0
 20
0.0
  3
_FILLED
  1

  0
SOLID
  5
215
100
AcDbEntity
  8
0
  6
BYBLOCK
 62
0
100
AcDbTrace
 10
0.0
 20
0.0
 11
-1.0
 21
0.25
 12
-1.0
 22
-0.25
 13
-1.0
 23
-0.25
  0
ENDBLK
  5
216
100
AcDbEntity
  8
0
  6
BYBLOCK
 62
0
100
AcDbBlockEnd
  0
ENDSEC
  0
SECTION
  2
ENTITIES
  0
LINE
  5
217
100
AcDbEntity
  8
0
100
AcDbLine
 62
7
  6
BYLAYER
 10
9.5534728643
 20
43.3373336895
 11
9.5534728643
 21
68.0373336895
  0
LINE
  5
218
100
AcDbEntity
  8
0
100
AcDbLine
 62
7
  6
BYLAYER
 10
9.7611618235
 20
43.3373336895
 11
9.7611618235
 21
43.0373336895
  0
LINE
  5
219
100
AcDbEntity
  8
0
100
AcDbLine
 62
7
  6
BYLAYER
 10
12.3126404857
 20
68.0373338698
 11
12.2586013117
 21
43.0375568727
  0
LINE
  5
21A
100
AcDbEntity
  8
0
100
AcDbLine
 62
7
  6
BYLAYER
 10
13.5019862399
 20
68.0373336895
 11
13.5343018869
 21
70.8399028225
  0
LINE
  5
21B
100
AcDbEntity
  8
0
100
AcDbLine
 62
7
  6
BYLAYER
 10
12.7003535554
 20
70.7231266849
 11
12.6534728643
 21
68.0373336895
  0
LWPOLYLINE
  5
21C
100
AcDbEntity
  8
0
100
AcDbPolyline
 62
7
  6
BYLAYER
 90
4
 70
0
 10
13.7799356989
 20
72.1369090457
 10
13.182432765
 20
71.7989135542
 10
12.7889774822
 20
71.2055414886
 10
12.7003537179
 20
70.723126682
  0
LINE
  5
21D
100
AcDbEntity
  8
0
100
AcDbLine
 62
7
  6
BYLAYER
 10
25.3528958266
 20
68.0373336895
 11
25.3546475511
 21
68.5914100249
  0
LINE
  5
21E
100
AcDbEntity
  8
0
100
AcDbLine
 62
7
  6
BYLAYER
 10
25.3932835556
 20
68.0374406796
 11
25.4000595173
 21
68.5909064102
  0
LINE
  5
21F
100
AcDbEntity
  8
0
100
AcDbLine
 62
7
  6
BYLAYER
 10
27.4741431752
 20
43.3373336895
 11
27.4731794772
 21
43.0373336895
  0
LINE
  5
220
100
AcDbEntity
  8
0
100
AcDbLine
 62
7
  6
BYLAYER
 10
63.5534728643
 20
43.0373336895
 11
55.5534728643
 21
43.0373336895
  0
LINE
  5
221
100
AcDbEntity
  8
0
100
AcDbLine
 62
7
  6
BYLAYER
 10
9.7611618235
 20
43.0373336895
 11
27.4731794772
 21
43.0373336895
  0
LINE
  5
222
100
AcDbEntity
  8
0
100
AcDbLine
 62
7
  6
BYLAYER
 10
9.7611618235
 20
43.3373336895
 11
9.5534868322
 21
43.3373336895
  0
LINE
  5
223
100
AcDbEntity
  8
0
100
AcDbLine
 62
7
  6
BYLAYER
 10
27.4741431752
 20
43.3373336895
 11
74.5534728643
 21
43.3373336895
  0
LINE
  5
224
100
AcDbEntity
  8
0
100
AcDbLine
 62
7
  6
BYLAYER
 10
70.0534728643
 20
56.0373336895
 11
70.3034728643
 21
56.0373336895
  0
LINE
  5
225
100
AcDbEntity
  8
0
100
AcDbLine
 62
7
  6
BYLAYER
 10
71.4955921301
 20
57.6721026823
 11
70.9534728643
 21
57.7873336895
  0
LINE
  5
226
100
AcDbEntity
  8
0
100
AcDbLine
 62
7
  6
BYLAYER
 10
70.4734313248
 20
53.191774328
 11
72.7398225458
 21
52.321788249
  0
LINE
  5
227
100
AcDbEntity
  8
0
100
AcDbLine
 62
7
  6
BYLAYER
 10
22.7981810857
 20
73.4373336895
 11
23.2183559084
 21
73.2756735872
  0
LINE
  5
228
100
AcDbEntity
  8
0
100
AcDbLine
 62
7
  6
BYLAYER
 10
27.4170757385
 20
68.0373336895
 11
25.3932835407
 21
68.0373336895
  0
LINE
  5
229
100
AcDbEntity
  8
0
100
AcDbLine
 62
7
  6
BYLAYER
 10
9.5536081823
 20
68.0373336895
 11
25.3528958266
 21
68.0373336895
  0
LINE
  5
22A
100
AcDbEntity
  8
0
100
AcDbLine
 62
7
  6
BYLAYER
 10
55.5534728643
 20
43.3373336895
 11
55.5534728643
 21
43.0373336895
  0
LINE
  5
22B
100
AcDbEntity
  8
0
100
AcDbLine
 62
7
  6
BYLAYER
 10
68.2534728643
 20
55.4047357427
 11
69.2082363408
 21
55.8499492635
  0
LWPOLYLINE
  5
22C
100
AcDbEntity
  8
0
100
AcDbPolyline
 62
7
  6
BYLAYER
 90
4
 70
0
 10
22.7977302147
 20
73.4373336895
 10
19.8270058518
 20
73.2983954929
 10
16.7578059355
 20
72.858458439
 10
13.7798547273
 20
72.1368854357
  0
LINE
  5
22D
100
AcDbEntity
  8
0
100
AcDbLine
 62
7
  6
BYLAYER
 10
70.3791193908
 20
73.4373336895
 11
22.7977302147
 21
73.4373336895
  0
LINE
  5
22E
100
AcDbEntity
  8
0
100
AcDbLine
 62
7
  6
BYLAYER
 10
63.5534728643
 20
43.0373336895
 11
63.5534728643
 21
43.3373336895
  0
LINE
  5
22F
100
AcDbEntity
  8
0
100
AcDbLine
 62
7
  6
BYLAYER
 10
68.2534728643
 20
55.4047357427
 11
68.2534728643
 21
43.3373336895
  0
LINE
  5
230
100
AcDbEntity
  8
0
100
AcDbLine
 62
7
  6
BYLAYER
 10
69.7034728643
 20
55.2873336895
 11
69.7034728643
 21
54.3120708398
  0
LINE
  5
231
100
AcDbEntity
  8
0
100
AcDbLine
 62
7
  6
BYLAYER
 10
70.9534728643
 20
56.1908192362
 11
70.9534728643
 21
57.9099577411
  0
LINE
  5
232
100
AcDbEntity
  8
0
100
AcDbLine
 62
7
  6
BYLAYER
 10
71.5034728643
 20
57.7091786216
 11
71.5034728643
 21
56.0745047168
  0
LINE
  5
233
100
AcDbEntity
  8
0
100
AcDbLine
 62
7
  6
BYLAYER
 10
74.8180613801
 20
60.0974652407
 11
74.8534728643
 21
58.0687426696
  0
LINE
  5
234
100
AcDbEntity
  8
0
100
AcDbLine
 62
7
  6
BYLAYER
 10
74.5534728643
 20
43.3373336895
 11
74.5534728643
 21
53.0373600899
  0
LINE
  5
235
100
AcDbEntity
  8
0
100
AcDbLine
 62
7
  6
BYLAYER
 10
74.7771460128
 20
53.695980279
 11
74.8534729177
 21
58.0687457312
  0
LINE
  5
236
100
AcDbEntity
  8
0
100
AcDbLine
 62
7
  6
BYLAYER
 10
70.3790863413
 20
73.4373794959
 11
71.0416350645
 21
72.4690321724
  0
ARC
  5
237
100
AcDbEntity
  8
0
100
AcDbCircle
 62
7
  6
BYLAYER
 10
91.6630576105
 20
257.3855540303
 40
200.1
100
AcDbArc
 50
250.0131774292
 51
263.9307312495
  0
ARC
  5
238
100
AcDbEntity
  8
0
100
AcDbCircle
 62
7
  6
BYLAYER
 10
91.9630576105
 20
257.3355540303
 40
200.0
100
AcDbArc
 50
251.171901175
 51
263.9352045671
  0
ARC
  5
239
100
AcDbEntity
  8
0
100
AcDbCircle
 62
7
  6
BYLAYER
 10
91.9555123447
 20
257.2095677967
 40
199.8738271148
100
AcDbArc
 50
263.9334865132
 51
265.0915320006
  0
ARC
  5
23A
100
AcDbEntity
  8
0
100
AcDbCircle
 62
7
  6
BYLAYER
 10
80.8545257836
 20
222.752931723
 40
159.8516443838
100
AcDbArc
 50
249.4143506691
 51
250.0997146678
  0
ARC
  5
23B
100
AcDbEntity
  8
0
100
AcDbCircle
 62
7
  6
BYLAYER
 10
22.3983391147
 20
48.893617047
 40
24.4062140472
100
AcDbArc
 50
92.8178356689
 51
92.9558961818
  0
ARC
  5
23C
100
AcDbEntity
  8
0
100
AcDbCircle
 62
7
  6
BYLAYER
 10
20.0211644028
 20
49.1624375393
 40
23.8020429706
100
AcDbArc
 50
103.9815090518
 51
104.3937472491
  0
ARC
  5
23D
100
AcDbEntity
  8
0
100
AcDbCircle
 62
7
  6
BYLAYER
 10
51.3216405439
 20
59.6873336895
 40
23.5
100
AcDbArc
 50
1.0
 51
32.9496663577
  0
ARC
  5
23E
100
AcDbEntity
  8
0
100
AcDbCircle
 62
7
  6
BYLAYER
 10
21.7680309843
 20
58.4776168876
 40
13.8368765597
100
AcDbArc
 50
93.3501669377
 51
93.539129315
  0
ARC
  5
23F
100
AcDbEntity
  8
0
100
AcDbCircle
 62
7
  6
BYLAYER
 10
70.3534728643
 20
53.9373336895
 40
2.0
100
AcDbArc
 50
68.3111943826
 51
90.0
  0
ARC
  5
240
100
AcDbEntity
  8
0
100
AcDbCircle
 62
7
  6
BYLAYER
 10
70.3034728643
 20
54.0373336895
 40
2.0
100
AcDbArc
 50
78.197135071
 51
90.0
  0
ARC
  5
241
100
AcDbEntity
  8
0
100
AcDbCircle
 62
7
  6
BYLAYER
 10
70.0534728643
 20
54.0373336895
 40
2.0
100
AcDbArc
 50
90.0
 51
115.0
  0
ARC
  5
242
100
AcDbEntity
  8
0
100
AcDbCircle
 62
7
  6
BYLAYER
 10
73.2773744701
 20
53.7221588887
 40
1.5
100
AcDbArc
 50
248.9999999987
 51
358.9999999998
  0
ARC
  5
243
100
AcDbEntity
  8
0
100
AcDbCircle
 62
7
  6
BYLAYER
 10
70.9034728643
 20
54.3120708398
 40
1.2
100
AcDbArc
 50
180.0
 51
248.9999999993
  0
ARC
  5
244
100
AcDbEntity
  8
0
100
AcDbCircle
 62
7
  6
BYLAYER
 10
70.7534728643
 20
57.7091128585
 40
0.75
100
AcDbArc
 50
0.0050239325
 51
83.9704261904
  0
ARC
  5
245
100
AcDbEntity
  8
0
100
AcDbCircle
 62
7
  6
BYLAYER
 10
70.3534728643
 20
55.2873336895
 40
0.65
100
AcDbArc
 50
90.0
 51
180.0
  0
ARC
  5
246
100
AcDbEntity
  8
0
100
AcDbCircle
 62
7
  6
BYLAYER
 10
24.4289017298
 20
72.5231261187
 40
0.62529603
100
AcDbArc
 50
69.3358912966
 51
71.2259619368
  0
ARC
  5
247
100
AcDbEntity
  8
0
100
AcDbCircle
 62
7
  6
BYLAYER
 10
70.4534728643
 20
57.9099577411
 40
0.5
100
AcDbArc
 50
0.0
 51
83.9307312474
  0
ARC
  5
248
100
AcDbEntity
  8
0
100
AcDbCircle
 62
7
  6
BYLAYER
 10
23.4843128904
 20
71.7497641367
 40
0.4206592913
100
AcDbArc
 50
64.3317351336
 51
66.4955034692
  0
ARC
  5
249
100
AcDbEntity
  8
0
100
AcDbCircle
 62
7
  6
BYLAYER
 10
71.2034728643
 20
56.0745047168
 40
0.3
100
AcDbArc
 50
248.3111943773
 51
360.0
  0
ARC
  5
24A
100
AcDbEntity
  8
0
100
AcDbCircle
 62
7
  6
BYLAYER
 10
70.7534728643
 20
56.1908192362
 40
0.2
100
AcDbArc
 50
258.1971083097
 51
360.0
  0
SPLINE
  5
24B
100
AcDbEntity
  8
0
100
AcDbSpline
 62
7
  6
BYLAYER
 70
0
 71
3
 72
17
 73
13
 74
0
 42
0.0000001
 43
0.0000001
 44
0.0000000001
 40
0.0
 40
0.0
 40
0.0
 40
0.0
 40
0.0532932551
 40
0.0869099038
 40
0.1266041087
 40
0.1731303986
 40
0.2265174895
 40
0.3526860635
 40
0.5014381681
 40
0.6647987359
 40
0.8337277977
 40
1.0
 40
1.0
 40
1.0
 40
1.0
 10
21.1398045951
 20
73.2673651427
 30
0.0
 10
21.1216791706
 20
73.2634044825
 30
0.0
 10
21.0943582474
 20
73.2470144633
 30
0.0
 10
21.0644127471
 20
73.2147169562
 30
0.0
 10
21.0408640272
 20
73.1800470597
 30
0.0
 10
21.0186078312
 20
73.1367637051
 30
0.0
 10
20.9890105267
 20
73.0637411285
 30
0.0
 10
20.9581066313
 20
72.9533577757
 30
0.0
 10
20.9320205385
 20
72.8028660374
 30
0.0
 10
20.9154936572
 20
72.6360837965
 30
0.0
 10
20.9093695876
 20
72.4625332581
 30
0.0
 10
20.911401289
 20
72.3457985141
 30
0.0
 10
20.9138839317
 20
72.2879670376
 30
0.0
  0
SPLINE
  5
24C
100
AcDbEntity
  8
0
100
AcDbSpline
 62
7
  6
BYLAYER
 70
0
 71
3
 72
17
 73
13
 74
0
 42
0.0000001
 43
0.0000001
 44
0.0000000001
 40
0.0
 40
0.0
 40
0.0
 40
0.0
 40
0.0543915655
 40
0.0883587792
 40
0.1282527343
 40
0.174838347
 40
0.2281705203
 40
0.3539983291
 40
0.5022843881
 40
0.6652135566
 40
0.8338561699
 40
1.0
 40
1.0
 40
1.0
 40
1.0
 10
21.1985405651
 20
73.2703270214
 30
0.0
 10
21.1799272197
 20
73.266397572
 30
0.0
 10
21.1517648841
 20
73.2502696132
 30
0.0
 10
21.1205465216
 20
73.2180745438
 30
0.0
 10
21.0960179478
 20
73.1835912778
 30
0.0
 10
21.0727508828
 20
73.1404981535
 30
0.0
 10
21.041729407
 20
73.0677950019
 30
0.0
 10
21.0090712671
 20
72.9576556136
 30
0.0
 10
20.9811432799
 20
72.8072007205
 30
0.0
 10
20.9630234919
 20
72.6402063541
 30
0.0
 10
20.955682871
 20
72.4661830189
 30
0.0
 10
20.9571526498
 20
72.3490369087
 30
0.0
 10
20.9594226807
 20
72.2909720145
 30
0.0
  0
SPLINE
  5
24D
100
AcDbEntity
  8
0
100
AcDbSpline
 62
7
  6
BYLAYER
 70
0
 71
3
 72
15
 73
11
 74
0
 42
0.0000001
 43
0.0000001
 44
0.0000000001
 40
0.0
 40
0.0
 40
0.0
 40
0.0
 40
0.0953230901
 40
0.2002948665
 40
0.316943168
 40
0.4446828136
 40
0.581468558
 40
0.7229954288
 40
0.8639957169
 40
1.0
 40
1.0
 40
1.0
 40
1.0
 10
23.2184264635
 20
73.2756694467
 30
0.0
 10
23.1770616987
 20
73.2734440397
 30
0.0
 10
23.0904582894
 20
73.2573149841
 30
0.0
 10
22.9640711445
 20
73.199371827
 30
0.0
 10
22.8436769865
 20
73.1048881673
 30
0.0
 10
22.7353823782
 20
72.9782274727
 30
0.0
 10
22.6469219556
 20
72.8245651858
 30
0.0
 10
22.580581872
 20
72.6541562187
 30
0.0
 10
22.5394024274
 20
72.4764430479
 30
0.0
 10
22.5270772743
 20
72.3563497444
 30
0.0
 10
22.5247056556
 20
72.297293923
 30
0.0
  0
SPLINE
  5
24E
100
AcDbEntity
  8
0
100
AcDbSpline
 62
7
  6
BYLAYER
 70
0
 71
3
 72
13
 73
9
 74
0
 42
0.0000001
 43
0.0000001
 44
0.0000000001
 40
0.0
 40
0.0
 40
0.0
 40
0.0
 40
0.2312442068
 40
0.3576434868
 40
0.4883763998
 40
0.6210186074
 40
0.7526370131
 40
1.0
 40
1.0
 40
1.0
 40
1.0
 10
24.3958779158
 20
73.1697965489
 30
0.0
 10
24.2819234524
 20
73.1667883904
 30
0.0
 10
24.1043627033
 20
73.1263048131
 30
0.0
 10
23.8943865623
 20
73.00634908
 30
0.0
 10
23.7476294955
 20
72.8802568758
 30
0.0
 10
23.6276828144
 20
72.7252580028
 30
0.0
 10
23.5112937396
 20
72.5003770814
 30
0.0
 10
23.4713388595
 20
72.3129091607
 30
0.0
 10
23.4663790885
 20
72.1910699929
 30
0.0
  0
SPLINE
  5
24F
100
AcDbEntity
  8
0
100
AcDbSpline
 62
7
  6
BYLAYER
 70
0
 71
3
 72
13
 73
9
 74
0
 42
0.0000001
 43
0.0000001
 44
0.0000000001
 40
0.0
 40
0.0
 40
0.0
 40
0.0
 40
0.237106613
 40
0.3653133916
 40
0.4966240926
 40
0.6284936241
 40
0.7582249783
 40
1.0
 40
1.0
 40
1.0
 40
1.0
 10
24.6301495158
 20
73.1151518376
 30
0.0
 10
24.5100381337
 20
73.1132282823
 30
0.0
 10
24.323192092
 20
73.0745104533
 30
0.0
 10
24.1006235035
 20
72.9547708717
 30
0.0
 10
23.9458500627
 20
72.8285882598
 30
0.0
 10
23.8197138338
 20
72.67281038
 30
0.0
 10
23.6984401416
 20
72.4472111575
 30
0.0
 10
23.6576132641
 20
72.2579182108
 30
0.0
 10
23.6536113348
 20
72.1354916333
 30
0.0
  0
SPLINE
  5
250
100
AcDbEntity
  8
0
100
AcDbSpline
 62
7
  6
BYLAYER
 70
0
 71
3
 72
26
 73
22
 74
0
 42
0.0000001
 43
0.0000001
 44
0.0000000001
 40
0.0
 40
0.0
 40
0.0
 40
0.0
 40
0.2222708733
 40
0.4205435431
 40
0.5925164873
 40
0.6680239671
 40
0.7362399873
 40
0.7969736919
 40
0.8500455202
 40
0.8953046812
 40
0.9326169242
 40
0.948254432
 40
0.9618611202
 40
0.9734233711
 40
0.9829276212
 40
0.9903582885
 40
0.9956954505
 40
0.9975722031
 40
0.9989172239
 40
0.9997275126
 40
1.0
 40
1.0
 40
1.0
 40
1.0
 10
13.5343018869
 20
70.8399028225
 30
0.0
 10
13.4723328838
 20
70.832485896
 30
0.0
 10
13.3551067156
 20
70.8182748713
 30
0.0
 10
13.1900190711
 20
70.7976365683
 30
0.0
 10
13.0659011374
 20
70.7814913363
 30
0.0
 10
12.9780631647
 20
70.7695614243
 30
0.0
 10
12.9212112144
 20
70.7615788214
 30
0.0
 10
12.8706382629
 20
70.7541888309
 30
0.0
 10
12.8264919692
 20
70.7474066752
 30
0.0
 10
12.7889018078
 20
70.7412703709
 30
0.0
 10
12.76174371
 20
70.7364791938
 30
0.0
 10
12.7433865709
 20
70.7329767933
 30
0.0
 10
12.7321517146
 20
70.7307215412
 30
0.0
 10
12.7226307375
 20
70.7286968307
 30
0.0
 10
12.7148195969
 20
70.7269316127
 30
0.0
 10
12.7087643385
 20
70.7254297742
 30
0.0
 10
12.7047464415
 20
70.7244159198
 30
0.0
 10
12.7024851348
 20
70.7237328141
 30
0.0
 10
12.7013071672
 20
70.7234861755
 30
0.0
 10
12.7008134616
 20
70.7231736301
 30
0.0
 10
12.700357051
 20
70.7232054256
 30
0.0
 10
12.7003536193
 20
70.7231289911
 30
0.0
  0
SPLINE
  5
251
100
AcDbEntity
  8
0
100
AcDbSpline
 62
7
  6
BYLAYER
 70
0
 71
3
 72
9
 73
5
 74
0
 42
0.0000001
 43
0.0000001
 44
0.0000000001
 40
0.0
 40
0.0
 40
0.0
 40
0.0
 40
0.5617860527
 40
1.0
 40
1.0
 40
1.0
 40
1.0
 10
24.3960671573
 20
73.1697640926
 30
0.0
 10
24.4404609355
 20
73.1621488532
 30
0.0
 10
24.5192093138
 20
73.1469799752
 30
0.0
 10
24.5968820405
 20
73.1264716203
 30
0.0
 10
24.6301436719
 20
73.1151533709
 30
0.0
  0
SPLINE
  5
252
100
AcDbEntity
  8
0
100
AcDbSpline
 62
7
  6
BYLAYER
 70
0
 71
3
 72
11
 73
7
 74
0
 42
0.0000001
 43
0.0000001
 44
0.0000000001
 40
0.0
 40
0.0
 40
0.0
 40
0.0
 40
0.3078925249
 40
0.578923266
 40
0.8104647438
 40
1.0
 40
1.0
 40
1.0
 40
1.0
 10
23.2182835338
 20
73.2756697134
 30
0.0
 10
23.3395460078
 20
73.2695156239
 30
0.0
 10
23.5674812778
 20
73.256439137
 30
0.0
 10
23.8862094105
 20
73.232345292
 30
0.0
 10
24.1577940704
 20
73.2049849014
 30
0.0
 10
24.3223867213
 20
73.1824006398
 30
0.0
 10
24.3960546407
 20
73.169763765
 30
0.0
  0
SPLINE
  5
253
100
AcDbEntity
  8
0
100
AcDbSpline
 62
7
  6
BYLAYER
 70
0
 71
3
 72
16
 73
12
 74
0
 42
0.0000001
 43
0.0000001
 44
0.0000000001
 40
0.0
 40
0.0
 40
0.0
 40
0.0
 40
0.002374961
 40
0.0103401512
 40
0.025087351
 40
0.0478108573
 40
0.1203353759
 40
0.2293415487
 40
0.3742253486
 40
0.5527374539
 40
1.0
 40
1.0
 40
1.0
 40
1.0
 10
13.7799356345
 20
72.1369090247
 30
0.0
 10
13.7796912386
 20
72.1368075692
 30
0.0
 10
13.782143759
 20
72.1373865215
 30
0.0
 10
13.7834839218
 20
72.1375197147
 30
0.0
 10
13.7893379685
 20
72.1388030333
 30
0.0
 10
13.8006679295
 20
72.1412391853
 30
0.0
 10
13.8233645512
 20
72.1465564348
 30
0.0
 10
13.8584407226
 20
72.155010928
 30
0.0
 10
13.9053093332
 20
72.1666654585
 30
0.0
 10
13.9885117281
 20
72.1876548086
 30
0.0
 10
14.0560825763
 20
72.2049533011
 30
0.0
 10
14.1043522508
 20
72.217341176
 30
0.0
  0
SPLINE
  5
254
100
AcDbEntity
  8
0
100
AcDbSpline
 62
7
  6
BYLAYER
 70
0
 71
3
 72
13
 73
9
 74
0
 42
0.0000001
 43
0.0000001
 44
0.0000000001
 40
0.0
 40
0.0
 40
0.0
 40
0.0
 40
0.1252266352
 40
0.2505406464
 40
0.3757857522
 40
0.5010375965
 40
0.7503968139
 40
1.0
 40
1.0
 40
1.0
 40
1.0
 10
25.4356458025
 20
71.4963959987
 30
0.0
 10
25.4364118557
 20
71.5603846572
 30
0.0
 10
25.4509036871
 20
71.6886444667
 30
0.0
 10
25.5113208731
 20
71.8722926601
 30
0.0
 10
25.6080465019
 20
72.0398148991
 30
0.0
 10
25.7787155875
 20
72.2319333676
 30
0.0
 10
26.0587183243
 20
72.4017179751
 30
0.0
 10
26.3160573009
 20
72.4464836557
 30
0.0
 10
26.4436093367
 20
72.4465875163
 30
0.0
  0
SPLINE
  5
255
100
AcDbEntity
  8
0
100
AcDbSpline
 62
7
  6
BYLAYER
 70
0
 71
3
 72
13
 73
9
 74
0
 42
0.0000001
 43
0.0000001
 44
0.0000000001
 40
0.0
 40
0.0
 40
0.0
 40
0.0
 40
0.2375848396
 40
0.3659352035
 40
0.497288508
 40
0.6290917255
 40
0.7586692639
 40
1.0
 40
1.0
 40
1.0
 40
1.0
 10
24.6482647647
 20
73.1086719723
 30
0.0
 10
24.5276397275
 20
73.1068826955
 30
0.0
 10
24.3400071836
 20
73.0683579628
 30
0.0
 10
24.1163945859
 20
72.9486477015
 30
0.0
 10
23.9609774691
 20
72.8224464699
 30
0.0
 10
23.8343740135
 20
72.6665770121
 30
0.0
 10
23.712780138
 20
72.4408746002
 30
0.0
 10
23.6719706402
 20
72.2514063741
 30
0.0
 10
23.6681047177
 20
72.128927012
 30
0.0
  0
SPLINE
  5
256
100
AcDbEntity
  8
0
100
AcDbSpline
 62
7
  6
BYLAYER
 70
0
 71
3
 72
9
 73
5
 74
0
 42
0.0000001
 43
0.0000001
 44
0.0000000001
 40
0.0
 40
0.0
 40
0.0
 40
0.0
 40
0.5000112447
 40
1.0
 40
1.0
 40
1.0
 40
1.0
 10
23.6665256384
 20
72.1289115405
 30
0.0
 10
23.6594358696
 20
71.6421134702
 30
0.0
 10
23.6446837751
 20
70.6685474328
 30
0.0
 10
23.6318468859
 20
69.6949540559
 30
0.0
 10
23.6248011235
 20
69.2081772465
 30
0.0
  0
SPLINE
  5
257
100
AcDbEntity
  8
0
100
AcDbSpline
 62
7
  6
BYLAYER
 70
0
 71
3
 72
11
 73
7
 74
0
 42
0.0000001
 43
0.0000001
 44
0.0000000001
 40
0.0
 40
0.0
 40
0.0
 40
0.0
 40
0.2981677534
 40
0.5009788874
 40
0.6856612261
 40
1.0
 40
1.0
 40
1.0
 40
1.0
 10
25.4356424319
 20
71.4961264329
 30
0.0
 10
25.2596090211
 20
71.558010625
 30
0.0
 10
24.9641195056
 20
71.6627848743
 30
0.0
 10
24.5599523378
 20
71.8068883519
 30
0.0
 10
24.1463805379
 20
71.95475127
 30
0.0
 10
23.8529476927
 20
72.0616275481
 30
0.0
 10
23.6681040005
 20
72.1289272957
 30
0.0
  0
LINE
  5
258
100
AcDbEntity
  8
0
100
AcDbLine
 62
7
  6
BYLAYER
 10
25.4000595173
 20
68.5909064102
 11
25.4356458025
 21
71.4963959987
  0
SPLINE
  5
259
100
AcDbEntity
  8
0
100
AcDbSpline
 62
7
  6
BYLAYER
 70
0
 71
3
 72
9
 73
5
 74
0
 42
0.0000001
 43
0.0000001
 44
0.0000000001
 40
0.0
 40
0.0
 40
0.0
 40
0.0
 40
0.5341684548
 40
1.0
 40
1.0
 40
1.0
 40
1.0
 10
21.198540154
 20
73.2703270011
 30
0.0
 10
21.5578892385
 20
73.2880134006
 30
0.0
 10
22.2314863534
 20
73.3058464386
 30
0.0
 10
22.9051748786
 20
73.291025672
 30
0.0
 10
23.2185532053
 20
73.2756277022
 30
0.0
  0
SPLINE
  5
25A
100
AcDbEntity
  8
0
100
AcDbSpline
 62
7
  6
BYLAYER
 70
0
 71
3
 72
13
 73
9
 74
0
 42
0.0000001
 43
0.0000001
 44
0.0000000001
 40
0.0
 40
0.0
 40
0.0
 40
0.0
 40
0.1122982786
 40
0.2274679035
 40
0.3462449671
 40
0.4688231077
 40
0.7260593376
 40
1.0
 40
1.0
 40
1.0
 40
1.0
 10
14.2703833492
 20
72.2593154338
 30
0.0
 10
14.5229260947
 20
72.3221937446
 30
0.0
 10
15.0366458587
 20
72.4408246441
 30
0.0
 10
15.822236213
 20
72.6045482777
 30
0.0
 10
16.6344877993
 20
72.7563725322
 30
0.0
 10
17.7747153543
 20
72.9440480756
 30
0.0
 10
19.2778645309
 20
73.1384792197
 30
0.0
 10
20.5057878823
 20
73.2346324246
 30
0.0
 10
21.1398047296
 20
73.2673651817
 30
0.0
  0
SPLINE
  5
25B
100
AcDbEntity
  8
0
100
AcDbSpline
 62
7
  6
BYLAYER
 70
0
 71
3
 72
11
 73
7
 74
0
 42
0.0000001
 43
0.0000001
 44
0.0000000001
 40
0.0
 40
0.0
 40
0.0
 40
0.0
 40
0.2224510406
 40
0.4654455087
 40
0.7258053495
 40
1.0
 40
1.0
 40
1.0
 40
1.0
 10
22.5248637431
 20
72.2972865488
 30
0.0
 10
22.4090315338
 20
72.3053432184
 30
0.0
 10
22.1662227323
 20
72.3156398143
 30
0.0
 10
21.7873735824
 20
72.3205575998
 30
0.0
 10
21.381505577
 20
72.3137966109
 30
0.0
 10
21.1027687487
 20
72.3000770419
 30
0.0
 10
20.9599401602
 20
72.2909406271
 30
0.0
  0
SPLINE
  5
25C
100
AcDbEntity
  8
0
100
AcDbSpline
 62
7
  6
BYLAYER
 70
0
 71
3
 72
10
 73
6
 74
0
 42
0.0000001
 43
0.0000001
 44
0.0000000001
 40
0.0
 40
0.0
 40
0.0
 40
0.0
 40
0.1899299772
 40
0.4214735795
 40
1.0
 40
1.0
 40
1.0
 40
1.0
 10
23.465325149
 20
72.1913039634
 30
0.0
 10
23.4067198198
 20
72.2039753226
 30
0.0
 10
23.2755191355
 20
72.2267120411
 30
0.0
 10
22.9623280454
 20
72.2667209148
 30
0.0
 10
22.7071597813
 20
72.2861366229
 30
0.0
 10
22.5248637431
 20
72.2972865488
 30
0.0
  0
SPLINE
  5
25D
100
AcDbEntity
  8
0
100
AcDbSpline
 62
7
  6
BYLAYER
 70
0
 71
3
 72
9
 73
5
 74
0
 42
0.0000001
 43
0.0000001
 44
0.0000000001
 40
0.0
 40
0.0
 40
0.0
 40
0.0
 40
0.4404243988
 40
1.0
 40
1.0
 40
1.0
 40
1.0
 10
23.6520806655
 20
72.1355208125
 30
0.0
 10
23.6258199281
 20
72.1469596034
 30
0.0
 10
23.5640119989
 20
72.1678101072
 30
0.0
 10
23.5008528994
 20
72.183414824
 30
0.0
 10
23.465325149
 20
72.1913039634
 30
0.0
  0
SPLINE
  5
25E
100
AcDbEntity
  8
0
100
AcDbSpline
 62
7
  6
BYLAYER
 70
0
 71
3
 72
9
 73
5
 74
0
 42
0.0000001
 43
0.0000001
 44
0.0000000001
 40
0.0
 40
0.0
 40
0.0
 40
0.0
 40
0.7500017334
 40
1.0
 40
1.0
 40
1.0
 40
1.0
 10
71.0416368823
 20
72.4690007521
 30
0.0
 10
59.8921030209
 20
72.4664980265
 30
0.0
 10
45.0260927208
 20
72.4599650719
 30
0.0
 10
30.1600852065
 20
72.4495149446
 30
0.0
 10
26.4436093367
 20
72.4465875163
 30
0.0
  0
SPLINE
  5
25F
100
AcDbEntity
  8
0
100
AcDbSpline
 62
7
  6
BYLAYER
 70
0
 71
3
 72
15
 73
11
 74
0
 42
0.0000001
 43
0.0000001
 44
0.0000000001
 40
0.0
 40
0.0
 40
0.0
 40
0.0
 40
0.0971618254
 40
0.2018059798
 40
0.3161775552
 40
0.440722141
 40
0.5746177578
 40
0.7150458503
 40
0.8581386753
 40
1.0
 40
1.0
 40
1.0
 40
1.0
 10
14.1043529237
 20
72.2173413885
 30
0.0
 10
14.0543972679
 20
72.2018755274
 30
0.0
 10
13.9542758485
 20
72.1567066461
 30
0.0
 10
13.8189252211
 20
72.0510408569
 30
0.0
 10
13.7022067546
 20
71.9057512909
 30
0.0
 10
13.609074043
 20
71.7266926597
 30
0.0
 10
13.5454454626
 20
71.5206390622
 30
0.0
 10
13.5112861647
 20
71.297846072
 30
0.0
 10
13.507403787
 20
71.0683368565
 30
0.0
 10
13.5225939739
 20
70.9153548837
 30
0.0
 10
13.5343018094
 20
70.8399045176
 30
0.0
  0
SPLINE
  5
260
100
AcDbEntity
  8
0
100
AcDbSpline
 62
7
  6
BYLAYER
 70
0
 71
3
 72
15
 73
11
 74
0
 42
0.0000001
 43
0.0000001
 44
0.0000000001
 40
0.0
 40
0.0
 40
0.0
 40
0.0
 40
0.112356605
 40
0.2290260445
 40
0.3496014679
 40
0.4737520547
 40
0.6011612513
 40
0.7315283299
 40
0.864566945
 40
1.0
 40
1.0
 40
1.0
 40
1.0
 10
13.7077619351
 20
70.8862796988
 30
0.0
 10
13.9741137442
 20
70.9566738673
 30
0.0
 10
14.5162427304
 20
71.1031602351
 30
0.0
 10
15.344864441
 20
71.3227636678
 30
0.0
 10
16.2042701546
 20
71.538920874
 30
0.0
 10
17.0931669568
 20
71.7452932995
 30
0.0
 10
18.0104691704
 20
71.9344640439
 30
0.0
 10
18.9551167991
 20
72.0968628934
 30
0.0
 10
19.9254784505
 20
72.2212078159
 30
0.0
 10
20.5822169191
 20
72.2714070284
 30
0.0
 10
20.9138839891
 20
72.2879670417
 30
0.0
  0
SPLINE
  5
261
100
AcDbEntity
  8
0
100
AcDbSpline
 62
7
  6
BYLAYER
 70
0
 71
3
 72
15
 73
11
 74
0
 42
0.0000001
 43
0.0000001
 44
0.0000000001
 40
0.0
 40
0.0
 40
0.0
 40
0.0
 40
0.094345085
 40
0.1966364937
 40
0.3093127091
 40
0.4330319147
 40
0.5672305485
 40
0.7091115292
 40
0.8547629042
 40
1.0
 40
1.0
 40
1.0
 40
1.0
 10
14.2703816303
 20
72.2593150058
 30
0.0
 10
14.2220960509
 20
72.2444724482
 30
0.0
 10
14.1249362212
 20
72.2009630125
 30
0.0
 10
13.9928824148
 20
72.0985638416
 30
0.0
 10
13.877834634
 20
71.9565564006
 30
0.0
 10
13.7850355052
 20
71.7798491677
 30
0.0
 10
13.7207967093
 20
71.5746333558
 30
0.0
 10
13.6856204732
 20
71.3508318252
 30
0.0
 10
13.6809815207
 20
71.1185563334
 30
0.0
 10
13.6959980678
 20
70.9631534908
 30
0.0
 10
13.7077614806
 20
70.8862838459
 30
0.0
  0
SPLINE
  5
262
100
AcDbEntity
  8
0
100
AcDbSpline
 62
7
  6
BYLAYER
 70
0
 71
3
 72
9
 73
5
 74
0
 42
0.0000001
 43
0.0000001
 44
0.0000000001
 40
0.0
 40
0.0
 40
0.0
 40
0.0
 40
0.2508089645
 40
1.0
 40
1.0
 40
1.0
 40
1.0
 10
13.7077619351
 20
70.8862796988
 30
0.0
 10
13.693249048
 20
70.8824443154
 30
0.0
 10
13.6353794093
 20
70.8671728165
 30
0.0
 10
13.5775559831
 20
70.8517234173
 30
0.0
 10
13.5343019049
 20
70.8399045496
 30
0.0
  0
SPLINE
  5
263
100
AcDbEntity
  8
0
100
AcDbSpline
 62
7
  6
BYLAYER
 70
0
 71
3
 72
11
 73
7
 74
0
 42
0.0000001
 43
0.0000001
 44
0.0000000001
 40
0.0
 40
0.0
 40
0.0
 40
0.0
 40
0.2499999985
 40
0.437499991
 40
0.6249999977
 40
1.0
 40
1.0
 40
1.0
 40
1.0
 10
20.8564664771
 20
68.037366093
 30
0.0
 10
20.8608623554
 20
68.3915858032
 30
0.0
 10
20.8696063919
 20
69.0114567626
 30
0.0
 10
20.8819049928
 20
69.8969887478
 30
0.0
 10
20.8960438898
 20
70.959635642
 30
0.0
 10
20.9078004192
 20
71.7566056442
 30
0.0
 10
20.9143914084
 20
72.287935251
 30
0.0
  0
LINE
  5
264
100
AcDbEntity
  8
0
100
AcDbLine
 62
7
  6
BYLAYER
 10
11.2911839556
 20
43.0373336895
 11
11.3461311025
 21
68.0373336895
  0
ENDSEC
  0
SECTION
  2
OBJECTS
  0
DICTIONARY
  5
C
100
AcDbDictionary
280
0
281
1
  3
ACAD_GROUP
350
D
  3
ACAD_MLINESTYLE
350
17
  3
ACAD_LAYOUT
350
1A
  3
ACAD_PLOTSETTINGS
350
19
  3
ACAD_PLOTSTYLENAME
350
E
  0
DICTIONARY
  5
D
102
{ACAD_REACTORS
330
C
102
}
100
AcDbDictionary
280
0
281
1
  0
ACDBDICTIONARYWDFLT
  5
E
102
{ACAD_REACTORS
330
C
102
}
100
AcDbDictionary
281
1
  3
Normal
350
F
100
AcDbDictionaryWithDefault
340
F
  0
DICTIONARY
  5
17
102
{ACAD_REACTORS
330
C
102
}
100
AcDbDictionary
280
0
281
1
  3
Standard
350
18
  0
DICTIONARY
  5
19
102
{ACAD_REACTORS
330
C
102
}
100
AcDbDictionary
281
1
  0
DICTIONARY
  5
1A
102
{ACAD_REACTORS
330
C
102
}
100
AcDbDictionary
281
1
  3
Model
350
265
  3
Layout1
350
266
  0
ACDBPLACEHOLDER
  5
F
102
{ACAD_REACTORS
330
E
102
}
  0
MLINESTYLE
  5
18
102
{ACAD_REACTORS
330
17
102
}
100
AcDbMlineStyle
  2
STANDARD
 70
0
  3

 62
256
 51
90.0
 52
90.0
 71
2
 49
0.5
 62
256
  6
BYLAYER
 49
-0.5
 62
256
  6
BYLAYER
  0
LAYOUT
  5
265
102
{ACAD_REACTORS
330
1A
102
}
100
AcDbPlotSettings
  1

  2
none_device
  4

  6

 40
0.0
 41
0.0
 42
0.0
 43
0.0
 44
210.0
 45
297.0
 46
0.0
 47
0.0
 48
0.0
 49
0.0
140
0.0
141
0.0
142
1.0
143
1.0
 70
1024
 72
1
 73
0
 74
0
  7

 75
0
147
1.0
148
0.0
149
0.0
100
AcDbLayout
  1
Model
 70
0
 71
0
 10
0.0
 20
0.0
 11
210.0
 21
297.0
 12
0.0
 22
0.0
 32
0.0
 14
0.0
 24
0.0
 34
0.0
 15
0.0
 25
0.0
 35
0.0
146
0.0
 13
0.0
 23
0.0
 33
0.0
 16
1.0
 26
0.0
 36
0.0
 17
0.0
 27
1.0
 37
0.0
 76
0
330
210
345
0
346
0
  0
LAYOUT
  5
266
102
{ACAD_REACTORS
330
1A
102
}
100
AcDbPlotSettings
  1

  2
none_device
  4

  6

 40
0.0
 41
0.0
 42
0.0
 43
0.0
 44
210.0
 45
297.0
 46
0.0
 47
0.0
 48
0.0
 49
0.0
140
0.0
141
0.0
142
1.0
143
1.0
 70
0
 72
1
 73
0
 74
0
  7

 75
0
147
1.0
148
0.0
149
0.0
100
AcDbLayout
  1
Layout1
 70
0
 71
1
 10
0.0
 20
0.0
 11
210.0
 21
297.0
 12
0.0
 22
0.0
 32
0.0
 14
0.0
 24
0.0
 34
0.0
 15
0.0
 25
0.0
 35
0.0
146
0.0
 13
0.0
 23
0.0
 33
0.0
 16
1.0
 26
0.0
 36
0.0
 17
0.0
 27
1.0
 37
0.0
 76
0
330
211
345
0
346
0
  0
ENDSEC
  0
EOF
