999
DXF file: C:\Users\sesa63760\Dev\_Creo\CAD\MCADID0004827_3D-CAD\drw0001_4.dxf
999
Pro/ENGINEER 2019471 by Parametric Technology Corporation
  0
SECTION
  2
HEADER
  9
$ACADVER
  1
AC1024
  9
$DWGCODEPAGE
  3
ANSI_1252
  9
$EXTMAX
 10
38.3763108976
 20
54.2750682695
 30
0.0
  9
$EXTMIN
 10
0.0
 20
0.0
 30
0.0
  9
$LIMMIN
 10
0.0
 20
0.0
  9
$LIMMAX
 10
38.3763108976
 20
54.2750682695
  9
$VIEWCTR
 10
19.1881554488
 20
27.1375341347
  9
$VIEWSIZE
 40
54.2750682695
  9
$CLAYER
  8
0
  9
$LTSCALE
 40
3.5379303761
  9
$CELTYPE
  6
BYLAYER
  9
$DIMSCALE
 40
1.0
  9
$DIMASZ
 40
0.456860844
  9
$DIMEXO
 40
1.0
  9
$DIMDLI
 40
2.4443882598
  9
$DIMEXE
 40
1.0
  9
$DIMCEN
 40
0.5789340615
  9
$DIMLFAC
 40
1.0
  9
$DIMBLK
  1
_FILLED
  9
$DIMALT
 70
0
  9
$DIMALTF
 40
0.0393700787
  9
$DIMTXT
 40
0.6396051816
  9
$DIMTOL
 70
1
  9
$DIMLIM
 70
0
  9
$DIMTFAC
 40
1.0
  9
$DIMTP
 40
0.01
  9
$DIMTM
 40
0.01
  9
$DIMGAP
 40
0.625
  9
$DIMDSEP
 70
46
  9
$AUNITS
 70
0
  9
$PDMODE
 70
3
  9
$PDSIZE
 40
0.3125
  9
$HANDSEED
  5
29E
  9
$TILEMODE
 70
1
  9
$MEASUREMENT
 70
1
  9
$INSUNITS
 70
4
  0
ENDSEC
  0
SECTION
  2
CLASSES
  0
CLASS
  1
ACDBDICTIONARYWDFLT
  2
AcDbDictionaryWithDefault
  3
AutoCAD 2000
 90
0
 91
1
280
0
281
0
  0
CLASS
  1
ACDBPLACEHOLDER
  2
AcDbPlaceHolder
  3
AutoCAD 2000
 90
0
 91
1
280
0
281
0
  0
CLASS
  1
LAYOUT
  2
AcDbLayout
  3
AutoCAD 2000
 90
0
 91
0
280
0
281
0
  0
ENDSEC
  0
SECTION
  2
TABLES
  0
TABLE
  2
VPORT
  5
8
100
AcDbSymbolTable
 70
2
  0
VPORT
  5
1F4
100
AcDbSymbolTableRecord
100
AcDbViewportTableRecord
  2
*ACTIVE
 70
0
 10
0.0
 20
0.0
 11
1.0
 21
1.0
 12
19.1881554488
 22
27.1375341347
 13
0.0
 23
0.0
 14
1.0
 24
1.0
 15
0.0
 25
0.0
 16
0.0
 26
0.0
 36
1.0
 17
0.0
 27
0.0
 37
0.0
 40
54.2750682695
 41
0.7070707071
 42
50.0
 43
0.0
 44
0.0
 50
0.0
 51
0.0
 71
0
 72
100
 73
1
 74
1
 75
0
 76
0
 77
0
 78
0
  0
ENDTAB
  0
TABLE
  2
LTYPE
  5
5
100
AcDbSymbolTable
 70
6
  0
LTYPE
  5
14
100
AcDbSymbolTableRecord
100
AcDbLinetypeTableRecord
  2
BYBLOCK
 70
0
  3

 72
65
 73
0
 40
0.0
  0
LTYPE
  5
15
100
AcDbSymbolTableRecord
100
AcDbLinetypeTableRecord
  2
BYLAYER
 70
0
  3

 72
65
 73
0
 40
0.0
  0
LTYPE
  5
16
100
AcDbSymbolTableRecord
100
AcDbLinetypeTableRecord
  2
CONTINUOUS
 70
64
  3
Solid line
 72
65
 73
0
 40
0.0
  0
LTYPE
  5
1F5
100
AcDbSymbolTableRecord
100
AcDbLinetypeTableRecord
  2
CENTER
 70
64
  3
____ _ ____ _ ____ _ ____ _ ____ _ ____ _ ____
 72
65
 73
4
 40
0.6
 49
0.375
 74
0
 49
-0.075
 74
0
 49
0.075
 74
0
 49
-0.075
 74
0
  0
LTYPE
  5
1F6
100
AcDbSymbolTableRecord
100
AcDbLinetypeTableRecord
  2
HIDDEN
 70
64
  3
- - - - - - - - - - - - - - - - - - - -
 72
65
 73
2
 40
0.2
 49
0.1
 74
0
 49
-0.1
 74
0
  0
LTYPE
  5
1F7
100
AcDbSymbolTableRecord
100
AcDbLinetypeTableRecord
  2
PHANTOM
 70
64
  3
_____ _ _ _____ _ _ _____ _ _ _____
 72
65
 73
6
 40
0.8
 49
0.45
 74
0
 49
-0.05
 74
0
 49
0.1
 74
0
 49
-0.05
 74
0
 49
0.1
 74
0
 49
-0.05
 74
0
  0
LTYPE
  5
1F8
100
AcDbSymbolTableRecord
100
AcDbLinetypeTableRecord
  2
DOT
 70
64
  3
. . . . . . . . . . . . . . . . . . . .
 72
65
 73
2
 40
0.2
 49
0.1
 74
0
 49
-0.1
 74
0
  0
LTYPE
  5
1F9
100
AcDbSymbolTableRecord
100
AcDbLinetypeTableRecord
  2
DASHED
 70
64
  3
- - - - - - - - - - - - - - - - - - - -
 72
65
 73
2
 40
0.2
 49
0.1
 74
0
 49
-0.1
 74
0
  0
ENDTAB
  0
TABLE
  2
LAYER
  5
2
100
AcDbSymbolTable
 70
36
  0
LAYER
  5
10
100
AcDbSymbolTableRecord
100
AcDbLayerTableRecord
  2
0
 70
0
 62
7
  6
CONTINUOUS
370
-3
390
F
  0
LAYER
  5
1FA
100
AcDbSymbolTableRecord
100
AcDbLayerTableRecord
  2
DEFAULT_1
 70
0
 62
7
  6
CENTER
370
-3
390
F
  0
LAYER
  5
1FB
100
AcDbSymbolTableRecord
100
AcDbLayerTableRecord
  2
DEFAULT_2
 70
0
 62
7
  6
HIDDEN
370
-3
390
F
  0
LAYER
  5
1FC
100
AcDbSymbolTableRecord
100
AcDbLayerTableRecord
  2
DEFAULT_3
 70
0
 62
7
  6
PHANTOM
370
-3
390
F
  0
LAYER
  5
1FD
100
AcDbSymbolTableRecord
100
AcDbLayerTableRecord
  2
00_COMPONENTS
 70
0
 62
7
  6
CONTINUOUS
370
-3
390
F
  0
LAYER
  5
1FE
100
AcDbSymbolTableRecord
100
AcDbLayerTableRecord
  2
01_1_DEFAULT_DATUMS
 70
0
 62
7
  6
CONTINUOUS
370
-3
390
F
  0
LAYER
  5
1FF
100
AcDbSymbolTableRecord
100
AcDbLayerTableRecord
  2
01_PLANES
 70
0
 62
7
  6
CONTINUOUS
370
-3
390
F
  0
LAYER
  5
200
100
AcDbSymbolTableRecord
100
AcDbLayerTableRecord
  2
02_COORD_SYS
 70
0
 62
7
  6
CONTINUOUS
370
-3
390
F
  0
LAYER
  5
201
100
AcDbSymbolTableRecord
100
AcDbLayerTableRecord
  2
03_AXES
 70
0
 62
7
  6
CONTINUOUS
370
-3
390
F
  0
LAYER
  5
202
100
AcDbSymbolTableRecord
100
AcDbLayerTableRecord
  2
04_POINTS
 70
0
 62
7
  6
CONTINUOUS
370
-3
390
F
  0
LAYER
  5
203
100
AcDbSymbolTableRecord
100
AcDbLayerTableRecord
  2
05_CURVES
 70
0
 62
7
  6
CONTINUOUS
370
-3
390
F
  0
LAYER
  5
204
100
AcDbSymbolTableRecord
100
AcDbLayerTableRecord
  2
06_SURFS
 70
0
 62
7
  6
CONTINUOUS
370
-3
390
F
  0
LAYER
  5
205
100
AcDbSymbolTableRecord
100
AcDbLayerTableRecord
  2
07_COSMETICS
 70
0
 62
7
  6
CONTINUOUS
370
-3
390
F
  0
LAYER
  5
206
100
AcDbSymbolTableRecord
100
AcDbLayerTableRecord
  2
10_NOTES
 70
0
 62
7
  6
CONTINUOUS
370
-3
390
F
  0
LAYER
  5
207
100
AcDbSymbolTableRecord
100
AcDbLayerTableRecord
  2
11_NOTES_PUB
 70
0
 62
7
  6
CONTINUOUS
370
-3
390
F
  0
LAYER
  5
208
100
AcDbSymbolTableRecord
100
AcDbLayerTableRecord
  2
13_REF_GTOL
 70
0
 62
7
  6
CONTINUOUS
370
-3
390
F
  0
LAYER
  5
209
100
AcDbSymbolTableRecord
100
AcDbLayerTableRecord
  2
16_MISC
 70
0
 62
7
  6
CONTINUOUS
370
-3
390
F
  0
LAYER
  5
20A
100
AcDbSymbolTableRecord
100
AcDbLayerTableRecord
  2
17_NO_PRINT
 70
0
 62
7
  6
CONTINUOUS
370
-3
390
F
  0
LAYER
  5
20B
100
AcDbSymbolTableRecord
100
AcDbLayerTableRecord
  2
18_DATUM_CAMS_JOINTS
 70
0
 62
7
  6
CONTINUOUS
370
-3
390
F
  0
LAYER
  5
20C
100
AcDbSymbolTableRecord
100
AcDbLayerTableRecord
  2
19_DATUM_FUNCTIONAL
 70
0
 62
7
  6
CONTINUOUS
370
-3
390
F
  0
LAYER
  5
20D
100
AcDbSymbolTableRecord
100
AcDbLayerTableRecord
  2
20_DATUM_KINEMATIC_SCHEME
 70
0
 62
7
  6
CONTINUOUS
370
-3
390
F
  0
ENDTAB
  0
TABLE
  2
STYLE
  5
3
100
AcDbSymbolTable
 70
1
  0
STYLE
  5
11
100
AcDbSymbolTableRecord
100
AcDbTextStyleTableRecord
  2
STANDARD
 70
0
 40
0.0
 41
1.0
 50
0.0
 71
0
 42
0.2
  3
ARIAL.TTF
  4

  0
STYLE
  5
20E
100
AcDbSymbolTableRecord
100
AcDbTextStyleTableRecord
  2
TEXTSTYLE_1
 70
0
 40
0.0
 41
0.8
 50
0.0
 71
0
 42
0.2
  3
gdt
  4

  0
ENDTAB
  0
TABLE
  2
VIEW
  5
6
100
AcDbSymbolTable
 70
0
  0
ENDTAB
  0
TABLE
  2
UCS
  5
7
100
AcDbSymbolTable
 70
0
  0
ENDTAB
  0
TABLE
  2
APPID
  5
9
100
AcDbSymbolTable
 70
1
  0
APPID
  5
20F
100
AcDbSymbolTableRecord
100
AcDbRegAppTableRecord
  2
ACAD
 70
0
  0
ENDTAB
  0
TABLE
  2
BLOCK_RECORD
  5
1
100
AcDbSymbolTable
 70
0
  0
BLOCK_RECORD
  5
210
100
AcDbSymbolTableRecord
100
AcDbBlockTableRecord
  2
*Model_Space
  0
BLOCK_RECORD
  5
211
100
AcDbSymbolTableRecord
100
AcDbBlockTableRecord
  2
*Paper_Space
  0
BLOCK_RECORD
  5
212
100
AcDbSymbolTableRecord
100
AcDbBlockTableRecord
  2
_FILLED
  0
ENDTAB
  0
TABLE
  2
DIMSTYLE
  5
A
100
AcDbSymbolTable
 70
1
100
AcDbDimStyleTable
 71
0
  0
DIMSTYLE
105
213
100
AcDbSymbolTableRecord
100
AcDbDimStyleTableRecord
  2
STANDARD
 70
0
  3

  4

 40
1.0
 41
0.456860844
 42
1.0
 43
0.38
 44
1.0
 45
0.0
 46
0.0
 47
0.01
 48
0.01
140
0.6396051816
141
0.09
142
0.0
143
25.4
144
1.0
145
0.0
146
1.0
147
0.625
 71
1
 72
0
 73
0
 74
0
 75
0
 76
0
 77
1
 78
8
 79
2
170
0
171
1
172
0
173
0
174
0
175
0
176
0
177
0
178
0
270
2
179
2
271
2
272
2
273
2
274
2
275
0
280
0
281
0
282
0
283
1
284
8
285
0
286
0
287
3
288
0
340
11
278
46
341
212
342
212
343
212
344
212
  0
ENDTAB
  0
ENDSEC
  0
SECTION
  2
BLOCKS
  0
BLOCK
  5
20
100
AcDbEntity
  8
0
100
AcDbBlockBegin
  2
*Model_Space
 70
0
 10
0.0
 20
0.0
 30
0.0
  3
*Model_Space
  1

  0
ENDBLK
  5
21
100
AcDbEntity
  8
0
100
AcDbBlockEnd
  0
BLOCK
  5
1C
100
AcDbEntity
  8
0
100
AcDbBlockBegin
  2
*Paper_Space
 70
0
 10
0.0
 20
0.0
 30
0.0
  3
*Paper_Space
  1

  0
ENDBLK
  5
1D
100
AcDbEntity
  8
0
100
AcDbBlockEnd
  0
BLOCK
  5
214
100
AcDbEntity
  8
0
100
AcDbBlockBegin
  2
_FILLED
 70
64
 10
0.0
 20
0.0
  3
_FILLED
  1

  0
SOLID
  5
215
100
AcDbEntity
  8
0
  6
BYBLOCK
 62
0
100
AcDbTrace
 10
0.0
 20
0.0
 11
-1.0
 21
0.25
 12
-1.0
 22
-0.25
 13
-1.0
 23
-0.25
  0
ENDBLK
  5
216
100
AcDbEntity
  8
0
  6
BYBLOCK
 62
0
100
AcDbBlockEnd
  0
ENDSEC
  0
SECTION
  2
ENTITIES
  0
LWPOLYLINE
  5
217
100
AcDbEntity
  8
0
100
AcDbPolyline
 62
7
  6
BYLAYER
 90
3
 70
0
 10
4.2863958262
 20
35.963752101
 10
4.2873530841
 20
29.0550742362
 10
4.2868501989
 20
26.3814495457
  0
LINE
  5
218
100
AcDbEntity
  8
0
100
AcDbLine
 62
7
  6
BYLAYER
 10
4.2863956539
 20
10.9637521041
 11
4.2863956539
 21
25.9951641458
  0
LINE
  5
219
100
AcDbEntity
  8
0
100
AcDbLine
 62
7
  6
BYLAYER
 10
4.2863956539
 20
26.3814495457
 11
4.2863956539
 21
35.963752101
  0
LINE
  5
21A
100
AcDbEntity
  8
0
100
AcDbLine
 62
7
  6
BYLAYER
 10
4.2863958262
 20
35.963752101
 11
4.2868501989
 21
26.3814495457
  0
LINE
  5
21B
100
AcDbEntity
  8
0
100
AcDbLine
 62
7
  6
BYLAYER
 10
4.3217540099
 20
28.0238836553
 11
4.2863956539
 21
25.9951610842
  0
LINE
  5
21C
100
AcDbEntity
  8
0
100
AcDbLine
 62
7
  6
BYLAYER
 10
4.2741373013
 20
35.9638590942
 11
4.3514176905
 21
40.3722144837
  0
LINE
  5
21D
100
AcDbEntity
  8
0
100
AcDbLine
 62
7
  6
BYLAYER
 10
4.2863956539
 20
10.9637521041
 11
35.0863956539
 21
10.9637521041
  0
LINE
  5
21E
100
AcDbEntity
  8
0
100
AcDbLine
 62
7
  6
BYLAYER
 10
4.2863956539
 20
11.2637521041
 11
35.0863956539
 21
11.2637521041
  0
LWPOLYLINE
  5
21F
100
AcDbEntity
  8
0
100
AcDbPolyline
 62
7
  6
BYLAYER
 90
3
 70
0
 10
8.0863956539
 20
25.4722128698
 10
8.2036608715
 20
23.8270231854
 10
8.4307236547
 20
23.0509330698
  0
LINE
  5
220
100
AcDbEntity
  8
0
100
AcDbLine
 62
7
  6
BYLAYER
 10
7.2863956539
 20
39.3979192149
 11
7.2863956539
 21
20.1486850293
  0
LINE
  5
221
100
AcDbEntity
  8
0
100
AcDbLine
 62
7
  6
BYLAYER
 10
7.4863956539
 20
11.2637521041
 11
7.4863956539
 21
26.2865391464
  0
LINE
  5
222
100
AcDbEntity
  8
0
100
AcDbLine
 62
7
  6
BYLAYER
 10
7.9363956539
 20
26.7747489091
 11
7.936410949
 21
25.9447933259
  0
LWPOLYLINE
  5
223
100
AcDbEntity
  8
0
100
AcDbPolyline
 62
7
  6
BYLAYER
 90
7
 70
0
 10
19.6863956539
 20
14.6768518591
 10
22.7164298857
 20
15.1117377175
 10
25.5018169983
 20
16.3812822992
 10
27.8176628549
 20
18.3829816715
 10
29.4769844137
 20
20.9552172033
 10
30.3458068716
 20
23.8903047681
 10
30.3485381675
 20
24.9131050456
  0
LINE
  5
224
100
AcDbEntity
  8
0
100
AcDbLine
 62
7
  6
BYLAYER
 10
19.6863956539
 20
14.6768518591
 11
19.6955279385
 21
14.6768557427
  0
LINE
  5
225
100
AcDbEntity
  8
0
100
AcDbLine
 62
7
  6
BYLAYER
 10
11.5725649747
 20
17.5217313581
 11
11.066618077
 21
18.0303842814
  0
LWPOLYLINE
  5
226
100
AcDbEntity
  8
0
100
AcDbPolyline
 62
7
  6
BYLAYER
 90
4
 70
0
 10
11.066618077
 20
18.0303842814
 10
9.3264559474
 20
20.7496917366
 10
8.4199021415
 20
23.8482058083
 10
8.3048440822
 20
25.4624058168
  0
LINE
  5
227
100
AcDbEntity
  8
0
100
AcDbLine
 62
7
  6
BYLAYER
 10
8.0863956539
 20
25.5116243555
 11
8.0863956539
 21
25.4722128699
  0
LINE
  5
228
100
AcDbEntity
  8
0
100
AcDbLine
 62
7
  6
BYLAYER
 10
9.1863956539
 20
10.9637521041
 11
9.1863956539
 21
11.2637521041
  0
LWPOLYLINE
  5
229
100
AcDbEntity
  8
0
100
AcDbPolyline
 62
7
  6
BYLAYER
 90
7
 70
0
 10
9.0269844362
 20
27.0082107926
 10
9.0188104223
 20
23.9472522527
 10
9.8719448282
 20
21.0075667075
 10
11.5175049751
 20
18.4265064591
 10
13.8226271662
 20
16.4124681478
 10
16.601194196
 20
15.1280666596
 10
19.6288625862
 20
14.6770054842
  0
LINE
  5
22A
100
AcDbEntity
  8
0
100
AcDbLine
 62
7
  6
BYLAYER
 10
12.4363956539
 20
25.4265406344
 11
12.4364214776
 21
25.4537442948
  0
LINE
  5
22B
100
AcDbEntity
  8
0
100
AcDbLine
 62
7
  6
BYLAYER
 10
13.1863956539
 20
10.9637521041
 11
13.1863956539
 21
11.2637521041
  0
LINE
  5
22C
100
AcDbEntity
  8
0
100
AcDbLine
 62
7
  6
BYLAYER
 10
20.4158535402
 20
42.9096128593
 11
20.4349609697
 21
42.9442869448
  0
LINE
  5
22D
100
AcDbEntity
  8
0
100
AcDbLine
 62
7
  6
BYLAYER
 10
35.0863956539
 20
20.1485773033
 11
32.0863956539
 21
20.1485773033
  0
LINE
  5
22E
100
AcDbEntity
  8
0
100
AcDbLine
 62
7
  6
BYLAYER
 10
4.2863956539
 20
20.1485773033
 11
7.2863956539
 21
20.1485773033
  0
LINE
  5
22F
100
AcDbEntity
  8
0
100
AcDbLine
 62
7
  6
BYLAYER
 10
17.0287352072
 20
42.0252771923
 11
17.0505133869
 21
42.1337521041
  0
LINE
  5
230
100
AcDbEntity
  8
0
100
AcDbLine
 62
7
  6
BYLAYER
 10
35.0863956539
 20
21.6223986936
 11
32.0863956539
 21
21.6223986936
  0
LINE
  5
231
100
AcDbEntity
  8
0
100
AcDbLine
 62
7
  6
BYLAYER
 10
7.2863956539
 20
21.6223986936
 11
4.2863956539
 21
21.6223986936
  0
LINE
  5
232
100
AcDbEntity
  8
0
100
AcDbLine
 62
7
  6
BYLAYER
 10
17.0287352072
 20
42.0252771923
 11
16.9632983048
 21
41.2773299754
  0
LINE
  5
233
100
AcDbEntity
  8
0
100
AcDbLine
 62
7
  6
BYLAYER
 10
7.4863956539
 20
23.3311541573
 11
7.2863956539
 21
23.3311541573
  0
LINE
  5
234
100
AcDbEntity
  8
0
100
AcDbLine
 62
7
  6
BYLAYER
 10
31.8863956539
 20
23.3311541573
 11
32.0863956539
 21
23.3311541573
  0
LINE
  5
235
100
AcDbEntity
  8
0
100
AcDbLine
 62
7
  6
BYLAYER
 10
7.2863956539
 20
23.7763676781
 11
7.4863956539
 21
23.7763676781
  0
LINE
  5
236
100
AcDbEntity
  8
0
100
AcDbLine
 62
7
  6
BYLAYER
 10
31.8863956539
 20
23.7763676781
 11
32.0863956539
 21
23.7763676781
  0
LINE
  5
237
100
AcDbEntity
  8
0
100
AcDbLine
 62
7
  6
BYLAYER
 10
32.0863956539
 20
23.855180136
 11
31.8863956539
 21
23.855180136
  0
LINE
  5
238
100
AcDbEntity
  8
0
100
AcDbLine
 62
7
  6
BYLAYER
 10
7.4863956539
 20
23.855180136
 11
7.2863956539
 21
23.855180136
  0
LINE
  5
239
100
AcDbEntity
  8
0
100
AcDbLine
 62
7
  6
BYLAYER
 10
22.2815708029
 20
22.0362464365
 11
21.8077159974
 21
22.5100831989
  0
LINE
  5
23A
100
AcDbEntity
  8
0
100
AcDbLine
 62
7
  6
BYLAYER
 10
19.3163956539
 20
42.8638701124
 11
19.3163956539
 21
42.9748248621
  0
LINE
  5
23B
100
AcDbEntity
  8
0
100
AcDbLine
 62
7
  6
BYLAYER
 10
7.4863956539
 20
25.9447933259
 11
7.936410949
 21
25.9447933259
  0
LINE
  5
23C
100
AcDbEntity
  8
0
100
AcDbLine
 62
7
  6
BYLAYER
 10
31.4363803588
 20
25.9447933259
 11
31.8863956539
 21
25.9447933259
  0
LINE
  5
23D
100
AcDbEntity
  8
0
100
AcDbLine
 62
7
  6
BYLAYER
 10
4.2863956539
 20
25.9951610842
 11
7.2863956539
 21
25.9951610842
  0
LINE
  5
23E
100
AcDbEntity
  8
0
100
AcDbLine
 62
7
  6
BYLAYER
 10
32.0863956539
 20
25.9951610842
 11
35.0863956539
 21
25.9951610842
  0
LINE
  5
23F
100
AcDbEntity
  8
0
100
AcDbLine
 62
7
  6
BYLAYER
 10
7.2863956539
 20
26.2865391464
 11
7.4863956539
 21
26.2865391464
  0
LINE
  5
240
100
AcDbEntity
  8
0
100
AcDbLine
 62
7
  6
BYLAYER
 10
31.8863956539
 20
26.2865391464
 11
32.0863956539
 21
26.2865391464
  0
LINE
  5
241
100
AcDbEntity
  8
0
100
AcDbLine
 62
7
  6
BYLAYER
 10
32.0863956539
 20
26.2958427474
 11
31.7786782208
 21
26.2958427457
  0
LINE
  5
242
100
AcDbEntity
  8
0
100
AcDbLine
 62
7
  6
BYLAYER
 10
7.594113087
 20
26.2958427457
 11
7.2863956539
 21
26.2958427474
  0
LINE
  5
243
100
AcDbEntity
  8
0
100
AcDbLine
 62
7
  6
BYLAYER
 10
22.5148227786
 20
23.2171630557
 11
22.988677584
 21
22.7433262932
  0
LINE
  5
244
100
AcDbEntity
  8
0
100
AcDbLine
 62
7
  6
BYLAYER
 10
22.5148227786
 20
23.2930839145
 11
22.988677584
 21
22.819247152
  0
LINE
  5
245
100
AcDbEntity
  8
0
100
AcDbLine
 62
7
  6
BYLAYER
 10
20.0563956539
 20
42.9748248621
 11
20.0563956539
 21
42.8638701124
  0
LINE
  5
246
100
AcDbEntity
  8
0
100
AcDbLine
 62
7
  6
BYLAYER
 10
35.0510372979
 20
28.0238836553
 11
32.0863956539
 21
28.0238833723
  0
LINE
  5
247
100
AcDbEntity
  8
0
100
AcDbLine
 62
7
  6
BYLAYER
 10
4.3217540099
 20
28.0238836553
 11
7.2863956539
 21
28.0238836553
  0
LINE
  5
248
100
AcDbEntity
  8
0
100
AcDbLine
 62
7
  6
BYLAYER
 10
22.5148227786
 20
23.2171630557
 11
22.5148227786
 21
23.2930839145
  0
LINE
  5
249
100
AcDbEntity
  8
0
100
AcDbLine
 62
7
  6
BYLAYER
 10
22.3440561005
 20
42.0252771923
 11
22.4094930029
 21
41.2773299754
  0
LINE
  5
24A
100
AcDbEntity
  8
0
100
AcDbLine
 62
7
  6
BYLAYER
 10
22.988677584
 20
22.819247152
 11
22.988677584
 21
22.7433262932
  0
LINE
  5
24B
100
AcDbEntity
  8
0
100
AcDbLine
 62
7
  6
BYLAYER
 10
22.3440561005
 20
42.0252771923
 11
22.3222779209
 21
42.1337521041
  0
LINE
  5
24C
100
AcDbEntity
  8
0
100
AcDbLine
 62
7
  6
BYLAYER
 10
26.1863956539
 20
11.2637521041
 11
26.1863956539
 21
10.9637521041
  0
LINE
  5
24D
100
AcDbEntity
  8
0
100
AcDbLine
 62
7
  6
BYLAYER
 10
26.9363956539
 20
25.4265406344
 11
26.9363956539
 21
25.4343945163
  0
LINE
  5
24E
100
AcDbEntity
  8
0
100
AcDbLine
 62
7
  6
BYLAYER
 10
18.9501745927
 20
42.9461471767
 11
18.967493582
 21
42.9147185582
  0
LINE
  5
24F
100
AcDbEntity
  8
0
100
AcDbLine
 62
7
  6
BYLAYER
 10
30.1863956539
 20
11.2637521041
 11
30.1863956539
 21
10.9637521041
  0
LWPOLYLINE
  5
250
100
AcDbEntity
  8
0
100
AcDbPolyline
 62
7
  6
BYLAYER
 90
6
 70
0
 10
19.6863956539
 20
36.2216637016
 10
16.656361422
 20
35.7867778432
 10
13.8709743094
 20
34.5172332615
 10
11.5551284529
 20
32.5155338892
 10
9.8958068941
 20
29.9432983573
 10
9.0269844362
 20
27.0082107926
  0
LWPOLYLINE
  5
251
100
AcDbEntity
  8
0
100
AcDbPolyline
 62
7
  6
BYLAYER
 90
8
 70
0
 10
19.7475397606
 20
36.8433597712
 10
22.9462450261
 20
36.3667188416
 10
25.8817530081
 20
35.0096735622
 10
28.3170534528
 20
32.8817905386
 10
30.0555224097
 20
30.1548731177
 10
30.9567974711
 20
27.0490901401
 10
30.9481105053
 20
23.8151997084
 10
30.0301628902
 20
20.7143032049
  0
LINE
  5
252
100
AcDbEntity
  8
0
100
AcDbLine
 62
7
  6
BYLAYER
 10
31.2863956539
 20
25.5116243555
 11
31.2863956539
 21
25.4722128698
  0
LINE
  5
253
100
AcDbEntity
  8
0
100
AcDbLine
 62
7
  6
BYLAYER
 10
31.4363803588
 20
25.9447933259
 11
31.4363956539
 21
26.7747489091
  0
LWPOLYLINE
  5
254
100
AcDbEntity
  8
0
100
AcDbPolyline
 62
7
  6
BYLAYER
 90
7
 70
0
 10
30.3499491267
 20
25.4414730562
 10
30.3539808855
 20
26.951263308
 10
29.5008464796
 20
29.8909488532
 10
27.8552863327
 20
32.4720091016
 10
25.5501641416
 20
34.4860474129
 10
22.7715971118
 20
35.7704489011
 10
19.7439287216
 20
36.2215100764
  0
LINE
  5
255
100
AcDbEntity
  8
0
100
AcDbLine
 62
7
  6
BYLAYER
 10
30.9822050076
 20
23.1696776269
 11
31.2863956539
 21
25.4722128698
  0
LINE
  5
256
100
AcDbEntity
  8
0
100
AcDbLine
 62
7
  6
BYLAYER
 10
31.8863956539
 20
11.2637521041
 11
31.8863956539
 21
26.2865391464
  0
LINE
  5
257
100
AcDbEntity
  8
0
100
AcDbLine
 62
7
  6
BYLAYER
 10
32.0863956539
 20
20.1486850293
 11
32.0863956539
 21
39.3979192149
  0
LWPOLYLINE
  5
258
100
AcDbEntity
  8
0
100
AcDbPolyline
 62
7
  6
BYLAYER
 90
3
 70
0
 10
30.0301628902
 20
20.7143032049
 10
28.277068884
 20
17.9967642026
 10
27.9498826317
 20
17.7139651567
  0
LINE
  5
259
100
AcDbEntity
  8
0
100
AcDbLine
 62
7
  6
BYLAYER
 10
7.2863956539
 20
39.3979192149
 11
32.0863956539
 21
39.3979192149
  0
LINE
  5
25A
100
AcDbEntity
  8
0
100
AcDbLine
 62
7
  6
BYLAYER
 10
35.0863956539
 20
25.9951610842
 11
35.0510372979
 21
28.0238836553
  0
LINE
  5
25B
100
AcDbEntity
  8
0
100
AcDbLine
 62
7
  6
BYLAYER
 10
35.0213733887
 20
40.3722279598
 11
35.0986558779
 21
35.9637521466
  0
LINE
  5
25C
100
AcDbEntity
  8
0
100
AcDbLine
 62
7
  6
BYLAYER
 10
35.0859413578
 20
26.3814350553
 11
35.0854382208
 21
29.0550738579
  0
LINE
  5
25D
100
AcDbEntity
  8
0
100
AcDbLine
 62
7
  6
BYLAYER
 10
35.0863956539
 20
35.9637521011
 11
35.0863956539
 21
26.3814497613
  0
LINE
  5
25E
100
AcDbEntity
  8
0
100
AcDbLine
 62
7
  6
BYLAYER
 10
35.0863956539
 20
10.9637521041
 11
35.0863956539
 21
25.9951480053
  0
LINE
  5
25F
100
AcDbEntity
  8
0
100
AcDbLine
 62
7
  6
BYLAYER
 10
35.0854382208
 20
29.0550738579
 11
35.0863954862
 21
35.9637521011
  0
LINE
  5
260
100
AcDbEntity
  8
0
100
AcDbLine
 62
7
  6
BYLAYER
 10
35.0859413578
 20
26.3814350553
 11
35.0863954862
 21
35.9637521011
  0
LINE
  5
261
100
AcDbEntity
  8
0
100
AcDbLine
 62
7
  6
BYLAYER
 10
17.0287352072
 20
42.0252771923
 11
22.3440561005
 21
42.0252771923
  0
LINE
  5
262
100
AcDbEntity
  8
0
100
AcDbLine
 62
7
  6
BYLAYER
 10
17.0505384407
 20
42.1337521041
 11
17.1085331041
 21
42.1337521041
  0
LINE
  5
263
100
AcDbEntity
  8
0
100
AcDbLine
 62
7
  6
BYLAYER
 10
22.2642582037
 20
42.1337521041
 11
22.3222528671
 21
42.1337521041
  0
LINE
  5
264
100
AcDbEntity
  8
0
100
AcDbLine
 62
7
  6
BYLAYER
 10
17.3525451534
 20
42.4203601228
 11
22.0202461543
 21
42.4203601228
  0
ARC
  5
265
100
AcDbEntity
  8
0
100
AcDbCircle
 62
7
  6
BYLAYER
 10
19.6863956539
 20
-77.7162478959
 40
119.08
100
AcDbArc
 50
82.6010167022
 51
97.398983292
  0
ARC
  5
266
100
AcDbEntity
  8
0
100
AcDbCircle
 62
7
  6
BYLAYER
 10
19.6863956539
 20
25.8637521041
 40
12.1
100
AcDbArc
 50
2.0464656897
 51
177.9535343103
  0
ARC
  5
267
100
AcDbEntity
  8
0
100
AcDbCircle
 62
7
  6
BYLAYER
 10
19.6863956539
 20
25.9637521041
 40
11.75
100
AcDbArc
 50
180.092447527
 51
359.907552473
  0
ARC
  5
268
100
AcDbEntity
  8
0
100
AcDbCircle
 62
7
  6
BYLAYER
 10
19.6863955964
 20
25.4713086839
 40
11.6004624935
100
AcDbArc
 50
89.6922054392
 51
89.9999997094
  0
ARC
  5
269
100
AcDbEntity
  8
0
100
AcDbCircle
 62
7
  6
BYLAYER
 10
19.6863956539
 20
25.5111417751
 40
11.6000735337
100
AcDbArc
 50
0.0023836052
 51
179.9976163948
  0
ARC
  5
26A
100
AcDbEntity
  8
0
100
AcDbCircle
 62
7
  6
BYLAYER
 10
19.6861732718
 20
25.4719316181
 40
11.5998085914
100
AcDbArc
 50
89.998901568
 51
179.9986107887
  0
ARC
  5
26B
100
AcDbEntity
  8
0
100
AcDbCircle
 62
7
  6
BYLAYER
 10
19.6866207491
 20
25.4719337116
 40
11.5998055878
100
AcDbArc
 50
0.0013788711
 51
89.6933009489
  0
ARC
  5
26C
100
AcDbEntity
  8
0
100
AcDbCircle
 62
7
  6
BYLAYER
 10
19.6863955988
 20
25.4615185315
 40
11.3820054742
100
AcDbArc
 50
89.6922054489
 51
89.9999997225
  0
ARC
  5
26D
100
AcDbEntity
  8
0
100
AcDbCircle
 62
7
  6
BYLAYER
 10
19.6861774593
 20
25.4621298619
 40
11.3813637675
100
AcDbArc
 50
89.9989015734
 51
179.9986107908
  0
ARC
  5
26E
100
AcDbEntity
  8
0
100
AcDbCircle
 62
7
  6
BYLAYER
 10
19.6863957051
 20
25.4500973788
 40
10.7732455198
100
AcDbArc
 50
269.6940178738
 51
269.9999997274
  0
ARC
  5
26F
100
AcDbEntity
  8
0
100
AcDbCircle
 62
7
  6
BYLAYER
 10
19.6863956026
 20
25.4484181821
 40
10.7732455194
100
AcDbArc
 50
89.6940178738
 51
89.9999997274
  0
ARC
  5
270
100
AcDbEntity
  8
0
100
AcDbCircle
 62
7
  6
BYLAYER
 10
19.686395603
 20
25.4451548412
 40
10.7004264988
100
AcDbArc
 50
89.6940178738
 51
89.9999997274
  0
ARC
  5
271
100
AcDbEntity
  8
0
100
AcDbCircle
 62
7
  6
BYLAYER
 10
19.6861900258
 20
25.4457284222
 40
10.6998236163
100
AcDbArc
 50
89.9988988987
 51
179.9986059133
  0
ARC
  5
272
100
AcDbEntity
  8
0
100
AcDbCircle
 62
7
  6
BYLAYER
 10
19.6865992922
 20
25.4416362184
 40
10.6998217313
100
AcDbArc
 50
180.0013841213
 51
359.998605203
  0
ARC
  5
273
100
AcDbEntity
  8
0
100
AcDbCircle
 62
7
  6
BYLAYER
 10
19.6861943833
 20
25.4411176386
 40
10.6998217313
100
AcDbArc
 50
0.0013968045
 51
179.9986178816
  0
ARC
  5
274
100
AcDbEntity
  8
0
100
AcDbCircle
 62
7
  6
BYLAYER
 10
19.6863962109
 20
25.4417074118
 40
8.0500463852
100
AcDbArc
 50
180.0023606367
 51
359.5388827347
  0
ARC
  5
275
100
AcDbEntity
  8
0
100
AcDbCircle
 62
7
  6
BYLAYER
 10
19.6863956957
 20
25.4410440835
 40
8.0500457999
100
AcDbArc
 50
0.0023605947
 51
179.5388828112
  0
ARC
  5
276
100
AcDbEntity
  8
0
100
AcDbCircle
 62
7
  6
BYLAYER
 10
19.6869764036
 20
25.4413758739
 40
8.0494191573
100
AcDbArc
 50
359.5412093095
 51
359.9999990804
  0
ARC
  5
277
100
AcDbEntity
  8
0
100
AcDbCircle
 62
7
  6
BYLAYER
 10
19.6858149037
 20
25.4413756155
 40
8.0494191568
100
AcDbArc
 50
179.5412093094
 51
179.9999990804
  0
ARC
  5
278
100
AcDbEntity
  8
0
100
AcDbCircle
 62
7
  6
BYLAYER
 10
19.6863961674
 20
25.4268384841
 40
7.2500438377
100
AcDbArc
 50
180.002353866
 51
359.5388895044
  0
ARC
  5
279
100
AcDbEntity
  8
0
100
AcDbCircle
 62
7
  6
BYLAYER
 10
19.6863956908
 20
25.4340966584
 40
7.2500437468
100
AcDbArc
 50
0.0023539314
 51
179.5388894743
  0
ARC
  5
27A
100
AcDbEntity
  8
0
100
AcDbCircle
 62
7
  6
BYLAYER
 10
19.6863956908
 20
25.4262427764
 40
7.2500437468
100
AcDbArc
 50
0.0023539315
 51
179.5388894742
  0
ARC
  5
27B
100
AcDbEntity
  8
0
100
AcDbCircle
 62
7
  6
BYLAYER
 10
19.6858726185
 20
25.426540518
 40
7.2494769646
100
AcDbArc
 50
179.5412093095
 51
179.9999990804
  0
ARC
  5
27C
100
AcDbEntity
  8
0
100
AcDbCircle
 62
7
  6
BYLAYER
 10
19.6869186898
 20
25.4265407507
 40
7.2494769641
100
AcDbArc
 50
359.5412093094
 51
359.9999990804
  0
ARC
  5
27D
100
AcDbEntity
  8
0
100
AcDbCircle
 62
7
  6
BYLAYER
 10
19.685856056
 20
25.4343944496
 40
7.2494604023
100
AcDbArc
 50
179.5412086536
 51
179.8470691998
  0
ARC
  5
27E
100
AcDbEntity
  8
0
100
AcDbCircle
 62
7
  6
BYLAYER
 10
19.6863961818
 20
25.4242141964
 40
6.9500424832
100
AcDbArc
 50
180.0024033118
 51
359.5388400579
  0
ARC
  5
27F
100
AcDbEntity
  8
0
100
AcDbCircle
 62
7
  6
BYLAYER
 10
19.6863956657
 20
25.4236312652
 40
6.9500424618
100
AcDbArc
 50
0.0024023711
 51
179.5388410345
  0
ARC
  5
280
100
AcDbEntity
  8
0
100
AcDbCircle
 62
7
  6
BYLAYER
 10
19.6860841442
 20
25.3497768089
 40
5.8996851127
100
AcDbArc
 50
45.0005786275
 51
359.997623564
  0
ARC
  5
281
100
AcDbEntity
  8
0
100
AcDbCircle
 62
7
  6
BYLAYER
 10
19.6867071627
 20
25.349717436
 40
5.8996851127
100
AcDbArc
 50
0.0002883125
 51
45.0012521654
  0
ARC
  5
282
100
AcDbEntity
  8
0
100
AcDbCircle
 62
7
  6
BYLAYER
 10
19.6867108253
 20
25.4090592427
 40
5.8996815369
100
AcDbArc
 50
0.0002750491
 51
179.9976227921
  0
ARC
  5
283
100
AcDbEntity
  8
0
100
AcDbCircle
 62
7
  6
BYLAYER
 10
19.6861745105
 20
25.3367085697
 40
5.2997780881
100
AcDbArc
 50
45.0005643377
 51
359.9976561824
  0
ARC
  5
284
100
AcDbEntity
  8
0
100
AcDbCircle
 62
7
  6
BYLAYER
 10
19.6866167474
 20
25.3366061881
 40
5.2997780881
100
AcDbArc
 50
0.0005528405
 51
45.0009901518
  0
ARC
  5
285
100
AcDbEntity
  8
0
100
AcDbCircle
 62
7
  6
BYLAYER
 10
19.6866206738
 20
25.3496976662
 40
5.2997739203
100
AcDbArc
 50
0.0005347875
 51
179.9977315969
  0
ARC
  5
286
100
AcDbEntity
  8
0
100
AcDbCircle
 62
7
  6
BYLAYER
 10
19.6865400646
 20
25.338482771
 40
4.1998749198
100
AcDbArc
 50
308.1616941849
 51
321.8361241259
  0
ARC
  5
287
100
AcDbEntity
  8
0
100
AcDbCircle
 62
7
  6
BYLAYER
 10
19.686213724
 20
25.4143607041
 40
4.1998167316
100
AcDbArc
 50
181.0508483045
 51
307.409309106
  0
ARC
  5
288
100
AcDbEntity
  8
0
100
AcDbCircle
 62
7
  6
BYLAYER
 10
19.6861843359
 20
25.3366328158
 40
4.1997849281
100
AcDbArc
 50
0.0003520648
 51
321.8360966692
  0
ARC
  5
289
100
AcDbEntity
  8
0
100
AcDbCircle
 62
7
  6
BYLAYER
 10
19.6866544169
 20
25.4143231157
 40
4.1997352388
100
AcDbArc
 50
321.8360237729
 51
358.9416227006
  0
ARC
  5
28A
100
AcDbEntity
  8
0
100
AcDbCircle
 62
7
  6
BYLAYER
 10
19.6866808299
 20
25.3366463
 40
4.1997079122
100
AcDbArc
 50
321.8359153449
 51
0.0001503674
  0
ARC
  5
28B
100
AcDbEntity
  8
0
100
AcDbCircle
 62
7
  6
BYLAYER
 10
19.6863868036
 20
37.5824913983
 40
5.2943228626
100
AcDbArc
 50
85.9926485366
 51
94.0073537828
  0
ARC
  5
28C
100
AcDbEntity
  8
0
100
AcDbCircle
 62
7
  6
BYLAYER
 10
19.6862990243
 20
38.0192666663
 40
4.9815691045
100
AcDbArc
 50
98.4976931717
 51
117.9355238878
  0
ARC
  5
28D
100
AcDbEntity
  8
0
100
AcDbCircle
 62
7
  6
BYLAYER
 10
19.6864932878
 20
38.0192691088
 40
4.9815664761
100
AcDbArc
 50
62.0644731569
 51
81.3587328303
  0
ARC
  5
28E
100
AcDbEntity
  8
0
100
AcDbCircle
 62
7
  6
BYLAYER
 10
19.3314131111
 20
41.9264841993
 40
1.0886024966
100
AcDbArc
 50
110.5001061359
 51
119.9810650385
  0
ARC
  5
28F
100
AcDbEntity
  8
0
100
AcDbCircle
 62
7
  6
BYLAYER
 10
20.0510764363
 20
41.9254879337
 40
1.0887234543
100
AcDbArc
 50
59.2073168016
 51
69.3535383815
  0
ARC
  5
290
100
AcDbEntity
  8
0
100
AcDbCircle
 62
7
  6
BYLAYER
 10
22.1612753184
 20
22.9395134753
 40
0.5000069381
100
AcDbArc
 50
45.0018619192
 51
179.9965035558
  0
ARC
  5
291
100
AcDbEntity
  8
0
100
AcDbCircle
 62
7
  6
BYLAYER
 10
22.1612432963
 20
22.8636252921
 40
0.4999696892
100
AcDbArc
 50
45.0019189308
 51
225.0011988214
  0
SPLINE
  5
292
100
AcDbEntity
  8
0
100
AcDbSpline
 62
7
  6
BYLAYER
 70
0
 71
3
 72
11
 73
7
 74
0
 42
0.0000001
 43
0.0000001
 44
0.0000000001
 40
0.0
 40
0.0
 40
0.0
 40
0.0
 40
0.2499669832
 40
0.4999588874
 40
0.749970144
 40
1.0
 40
1.0
 40
1.0
 40
1.0
 10
22.2642582037
 20
42.1337521041
 30
0.0
 10
22.2541475146
 20
42.1642063328
 30
0.0
 10
22.2278962755
 20
42.2232963255
 30
0.0
 10
22.1722838514
 20
42.3025848776
 30
0.0
 10
22.1026590678
 20
42.3698965453
 30
0.0
 10
22.0486027821
 20
42.4053233084
 30
0.0
 10
22.0202461544
 20
42.4203601228
 30
0.0
  0
SPLINE
  5
293
100
AcDbEntity
  8
0
100
AcDbSpline
 62
7
  6
BYLAYER
 70
0
 71
3
 72
11
 73
7
 74
0
 42
0.0000001
 43
0.0000001
 44
0.0000000001
 40
0.0
 40
0.0
 40
0.0
 40
0.0
 40
0.3396701146
 40
0.5482366008
 40
0.7220493719
 40
1.0
 40
1.0
 40
1.0
 40
1.0
 10
20.059920551
 20
42.9780569706
 30
0.0
 10
20.0593934221
 20
42.9778452156
 30
0.0
 10
20.0585563007
 20
42.9774634467
 30
0.0
 10
20.0575420448
 20
42.9767966776
 30
0.0
 10
20.0567332689
 20
42.9760449052
 30
0.0
 10
20.0563956539
 20
42.9752897125
 30
0.0
 10
20.0563956539
 20
42.9748248621
 30
0.0
  0
SPLINE
  5
294
100
AcDbEntity
  8
0
100
AcDbSpline
 62
7
  6
BYLAYER
 70
0
 71
3
 72
9
 73
5
 74
0
 42
0.0000001
 43
0.0000001
 44
0.0000000001
 40
0.0
 40
0.0
 40
0.0
 40
0.0
 40
0.2531885292
 40
1.0
 40
1.0
 40
1.0
 40
1.0
 10
20.608430085
 20
42.8607289028
 30
0.0
 10
20.5628394038
 20
42.8735439346
 30
0.0
 10
20.3820026186
 20
42.9213618321
 30
0.0
 10
20.1981358632
 20
42.9578336527
 30
0.0
 10
20.059920551
 20
42.9780569706
 30
0.0
  0
SPLINE
  5
295
100
AcDbEntity
  8
0
100
AcDbSpline
 62
7
  6
BYLAYER
 70
0
 71
3
 72
12
 73
8
 74
0
 42
0.0000001
 43
0.0000001
 44
0.0000000001
 40
0.0
 40
0.0
 40
0.0
 40
0.0
 40
0.150469741
 40
0.2427546114
 40
0.3523469548
 40
0.6322484559
 40
1.0
 40
1.0
 40
1.0
 40
1.0
 10
19.3163956539
 20
42.9748248621
 30
0.0
 10
19.3163956539
 20
42.9752622169
 30
0.0
 10
19.3161009349
 20
42.975970287
 30
0.0
 10
19.315374432
 20
42.9766933789
 30
0.0
 10
19.3142214046
 20
42.977500656
 30
0.0
 10
19.3121868615
 20
42.9783799232
 30
0.0
 10
19.3103759145
 20
42.978899882
 30
0.0
 10
19.309338
 20
42.9791554049
 30
0.0
  0
SPLINE
  5
296
100
AcDbEntity
  8
0
100
AcDbSpline
 62
7
  6
BYLAYER
 70
0
 71
3
 72
11
 73
7
 74
0
 42
0.0000001
 43
0.0000001
 44
0.0000000001
 40
0.0
 40
0.0
 40
0.0
 40
0.0
 40
0.2500299396
 40
0.5000412516
 40
0.7500331038
 40
1.0
 40
1.0
 40
1.0
 40
1.0
 10
17.3525451534
 20
42.4203601228
 30
0.0
 10
17.3241885162
 20
42.4053233034
 30
0.0
 10
17.2701322175
 20
42.369896527
 30
0.0
 10
17.2005074296
 20
42.3025848474
 30
0.0
 10
17.1448950188
 20
42.2232962992
 30
0.0
 10
17.1186437897
 20
42.1642063222
 30
0.0
 10
17.1085331041
 20
42.1337521041
 30
0.0
  0
SPLINE
  5
297
100
AcDbEntity
  8
0
100
AcDbSpline
 62
7
  6
BYLAYER
 70
0
 71
3
 72
9
 73
5
 74
0
 42
0.0000001
 43
0.0000001
 44
0.0000000001
 40
0.0
 40
0.0
 40
0.0
 40
0.0
 40
0.2530389087
 40
1.0
 40
1.0
 40
1.0
 40
1.0
 10
18.7874234526
 20
42.8694214437
 30
0.0
 10
18.8308208866
 20
42.8813230087
 30
0.0
 10
19.0030099927
 20
42.9258148505
 30
0.0
 10
19.1778912856
 20
42.9599817101
 30
0.0
 10
19.309338
 20
42.9791554049
 30
0.0
  0
LINE
  5
298
100
AcDbEntity
  8
0
100
AcDbLine
 62
7
  6
BYLAYER
 10
12.7363960305
 20
25.4239226737
 11
12.7366188253
 21
25.4795694361
  0
LINE
  5
299
100
AcDbEntity
  8
0
100
AcDbLine
 62
7
  6
BYLAYER
 10
26.6363952773
 20
25.4239226737
 11
26.6361724825
 21
25.3682759113
  0
SPLINE
  5
29A
100
AcDbEntity
  8
0
100
AcDbSpline
 62
7
  6
BYLAYER
 70
0
 71
3
 72
10
 73
6
 74
0
 42
0.0000001
 43
0.0000001
 44
0.0000000001
 40
0.0
 40
0.0
 40
0.0
 40
0.0
 40
0.2635831368
 40
0.6465852677
 40
1.0
 40
1.0
 40
1.0
 40
1.0
 10
35.0510781481
 20
28.0238835138
 30
0.0
 10
35.0321312195
 20
29.110853024
 30
0.0
 10
34.9858224683
 20
31.7772574952
 30
0.0
 10
34.9156453543
 20
35.9011073481
 30
0.0
 10
34.865186482
 20
38.9380005035
 30
0.0
 10
34.8413955523
 20
40.3954466058
 30
0.0
  0
SPLINE
  5
29B
100
AcDbEntity
  8
0
100
AcDbSpline
 62
7
  6
BYLAYER
 70
0
 71
3
 72
9
 73
5
 74
0
 42
0.0000001
 43
0.0000001
 44
0.0000000001
 40
0.0
 40
0.0
 40
0.0
 40
0.0
 40
0.2315192187
 40
1.0
 40
1.0
 40
1.0
 40
1.0
 10
4.5314368742
 20
40.3954505869
 30
0.0
 10
4.5158516183
 20
39.440688796
 30
0.0
 10
4.4477456117
 20
35.3168030291
 30
0.0
 10
4.3769940961
 20
31.1929612979
 30
0.0
 10
4.3217540099
 20
28.0238836553
 30
0.0
  0
ENDSEC
  0
SECTION
  2
OBJECTS
  0
DICTIONARY
  5
C
100
AcDbDictionary
280
0
281
1
  3
ACAD_GROUP
350
D
  3
ACAD_MLINESTYLE
350
17
  3
ACAD_LAYOUT
350
1A
  3
ACAD_PLOTSETTINGS
350
19
  3
ACAD_PLOTSTYLENAME
350
E
  0
DICTIONARY
  5
D
102
{ACAD_REACTORS
330
C
102
}
100
AcDbDictionary
280
0
281
1
  0
ACDBDICTIONARYWDFLT
  5
E
102
{ACAD_REACTORS
330
C
102
}
100
AcDbDictionary
281
1
  3
Normal
350
F
100
AcDbDictionaryWithDefault
340
F
  0
DICTIONARY
  5
17
102
{ACAD_REACTORS
330
C
102
}
100
AcDbDictionary
280
0
281
1
  3
Standard
350
18
  0
DICTIONARY
  5
19
102
{ACAD_REACTORS
330
C
102
}
100
AcDbDictionary
281
1
  0
DICTIONARY
  5
1A
102
{ACAD_REACTORS
330
C
102
}
100
AcDbDictionary
281
1
  3
Model
350
29C
  3
Layout1
350
29D
  0
ACDBPLACEHOLDER
  5
F
102
{ACAD_REACTORS
330
E
102
}
  0
MLINESTYLE
  5
18
102
{ACAD_REACTORS
330
17
102
}
100
AcDbMlineStyle
  2
STANDARD
 70
0
  3

 62
256
 51
90.0
 52
90.0
 71
2
 49
0.5
 62
256
  6
BYLAYER
 49
-0.5
 62
256
  6
BYLAYER
  0
LAYOUT
  5
29C
102
{ACAD_REACTORS
330
1A
102
}
100
AcDbPlotSettings
  1

  2
none_device
  4

  6

 40
0.0
 41
0.0
 42
0.0
 43
0.0
 44
210.0
 45
297.0
 46
0.0
 47
0.0
 48
0.0
 49
0.0
140
0.0
141
0.0
142
1.0
143
1.0
 70
1024
 72
1
 73
0
 74
0
  7

 75
0
147
1.0
148
0.0
149
0.0
100
AcDbLayout
  1
Model
 70
0
 71
0
 10
0.0
 20
0.0
 11
210.0
 21
297.0
 12
0.0
 22
0.0
 32
0.0
 14
0.0
 24
0.0
 34
0.0
 15
0.0
 25
0.0
 35
0.0
146
0.0
 13
0.0
 23
0.0
 33
0.0
 16
1.0
 26
0.0
 36
0.0
 17
0.0
 27
1.0
 37
0.0
 76
0
330
210
345
0
346
0
  0
LAYOUT
  5
29D
102
{ACAD_REACTORS
330
1A
102
}
100
AcDbPlotSettings
  1

  2
none_device
  4

  6

 40
0.0
 41
0.0
 42
0.0
 43
0.0
 44
210.0
 45
297.0
 46
0.0
 47
0.0
 48
0.0
 49
0.0
140
0.0
141
0.0
142
1.0
143
1.0
 70
0
 72
1
 73
0
 74
0
  7

 75
0
147
1.0
148
0.0
149
0.0
100
AcDbLayout
  1
Layout1
 70
0
 71
1
 10
0.0
 20
0.0
 11
210.0
 21
297.0
 12
0.0
 22
0.0
 32
0.0
 14
0.0
 24
0.0
 34
0.0
 15
0.0
 25
0.0
 35
0.0
146
0.0
 13
0.0
 23
0.0
 33
0.0
 16
1.0
 26
0.0
 36
0.0
 17
0.0
 27
1.0
 37
0.0
 76
0
330
211
345
0
346
0
  0
ENDSEC
  0
EOF
