999
DXF file: C:\Users\sesa63760\Dev\_Creo\CAD\MCADID0004834_3D-CAD\drw0001_3.dxf
999
Pro/ENGINEER 2019471 by Parametric Technology Corporation
  0
SECTION
  2
HEADER
  9
$ACADVER
  1
AC1024
  9
$DWGCODEPAGE
  3
ANSI_1252
  9
$EXTMAX
 10
130.8305152178
 20
185.0317286652
 30
0.0
  9
$EXTMIN
 10
0.0
 20
0.0
 30
0.0
  9
$LIMMIN
 10
0.0
 20
0.0
  9
$LIMMAX
 10
130.8305152178
 20
185.0317286652
  9
$VIEWCTR
 10
65.4152576089
 20
92.5158643326
  9
$VIEWSIZE
 40
185.0317286652
  9
$CLAYER
  8
0
  9
$LTSCALE
 40
12.0613274982
  9
$CELTYPE
  6
BYLAYER
  9
$DIMSCALE
 40
1.0
  9
$DIMASZ
 40
1.5575061335
  9
$DIMEXO
 40
1.0
  9
$DIMDLI
 40
8.3332808169
  9
$DIMEXE
 40
1.0
  9
$DIMCEN
 40
1.9736717724
  9
$DIMLFAC
 40
1.0
  9
$DIMBLK
  1
_FILLED
  9
$DIMALT
 70
0
  9
$DIMALTF
 40
0.0393700787
  9
$DIMTXT
 40
2.180508587
  9
$DIMTOL
 70
1
  9
$DIMLIM
 70
0
  9
$DIMTFAC
 40
1.0
  9
$DIMTP
 40
0.01
  9
$DIMTM
 40
0.01
  9
$DIMGAP
 40
0.625
  9
$DIMDSEP
 70
46
  9
$AUNITS
 70
0
  9
$PDMODE
 70
3
  9
$PDSIZE
 40
0.3125
  9
$HANDSEED
  5
284
  9
$TILEMODE
 70
1
  9
$MEASUREMENT
 70
1
  9
$INSUNITS
 70
4
  0
ENDSEC
  0
SECTION
  2
CLASSES
  0
CLASS
  1
ACDBDICTIONARYWDFLT
  2
AcDbDictionaryWithDefault
  3
AutoCAD 2000
 90
0
 91
1
280
0
281
0
  0
CLASS
  1
ACDBPLACEHOLDER
  2
AcDbPlaceHolder
  3
AutoCAD 2000
 90
0
 91
1
280
0
281
0
  0
CLASS
  1
LAYOUT
  2
AcDbLayout
  3
AutoCAD 2000
 90
0
 91
0
280
0
281
0
  0
ENDSEC
  0
SECTION
  2
TABLES
  0
TABLE
  2
VPORT
  5
8
100
AcDbSymbolTable
 70
2
  0
VPORT
  5
1F4
100
AcDbSymbolTableRecord
100
AcDbViewportTableRecord
  2
*ACTIVE
 70
0
 10
0.0
 20
0.0
 11
1.0
 21
1.0
 12
65.4152576089
 22
92.5158643326
 13
0.0
 23
0.0
 14
1.0
 24
1.0
 15
0.0
 25
0.0
 16
0.0
 26
0.0
 36
1.0
 17
0.0
 27
0.0
 37
0.0
 40
185.0317286652
 41
0.7070707071
 42
50.0
 43
0.0
 44
0.0
 50
0.0
 51
0.0
 71
0
 72
100
 73
1
 74
1
 75
0
 76
0
 77
0
 78
0
  0
ENDTAB
  0
TABLE
  2
LTYPE
  5
5
100
AcDbSymbolTable
 70
6
  0
LTYPE
  5
14
100
AcDbSymbolTableRecord
100
AcDbLinetypeTableRecord
  2
BYBLOCK
 70
0
  3

 72
65
 73
0
 40
0.0
  0
LTYPE
  5
15
100
AcDbSymbolTableRecord
100
AcDbLinetypeTableRecord
  2
BYLAYER
 70
0
  3

 72
65
 73
0
 40
0.0
  0
LTYPE
  5
16
100
AcDbSymbolTableRecord
100
AcDbLinetypeTableRecord
  2
CONTINUOUS
 70
64
  3
Solid line
 72
65
 73
0
 40
0.0
  0
LTYPE
  5
1F5
100
AcDbSymbolTableRecord
100
AcDbLinetypeTableRecord
  2
CENTER
 70
64
  3
____ _ ____ _ ____ _ ____ _ ____ _ ____ _ ____
 72
65
 73
4
 40
0.6
 49
0.375
 74
0
 49
-0.075
 74
0
 49
0.075
 74
0
 49
-0.075
 74
0
  0
LTYPE
  5
1F6
100
AcDbSymbolTableRecord
100
AcDbLinetypeTableRecord
  2
HIDDEN
 70
64
  3
- - - - - - - - - - - - - - - - - - - -
 72
65
 73
2
 40
0.2
 49
0.1
 74
0
 49
-0.1
 74
0
  0
LTYPE
  5
1F7
100
AcDbSymbolTableRecord
100
AcDbLinetypeTableRecord
  2
PHANTOM
 70
64
  3
_____ _ _ _____ _ _ _____ _ _ _____
 72
65
 73
6
 40
0.8
 49
0.45
 74
0
 49
-0.05
 74
0
 49
0.1
 74
0
 49
-0.05
 74
0
 49
0.1
 74
0
 49
-0.05
 74
0
  0
LTYPE
  5
1F8
100
AcDbSymbolTableRecord
100
AcDbLinetypeTableRecord
  2
DOT
 70
64
  3
. . . . . . . . . . . . . . . . . . . .
 72
65
 73
2
 40
0.2
 49
0.1
 74
0
 49
-0.1
 74
0
  0
LTYPE
  5
1F9
100
AcDbSymbolTableRecord
100
AcDbLinetypeTableRecord
  2
DASHED
 70
64
  3
- - - - - - - - - - - - - - - - - - - -
 72
65
 73
2
 40
0.2
 49
0.1
 74
0
 49
-0.1
 74
0
  0
ENDTAB
  0
TABLE
  2
LAYER
  5
2
100
AcDbSymbolTable
 70
36
  0
LAYER
  5
10
100
AcDbSymbolTableRecord
100
AcDbLayerTableRecord
  2
0
 70
0
 62
7
  6
CONTINUOUS
370
-3
390
F
  0
LAYER
  5
1FA
100
AcDbSymbolTableRecord
100
AcDbLayerTableRecord
  2
DEFAULT_1
 70
0
 62
7
  6
CENTER
370
-3
390
F
  0
LAYER
  5
1FB
100
AcDbSymbolTableRecord
100
AcDbLayerTableRecord
  2
DEFAULT_2
 70
0
 62
7
  6
HIDDEN
370
-3
390
F
  0
LAYER
  5
1FC
100
AcDbSymbolTableRecord
100
AcDbLayerTableRecord
  2
DEFAULT_3
 70
0
 62
7
  6
PHANTOM
370
-3
390
F
  0
LAYER
  5
1FD
100
AcDbSymbolTableRecord
100
AcDbLayerTableRecord
  2
00_COMPONENTS
 70
0
 62
7
  6
CONTINUOUS
370
-3
390
F
  0
LAYER
  5
1FE
100
AcDbSymbolTableRecord
100
AcDbLayerTableRecord
  2
01_1_DEFAULT_DATUMS
 70
0
 62
7
  6
CONTINUOUS
370
-3
390
F
  0
LAYER
  5
1FF
100
AcDbSymbolTableRecord
100
AcDbLayerTableRecord
  2
01_PLANES
 70
0
 62
7
  6
CONTINUOUS
370
-3
390
F
  0
LAYER
  5
200
100
AcDbSymbolTableRecord
100
AcDbLayerTableRecord
  2
02_COORD_SYS
 70
0
 62
7
  6
CONTINUOUS
370
-3
390
F
  0
LAYER
  5
201
100
AcDbSymbolTableRecord
100
AcDbLayerTableRecord
  2
03_AXES
 70
0
 62
7
  6
CONTINUOUS
370
-3
390
F
  0
LAYER
  5
202
100
AcDbSymbolTableRecord
100
AcDbLayerTableRecord
  2
04_POINTS
 70
0
 62
7
  6
CONTINUOUS
370
-3
390
F
  0
LAYER
  5
203
100
AcDbSymbolTableRecord
100
AcDbLayerTableRecord
  2
05_CURVES
 70
0
 62
7
  6
CONTINUOUS
370
-3
390
F
  0
LAYER
  5
204
100
AcDbSymbolTableRecord
100
AcDbLayerTableRecord
  2
06_SURFS
 70
0
 62
7
  6
CONTINUOUS
370
-3
390
F
  0
LAYER
  5
205
100
AcDbSymbolTableRecord
100
AcDbLayerTableRecord
  2
07_COSMETICS
 70
0
 62
7
  6
CONTINUOUS
370
-3
390
F
  0
LAYER
  5
206
100
AcDbSymbolTableRecord
100
AcDbLayerTableRecord
  2
10_NOTES
 70
0
 62
7
  6
CONTINUOUS
370
-3
390
F
  0
LAYER
  5
207
100
AcDbSymbolTableRecord
100
AcDbLayerTableRecord
  2
11_NOTES_PUB
 70
0
 62
7
  6
CONTINUOUS
370
-3
390
F
  0
LAYER
  5
208
100
AcDbSymbolTableRecord
100
AcDbLayerTableRecord
  2
13_REF_GTOL
 70
0
 62
7
  6
CONTINUOUS
370
-3
390
F
  0
LAYER
  5
209
100
AcDbSymbolTableRecord
100
AcDbLayerTableRecord
  2
16_MISC
 70
0
 62
7
  6
CONTINUOUS
370
-3
390
F
  0
LAYER
  5
20A
100
AcDbSymbolTableRecord
100
AcDbLayerTableRecord
  2
17_NO_PRINT
 70
0
 62
7
  6
CONTINUOUS
370
-3
390
F
  0
LAYER
  5
20B
100
AcDbSymbolTableRecord
100
AcDbLayerTableRecord
  2
18_DATUM_CAMS_JOINTS
 70
0
 62
7
  6
CONTINUOUS
370
-3
390
F
  0
LAYER
  5
20C
100
AcDbSymbolTableRecord
100
AcDbLayerTableRecord
  2
19_DATUM_FUNCTIONAL
 70
0
 62
7
  6
CONTINUOUS
370
-3
390
F
  0
LAYER
  5
20D
100
AcDbSymbolTableRecord
100
AcDbLayerTableRecord
  2
20_DATUM_KINEMATIC_SCHEME
 70
0
 62
7
  6
CONTINUOUS
370
-3
390
F
  0
ENDTAB
  0
TABLE
  2
STYLE
  5
3
100
AcDbSymbolTable
 70
1
  0
STYLE
  5
11
100
AcDbSymbolTableRecord
100
AcDbTextStyleTableRecord
  2
STANDARD
 70
0
 40
0.0
 41
1.0
 50
0.0
 71
0
 42
0.2
  3
ARIAL.TTF
  4

  0
STYLE
  5
20E
100
AcDbSymbolTableRecord
100
AcDbTextStyleTableRecord
  2
TEXTSTYLE_1
 70
0
 40
0.0
 41
0.8
 50
0.0
 71
0
 42
0.2
  3
gdt
  4

  0
ENDTAB
  0
TABLE
  2
VIEW
  5
6
100
AcDbSymbolTable
 70
0
  0
ENDTAB
  0
TABLE
  2
UCS
  5
7
100
AcDbSymbolTable
 70
0
  0
ENDTAB
  0
TABLE
  2
APPID
  5
9
100
AcDbSymbolTable
 70
1
  0
APPID
  5
20F
100
AcDbSymbolTableRecord
100
AcDbRegAppTableRecord
  2
ACAD
 70
0
  0
ENDTAB
  0
TABLE
  2
BLOCK_RECORD
  5
1
100
AcDbSymbolTable
 70
0
  0
BLOCK_RECORD
  5
210
100
AcDbSymbolTableRecord
100
AcDbBlockTableRecord
  2
*Model_Space
  0
BLOCK_RECORD
  5
211
100
AcDbSymbolTableRecord
100
AcDbBlockTableRecord
  2
*Paper_Space
  0
BLOCK_RECORD
  5
212
100
AcDbSymbolTableRecord
100
AcDbBlockTableRecord
  2
_FILLED
  0
ENDTAB
  0
TABLE
  2
DIMSTYLE
  5
A
100
AcDbSymbolTable
 70
1
100
AcDbDimStyleTable
 71
0
  0
DIMSTYLE
105
213
100
AcDbSymbolTableRecord
100
AcDbDimStyleTableRecord
  2
STANDARD
 70
0
  3

  4

 40
1.0
 41
1.5575061335
 42
1.0
 43
0.38
 44
1.0
 45
0.0
 46
0.0
 47
0.01
 48
0.01
140
2.180508587
141
0.09
142
0.0
143
25.4
144
1.0
145
0.0
146
1.0
147
0.625
 71
1
 72
0
 73
0
 74
0
 75
0
 76
0
 77
1
 78
8
 79
2
170
0
171
1
172
0
173
0
174
0
175
0
176
0
177
0
178
0
270
2
179
2
271
2
272
2
273
2
274
2
275
0
280
0
281
0
282
0
283
1
284
8
285
0
286
0
287
3
288
0
340
11
278
46
341
212
342
212
343
212
344
212
  0
ENDTAB
  0
ENDSEC
  0
SECTION
  2
BLOCKS
  0
BLOCK
  5
20
100
AcDbEntity
  8
0
100
AcDbBlockBegin
  2
*Model_Space
 70
0
 10
0.0
 20
0.0
 30
0.0
  3
*Model_Space
  1

  0
ENDBLK
  5
21
100
AcDbEntity
  8
0
100
AcDbBlockEnd
  0
BLOCK
  5
1C
100
AcDbEntity
  8
0
100
AcDbBlockBegin
  2
*Paper_Space
 70
0
 10
0.0
 20
0.0
 30
0.0
  3
*Paper_Space
  1

  0
ENDBLK
  5
1D
100
AcDbEntity
  8
0
100
AcDbBlockEnd
  0
BLOCK
  5
214
100
AcDbEntity
  8
0
100
AcDbBlockBegin
  2
_FILLED
 70
64
 10
0.0
 20
0.0
  3
_FILLED
  1

  0
SOLID
  5
215
100
AcDbEntity
  8
0
  6
BYBLOCK
 62
0
100
AcDbTrace
 10
0.0
 20
0.0
 11
-1.0
 21
0.25
 12
-1.0
 22
-0.25
 13
-1.0
 23
-0.25
  0
ENDBLK
  5
216
100
AcDbEntity
  8
0
  6
BYBLOCK
 62
0
100
AcDbBlockEnd
  0
ENDSEC
  0
SECTION
  2
ENTITIES
  0
LINE
  5
217
100
AcDbEntity
  8
0
100
AcDbLine
 62
7
  6
BYLAYER
 10
25.4823838326
 20
98.6803116841
 11
25.2825257331
 21
98.1110789073
  0
LINE
  5
218
100
AcDbEntity
  8
0
100
AcDbLine
 62
7
  6
BYLAYER
 10
25.6633671005
 20
98.9937838994
 11
25.7966126697
 21
99.3609807253
  0
LINE
  5
219
100
AcDbEntity
  8
0
100
AcDbLine
 62
7
  6
BYLAYER
 10
25.4823813864
 20
98.680312543
 11
25.6633669359
 21
98.9937839591
  0
LINE
  5
21A
100
AcDbEntity
  8
0
100
AcDbLine
 62
7
  6
BYLAYER
 10
26.0590710431
 20
98.6409687882
 11
25.5483568639
 21
97.7563858817
  0
LINE
  5
21B
100
AcDbEntity
  8
0
100
AcDbLine
 62
7
  6
BYLAYER
 10
25.6633819502
 20
86.9438582506
 11
25.4823792805
 21
87.2573234792
  0
LINE
  5
21C
100
AcDbEntity
  8
0
100
AcDbLine
 62
7
  6
BYLAYER
 10
25.5483568639
 20
88.1812508798
 11
26.0590710431
 21
87.2966679733
  0
LINE
  5
21D
100
AcDbEntity
  8
0
100
AcDbLine
 62
7
  6
BYLAYER
 10
25.6633671005
 20
86.9438528621
 11
25.7966126697
 21
86.5766560362
  0
LINE
  5
21E
100
AcDbEntity
  8
0
100
AcDbLine
 62
7
  6
BYLAYER
 10
25.4823838326
 20
87.2573250774
 11
25.2825257331
 21
87.8265578542
  0
LINE
  5
21F
100
AcDbEntity
  8
0
100
AcDbLine
 62
7
  6
BYLAYER
 10
27.0395258066
 20
97.9391662532
 11
27.0983015276
 21
98.0409687882
  0
LINE
  5
220
100
AcDbEntity
  8
0
100
AcDbLine
 62
7
  6
BYLAYER
 10
27.0983015276
 20
87.8966679733
 11
27.0395258066
 21
87.9984705083
  0
LINE
  5
221
100
AcDbEntity
  8
0
100
AcDbLine
 62
7
  6
BYLAYER
 10
27.7267307146
 20
98.0234005507
 11
27.8530793428
 21
98.173679138
  0
LINE
  5
222
100
AcDbEntity
  8
0
100
AcDbLine
 62
7
  6
BYLAYER
 10
27.7267322325
 20
87.9142360248
 11
27.8530793428
 21
87.7639576235
  0
LINE
  5
223
100
AcDbEntity
  8
0
100
AcDbLine
 62
7
  6
BYLAYER
 10
48.8982562008
 20
85.4688183807
 11
113.9770738015
 21
85.4688183807
  0
LINE
  5
224
100
AcDbEntity
  8
0
100
AcDbLine
 62
7
  6
BYLAYER
 10
22.9295828862
 20
88.5022476942
 11
46.4649632441
 21
85.6173931073
  0
LINE
  5
225
100
AcDbEntity
  8
0
100
AcDbLine
 62
7
  6
BYLAYER
 10
17.1661539559
 20
94.087915603
 11
16.7815293919
 21
94.156119968
  0
LINE
  5
226
100
AcDbEntity
  8
0
100
AcDbLine
 62
7
  6
BYLAYER
 10
17.5281204916
 20
94.087915603
 11
18.1210195868
 21
93.976381406
  0
LINE
  5
227
100
AcDbEntity
  8
0
100
AcDbLine
 62
7
  6
BYLAYER
 10
106.9770738015
 20
89.4688183807
 11
67.7931492651
 21
89.4688183807
  0
LINE
  5
228
100
AcDbEntity
  8
0
100
AcDbLine
 62
7
  6
BYLAYER
 10
62.1694264554
 20
89.4688183807
 11
54.78358835
 21
89.4688183807
  0
LINE
  5
229
100
AcDbEntity
  8
0
100
AcDbLine
 62
7
  6
BYLAYER
 10
49.1609983379
 20
89.4688183807
 11
40.9770738015
 21
89.4688183807
  0
LINE
  5
22A
100
AcDbEntity
  8
0
100
AcDbLine
 62
7
  6
BYLAYER
 10
17.5281130907
 20
91.8497605017
 11
17.166155658
 21
91.8497121518
  0
LINE
  5
22B
100
AcDbEntity
  8
0
100
AcDbLine
 62
7
  6
BYLAYER
 10
16.8155912643
 20
92.0688183807
 11
16.8095795796
 21
92.0688183807
  0
LINE
  5
22C
100
AcDbEntity
  8
0
100
AcDbLine
 62
7
  6
BYLAYER
 10
17.2738488338
 20
92.3688183807
 11
18.3436051885
 21
92.3688183807
  0
LINE
  5
22D
100
AcDbEntity
  8
0
100
AcDbLine
 62
7
  6
BYLAYER
 10
18.3436051885
 20
93.5688183807
 11
17.2738488338
 21
93.5688183807
  0
LINE
  5
22E
100
AcDbEntity
  8
0
100
AcDbLine
 62
7
  6
BYLAYER
 10
16.8095795796
 20
93.8688183807
 11
16.8155912643
 21
93.8688183807
  0
LINE
  5
22F
100
AcDbEntity
  8
0
100
AcDbLine
 62
7
  6
BYLAYER
 10
17.166151565
 20
94.0879021204
 11
17.5281194736
 21
94.0879105913
  0
LINE
  5
230
100
AcDbEntity
  8
0
100
AcDbLine
 62
7
  6
BYLAYER
 10
40.9770738015
 20
96.4688183807
 11
49.1609983379
 21
96.4688183807
  0
LINE
  5
231
100
AcDbEntity
  8
0
100
AcDbLine
 62
7
  6
BYLAYER
 10
54.7847211475
 20
96.4688183807
 11
62.170559253
 21
96.4688183807
  0
LINE
  5
232
100
AcDbEntity
  8
0
100
AcDbLine
 62
7
  6
BYLAYER
 10
67.7931492651
 20
96.4688183807
 11
106.9770738015
 21
96.4688183807
  0
LINE
  5
233
100
AcDbEntity
  8
0
100
AcDbLine
 62
7
  6
BYLAYER
 10
17.5281204916
 20
91.8497211586
 11
18.1210195868
 21
91.9612553555
  0
LINE
  5
234
100
AcDbEntity
  8
0
100
AcDbLine
 62
7
  6
BYLAYER
 10
17.1661539559
 20
91.8497211585
 11
16.7815293919
 21
91.7815167934
  0
LINE
  5
235
100
AcDbEntity
  8
0
100
AcDbLine
 62
7
  6
BYLAYER
 10
46.4649632442
 20
100.3202436542
 11
22.9295828862
 21
97.4353890673
  0
LINE
  5
236
100
AcDbEntity
  8
0
100
AcDbLine
 62
7
  6
BYLAYER
 10
48.8982562008
 20
100.4688183807
 11
113.9770738015
 21
100.4688183807
  0
LINE
  5
237
100
AcDbEntity
  8
0
100
AcDbLine
 62
7
  6
BYLAYER
 10
118.9770738015
 20
90.4688183807
 11
118.9770738015
 21
95.4688183807
  0
ARC
  5
238
100
AcDbEntity
  8
0
100
AcDbCircle
 62
7
  6
BYLAYER
 10
48.8982562008
 20
80.4688183807
 40
20.0
100
AcDbArc
 50
90.0
 51
96.9881838805
  0
ARC
  5
239
100
AcDbEntity
  8
0
100
AcDbCircle
 62
7
  6
BYLAYER
 10
53.1151711541
 20
88.4688183807
 40
3.0
100
AcDbArc
 50
220.0052008849
 51
270.0
  0
ARC
  5
23A
100
AcDbEntity
  8
0
100
AcDbCircle
 62
7
  6
BYLAYER
 10
63.8389764489
 20
88.4688183807
 40
3.0
100
AcDbArc
 50
270.0
 51
319.9947991151
  0
ARC
  5
23B
100
AcDbEntity
  8
0
100
AcDbCircle
 62
7
  6
BYLAYER
 10
19.9882499721
 20
91.8688183763
 40
2.4602058948
100
AcDbArc
 50
179.7146515933
 51
180.2481785845
  0
ARC
  5
23C
100
AcDbEntity
  8
0
100
AcDbCircle
 62
7
  6
BYLAYER
 10
19.9799137164
 20
91.8687711102
 40
2.4518695126
100
AcDbArc
 50
180.2479178661
 51
180.4442481673
  0
ARC
  5
23D
100
AcDbEntity
  8
0
100
AcDbCircle
 62
7
  6
BYLAYER
 10
25.4481635249
 20
87.3547908334
 40
0.5
100
AcDbArc
 50
30.0000000005
 51
109.2853585795
  0
ARC
  5
23E
100
AcDbEntity
  8
0
100
AcDbCircle
 62
7
  6
BYLAYER
 10
17.6296384662
 20
91.8688183807
 40
0.5
100
AcDbArc
 50
10.7145116234
 51
90.0
  0
ARC
  5
23F
100
AcDbEntity
  8
0
100
AcDbCircle
 62
7
  6
BYLAYER
 10
18.3436051885
 20
91.8688183807
 40
0.5
100
AcDbArc
 50
12.0944477343
 51
90.0
  0
ARC
  5
240
100
AcDbEntity
  8
0
100
AcDbCircle
 62
7
  6
BYLAYER
 10
17.2738488338
 20
91.8688183807
 40
0.5
100
AcDbArc
 50
90.0
 51
190.0739263986
  0
ARC
  5
241
100
AcDbEntity
  8
0
100
AcDbCircle
 62
7
  6
BYLAYER
 10
25.6260583412
 20
87.0466679733
 40
0.5
100
AcDbArc
 50
289.9260636171
 51
30.0000000006
  0
ARC
  5
242
100
AcDbEntity
  8
0
100
AcDbCircle
 62
7
  6
BYLAYER
 10
27.5313142295
 20
88.1466679733
 40
0.5
100
AcDbArc
 50
210.0
 51
310.0739377281
  0
ARC
  5
243
100
AcDbEntity
  8
0
100
AcDbCircle
 62
7
  6
BYLAYER
 10
17.6296384662
 20
94.0688183807
 40
0.5
100
AcDbArc
 50
270.0
 51
349.2854937662
  0
ARC
  5
244
100
AcDbEntity
  8
0
100
AcDbCircle
 62
7
  6
BYLAYER
 10
18.3436051885
 20
94.0688183807
 40
0.5
100
AcDbArc
 50
270.0
 51
347.9055522657
  0
ARC
  5
245
100
AcDbEntity
  8
0
100
AcDbCircle
 62
7
  6
BYLAYER
 10
17.2738488338
 20
94.0688183807
 40
0.5
100
AcDbArc
 50
169.9260686076
 51
270.0
  0
ARC
  5
246
100
AcDbEntity
  8
0
100
AcDbCircle
 62
7
  6
BYLAYER
 10
23.4770738015
 20
92.9688183807
 40
8.0
100
AcDbArc
 50
43.562111096
 51
316.4390320391
  0
ARC
  5
247
100
AcDbEntity
  8
0
100
AcDbCircle
 62
7
  6
BYLAYER
 10
23.4770738015
 20
92.9688183807
 40
6.8
100
AcDbArc
 50
190.0569161739
 51
289.9430830919
  0
ARC
  5
248
100
AcDbEntity
  8
0
100
AcDbCircle
 62
7
  6
BYLAYER
 10
23.4770738015
 20
92.9688183807
 40
6.8
100
AcDbArc
 50
48.6506537177
 51
49.9430839945
  0
ARC
  5
249
100
AcDbEntity
  8
0
100
AcDbCircle
 62
7
  6
BYLAYER
 10
23.4770738015
 20
92.9688183807
 40
6.8
100
AcDbArc
 50
310.056917007
 51
311.3493464213
  0
ARC
  5
24A
100
AcDbEntity
  8
0
100
AcDbCircle
 62
7
  6
BYLAYER
 10
23.4770738015
 20
92.9688183807
 40
6.8
100
AcDbArc
 50
70.0569164435
 51
169.9430834589
  0
ARC
  5
24B
100
AcDbEntity
  8
0
100
AcDbCircle
 62
7
  6
BYLAYER
 10
23.4770738015
 20
92.9688183807
 40
6.7279624849
100
AcDbArc
 50
172.3124950917
 51
187.6875049083
  0
ARC
  5
24C
100
AcDbEntity
  8
0
100
AcDbCircle
 62
7
  6
BYLAYER
 10
23.4770738015
 20
92.9688183807
 40
6.409375
100
AcDbArc
 50
190.0556480904
 51
289.9444338439
  0
ARC
  5
24D
100
AcDbEntity
  8
0
100
AcDbCircle
 62
7
  6
BYLAYER
 10
23.4770738015
 20
92.9688183807
 40
6.409375
100
AcDbArc
 50
70.0555661561
 51
169.9445562498
  0
ARC
  5
24E
100
AcDbEntity
  8
0
100
AcDbCircle
 62
7
  6
BYLAYER
 10
23.4770738015
 20
92.9688183807
 40
6.0532986111
100
AcDbArc
 50
70.6537834745
 51
169.3462649253
  0
ARC
  5
24F
100
AcDbEntity
  8
0
100
AcDbCircle
 62
7
  6
BYLAYER
 10
23.4770738015
 20
92.9688183807
 40
6.0532986111
100
AcDbArc
 50
190.6534045514
 51
289.3462165255
  0
ARC
  5
250
100
AcDbEntity
  8
0
100
AcDbCircle
 62
7
  6
BYLAYER
 10
23.4770738015
 20
92.9688183807
 40
5.45
100
AcDbArc
 50
190.6482120788
 51
289.3517998282
  0
ARC
  5
251
100
AcDbEntity
  8
0
100
AcDbCircle
 62
7
  6
BYLAYER
 10
23.4770738015
 20
92.9688183807
 40
5.45
100
AcDbArc
 50
70.6481983683
 51
169.3517874269
  0
ARC
  5
252
100
AcDbEntity
  8
0
100
AcDbCircle
 62
7
  6
BYLAYER
 10
23.4770738015
 20
92.9688183807
 40
4.95
100
AcDbArc
 50
172.4024379412
 51
187.5975620588
  0
ARC
  5
253
100
AcDbEntity
  8
0
100
AcDbCircle
 62
7
  6
BYLAYER
 10
23.4770738015
 20
92.9688183807
 40
4.75
100
AcDbArc
 50
80.5643880243
 51
279.4553742238
  0
ARC
  5
254
100
AcDbEntity
  8
0
100
AcDbCircle
 62
7
  6
BYLAYER
 10
23.4770738015
 20
92.9688183807
 40
4.5
100
AcDbArc
 50
96.9881838805
 51
263.0118161196
  0
ARC
  5
255
100
AcDbEntity
  8
0
100
AcDbCircle
 62
7
  6
BYLAYER
 10
23.4770738015
 20
92.9688183807
 40
2.1
100
AcDbArc
 50
231.2119505049
 51
248.5457930527
  0
ARC
  5
256
100
AcDbEntity
  8
0
100
AcDbCircle
 62
7
  6
BYLAYER
 10
23.4770738015
 20
92.9688183807
 40
2.1
100
AcDbArc
 50
194.2531421984
 51
225.7031437532
  0
ARC
  5
257
100
AcDbEntity
  8
0
100
AcDbCircle
 62
7
  6
BYLAYER
 10
23.4770738015
 20
92.9688183807
 40
2.1
100
AcDbArc
 50
171.4733542998
 51
188.80720296
  0
ARC
  5
258
100
AcDbEntity
  8
0
100
AcDbCircle
 62
7
  6
BYLAYER
 10
23.4770738015
 20
92.9688183807
 40
2.1
100
AcDbArc
 50
134.5463683262
 51
165.9108274577
  0
ARC
  5
259
100
AcDbEntity
  8
0
100
AcDbCircle
 62
7
  6
BYLAYER
 10
23.4770738015
 20
92.9688183807
 40
2.1
100
AcDbArc
 50
111.5133502559
 51
128.7840153923
  0
ARC
  5
25A
100
AcDbEntity
  8
0
100
AcDbCircle
 62
7
  6
BYLAYER
 10
23.4770738015
 20
92.9688183807
 40
2.1
100
AcDbArc
 50
74.3591254811
 51
105.1678779704
  0
ARC
  5
25B
100
AcDbEntity
  8
0
100
AcDbCircle
 62
7
  6
BYLAYER
 10
23.4770738015
 20
92.9688183807
 40
2.1
100
AcDbArc
 50
51.2119505049
 51
68.5457930527
  0
ARC
  5
25C
100
AcDbEntity
  8
0
100
AcDbCircle
 62
7
  6
BYLAYER
 10
23.4770738015
 20
92.9688183807
 40
2.1
100
AcDbArc
 50
14.2531421984
 51
45.7031437532
  0
ARC
  5
25D
100
AcDbEntity
  8
0
100
AcDbCircle
 62
7
  6
BYLAYER
 10
23.4770738015
 20
92.9688183807
 40
2.1
100
AcDbArc
 50
351.4733542998
 51
8.80720296
  0
ARC
  5
25E
100
AcDbEntity
  8
0
100
AcDbCircle
 62
7
  6
BYLAYER
 10
23.4770738015
 20
92.9688183807
 40
2.1
100
AcDbArc
 50
314.5463683262
 51
345.9108274577
  0
ARC
  5
25F
100
AcDbEntity
  8
0
100
AcDbCircle
 62
7
  6
BYLAYER
 10
23.4770738015
 20
92.9688183807
 40
2.1
100
AcDbArc
 50
291.5133502559
 51
308.7840153923
  0
ARC
  5
260
100
AcDbEntity
  8
0
100
AcDbCircle
 62
7
  6
BYLAYER
 10
23.4770738015
 20
92.9688183807
 40
2.1
100
AcDbArc
 50
254.3591254811
 51
285.1678779704
  0
CIRCLE
  5
261
100
AcDbEntity
  8
0
100
AcDbCircle
 62
7
  6
BYLAYER
 10
23.4770738015
 20
92.9688183807
 40
2.05
  0
CIRCLE
  5
262
100
AcDbEntity
  8
0
100
AcDbCircle
 62
7
  6
BYLAYER
 10
23.4770738015
 20
92.9688183807
 40
1.3
  0
ARC
  5
263
100
AcDbEntity
  8
0
100
AcDbCircle
 62
7
  6
BYLAYER
 10
25.4481635249
 20
98.5828459281
 40
0.5
100
AcDbArc
 50
250.7146610789
 51
329.9999999998
  0
ARC
  5
264
100
AcDbEntity
  8
0
100
AcDbCircle
 62
7
  6
BYLAYER
 10
27.5313142295
 20
97.7909687882
 40
0.5
100
AcDbArc
 50
49.926075892
 51
149.9999999998
  0
ARC
  5
265
100
AcDbEntity
  8
0
100
AcDbCircle
 62
7
  6
BYLAYER
 10
25.6260583412
 20
98.8909687882
 40
0.5
100
AcDbArc
 50
330.0000000004
 51
70.073930065
  0
ARC
  5
266
100
AcDbEntity
  8
0
100
AcDbCircle
 62
7
  6
BYLAYER
 10
58.4770738015
 20
92.9688183807
 40
10.0
100
AcDbArc
 50
196.4486131295
 51
220.0052008849
  0
ARC
  5
267
100
AcDbEntity
  8
0
100
AcDbCircle
 62
7
  6
BYLAYER
 10
58.4770738015
 20
92.9688183807
 40
10.0
100
AcDbArc
 50
139.9947991151
 51
163.5513868705
  0
ARC
  5
268
100
AcDbEntity
  8
0
100
AcDbCircle
 62
7
  6
BYLAYER
 10
58.4770738015
 20
92.9688183807
 40
10.0
100
AcDbArc
 50
16.4486131295
 51
40.0052008849
  0
ARC
  5
269
100
AcDbEntity
  8
0
100
AcDbCircle
 62
7
  6
BYLAYER
 10
58.4770738015
 20
92.9688183807
 40
10.0
100
AcDbArc
 50
319.9947991151
 51
343.5513868705
  0
CIRCLE
  5
26A
100
AcDbEntity
  8
0
100
AcDbCircle
 62
7
  6
BYLAYER
 10
58.4770738015
 20
92.9688183807
 40
6.25
  0
CIRCLE
  5
26B
100
AcDbEntity
  8
0
100
AcDbCircle
 62
7
  6
BYLAYER
 10
58.4770738015
 20
92.9688183807
 40
5.15
  0
ARC
  5
26C
100
AcDbEntity
  8
0
100
AcDbCircle
 62
7
  6
BYLAYER
 10
40.9770738015
 20
92.9688183807
 40
3.5
100
AcDbArc
 50
90.0
 51
270.0
  0
ARC
  5
26D
100
AcDbEntity
  8
0
100
AcDbCircle
 62
7
  6
BYLAYER
 10
50.3770738015
 20
92.9688183807
 40
3.2
100
AcDbArc
 50
117.7656661516
 51
242.2343338484
  0
ARC
  5
26E
100
AcDbEntity
  8
0
100
AcDbCircle
 62
7
  6
BYLAYER
 10
53.1151711541
 20
97.4688183807
 40
3.0
100
AcDbArc
 50
90.0
 51
139.9947991151
  0
ARC
  5
26F
100
AcDbEntity
  8
0
100
AcDbCircle
 62
7
  6
BYLAYER
 10
63.8389764489
 20
97.4688183807
 40
3.0
100
AcDbArc
 50
40.0052008849
 51
90.0
  0
CIRCLE
  5
270
100
AcDbEntity
  8
0
100
AcDbCircle
 62
7
  6
BYLAYER
 10
58.4770738015
 20
92.9688183807
 40
2.0
  0
CIRCLE
  5
271
100
AcDbEntity
  8
0
100
AcDbCircle
 62
7
  6
BYLAYER
 10
58.4770738015
 20
92.9688183807
 40
1.6
  0
CIRCLE
  5
272
100
AcDbEntity
  8
0
100
AcDbCircle
 62
7
  6
BYLAYER
 10
58.4770738015
 20
92.9688183807
 40
1.3979274058
  0
ARC
  5
273
100
AcDbEntity
  8
0
100
AcDbCircle
 62
7
  6
BYLAYER
 10
48.8982562008
 20
105.4688183807
 40
20.0
100
AcDbArc
 50
263.0118161195
 51
270.0
  0
ARC
  5
274
100
AcDbEntity
  8
0
100
AcDbCircle
 62
7
  6
BYLAYER
 10
113.9770738015
 20
90.4688183807
 40
5.0
100
AcDbArc
 50
270.0
 51
360.0
  0
ARC
  5
275
100
AcDbEntity
  8
0
100
AcDbCircle
 62
7
  6
BYLAYER
 10
113.9770738015
 20
95.4688183807
 40
5.0
100
AcDbArc
 50
0.0
 51
90.0
  0
ARC
  5
276
100
AcDbEntity
  8
0
100
AcDbCircle
 62
7
  6
BYLAYER
 10
106.9770738015
 20
92.9688183807
 40
3.5
100
AcDbArc
 50
270.0
 51
90.0
  0
ARC
  5
277
100
AcDbEntity
  8
0
100
AcDbCircle
 62
7
  6
BYLAYER
 10
66.5770738015
 20
92.9688183807
 40
3.2
100
AcDbArc
 50
297.7656661516
 51
62.2343338484
  0
SPLINE
  5
278
100
AcDbEntity
  8
0
100
AcDbSpline
 62
7
  6
BYLAYER
 70
0
 71
3
 72
15
 73
11
 74
0
 42
0.0000001
 43
0.0000001
 44
0.0000000001
 40
0.0
 40
0.0
 40
0.0
 40
0.0
 40
0.051154037
 40
0.1181542676
 40
0.2080248343
 40
0.3224937862
 40
0.4610693315
 40
0.6219637546
 40
0.8026670335
 40
1.0
 40
1.0
 40
1.0
 40
1.0
 10
27.0983014103
 20
87.896668186
 30
0.0
 10
27.1009207575
 20
87.8921313379
 30
0.0
 10
27.1109474912
 20
87.8840209858
 30
0.0
 10
27.1321047309
 20
87.8794904765
 30
0.0
 10
27.1599997458
 20
87.8797586963
 30
0.0
 10
27.1948034508
 20
87.8850199813
 30
0.0
 10
27.2360084454
 20
87.8951300494
 30
0.0
 10
27.2829127336
 20
87.9099959713
 30
0.0
 10
27.3346155887
 20
87.9293606314
 30
0.0
 10
27.3702786302
 20
87.9444563517
 30
0.0
 10
27.3887467435
 20
87.952661803
 30
0.0
  0
SPLINE
  5
279
100
AcDbEntity
  8
0
100
AcDbSpline
 62
7
  6
BYLAYER
 70
0
 71
3
 72
18
 73
14
 74
0
 42
0.0000001
 43
0.0000001
 44
0.0000000001
 40
0.0
 40
0.0
 40
0.0
 40
0.0
 40
0.1830267544
 40
0.3605112558
 40
0.5254112464
 40
0.6717363533
 40
0.7942195837
 40
0.8453160522
 40
0.8892277699
 40
0.9259449005
 40
0.9557736386
 40
0.979725107
 40
1.0
 40
1.0
 40
1.0
 40
1.0
 10
17.1661545269
 20
91.8497212598
 30
0.0
 10
17.165879437
 20
91.8831112237
 30
0.0
 10
17.1667491868
 20
91.9489009217
 30
0.0
 10
17.1721969335
 20
92.0446314687
 30
0.0
 10
17.1815622759
 20
92.133342825
 30
0.0
 10
17.1944158974
 20
92.2114602537
 30
0.0
 10
17.2082258774
 20
92.2682752723
 30
0.0
 10
17.221118787
 20
92.3058330117
 30
0.0
 10
17.2307115097
 20
92.3279020444
 30
0.0
 10
17.2407084477
 20
92.3454640476
 30
0.0
 10
17.2511167468
 20
92.358406082
 30
0.0
 10
17.2620359136
 20
92.3667104658
 30
0.0
 10
17.2701505083
 20
92.3688183829
 30
0.0
 10
17.2738494261
 20
92.3688183807
 30
0.0
  0
SPLINE
  5
27A
100
AcDbEntity
  8
0
100
AcDbSpline
 62
7
  6
BYLAYER
 70
0
 71
3
 72
18
 73
14
 74
0
 42
0.0000001
 43
0.0000001
 44
0.0000000001
 40
0.0
 40
0.0
 40
0.0
 40
0.0
 40
0.1838956546
 40
0.3621591078
 40
0.5277024928
 40
0.6744903224
 40
0.797154615
 40
0.8481881363
 40
0.891914221
 40
0.9282874317
 40
0.9575680981
 40
0.9807306068
 40
1.0
 40
1.0
 40
1.0
 40
1.0
 10
25.4823838632
 20
98.6803117377
 30
0.0
 10
25.5114300863
 20
98.663841322
 30
0.0
 10
25.5679823419
 20
98.630241044
 30
0.0
 10
25.6483003925
 20
98.5779416617
 30
0.0
 10
25.7206907112
 20
98.5259604691
 30
0.0
 10
25.7822653229
 20
98.4764315584
 30
0.0
 10
25.8249687583
 20
98.4367591714
 30
0.0
 10
25.8514436016
 20
98.4074360034
 30
0.0
 10
25.8660331464
 20
98.388582759
 30
0.0
 10
25.8765315774
 20
98.3716610974
 30
0.0
 10
25.8828335139
 20
98.3567193389
 30
0.0
 10
25.8849259487
 20
98.3436605177
 30
0.0
 10
25.8829257035
 20
98.3358760024
 30
0.0
 10
25.8811762775
 20
98.332845906
 30
0.0
  0
SPLINE
  5
27B
100
AcDbEntity
  8
0
100
AcDbSpline
 62
7
  6
BYLAYER
 70
0
 71
3
 72
18
 73
14
 74
0
 42
0.0000001
 43
0.0000001
 44
0.0000000001
 40
0.0
 40
0.0
 40
0.0
 40
0.0
 40
0.0202769946
 40
0.0442311251
 40
0.0740560403
 40
0.1107609898
 40
0.1546588866
 40
0.2057423695
 40
0.3282010268
 40
0.4745146851
 40
0.63941674
 40
0.816945533
 40
1.0
 40
1.0
 40
1.0
 40
1.0
 10
26.0590709608
 20
98.6409687483
 30
0.0
 10
26.0609206151
 20
98.6441724463
 30
0.0
 10
26.0631519636
 20
98.6522548863
 30
0.0
 10
26.0614210977
 20
98.6658634845
 30
0.0
 10
26.0554201261
 20
98.6813470241
 30
0.0
 10
26.0452133196
 20
98.6987817172
 30
0.0
 10
26.0309010555
 20
98.7181177793
 30
0.0
 10
26.0048277316
 20
98.7480552686
 30
0.0
 10
25.9625363114
 20
98.7884169923
 30
0.0
 10
25.901316486
 20
98.8386039797
 30
0.0
 10
25.8291678026
 20
98.8910745734
 30
0.0
 10
25.748975559
 20
98.9436658917
 30
0.0
 10
25.6924256424
 20
98.977324518
 30
0.0
 10
25.6633670649
 20
98.9937838011
 30
0.0
  0
SPLINE
  5
27C
100
AcDbEntity
  8
0
100
AcDbSpline
 62
7
  6
BYLAYER
 70
0
 71
3
 72
18
 73
14
 74
0
 42
0.0000001
 43
0.0000001
 44
0.0000000001
 40
0.0
 40
0.0
 40
0.0
 40
0.0
 40
0.1838945711
 40
0.3621889975
 40
0.5277659801
 40
0.6745580654
 40
0.7972073221
 40
0.8482349974
 40
0.8919496996
 40
0.9283111016
 40
0.9575826188
 40
0.9807346183
 40
1.0
 40
1.0
 40
1.0
 40
1.0
 10
17.5281200898
 20
94.0879156786
 30
0.0
 10
17.5278607742
 20
94.0545259224
 30
0.0
 10
17.5286801769
 20
93.9887446883
 30
0.0
 10
17.5338142199
 20
93.8930259876
 30
0.0
 10
17.5426393531
 20
93.8043313354
 30
0.0
 10
17.554750124
 20
93.7262382047
 30
0.0
 10
17.5677606302
 20
93.6694240255
 30
0.0
 10
17.5799186385
 20
93.6318410369
 30
0.0
 10
17.5889520408
 20
93.6097854058
 30
0.0
 10
17.5983569115
 20
93.5922394045
 30
0.0
 10
17.6081395186
 20
93.5793133842
 30
0.0
 10
17.6184004136
 20
93.5709751654
 30
0.0
 10
17.6261399309
 20
93.568818382
 30
0.0
 10
17.6296380537
 20
93.5688183807
 30
0.0
  0
SPLINE
  5
27D
100
AcDbEntity
  8
0
100
AcDbSpline
 62
7
  6
BYLAYER
 70
0
 71
3
 72
18
 73
14
 74
0
 42
0.0000001
 43
0.0000001
 44
0.0000000001
 40
0.0
 40
0.0
 40
0.0
 40
0.0
 40
0.0192673944
 40
0.0424219257
 40
0.0716895268
 40
0.1080387497
 40
0.1517396857
 40
0.2027543723
 40
0.3253789524
 40
0.4721595174
 40
0.6377385805
 40
0.8160775261
 40
1.0
 40
1.0
 40
1.0
 40
1.0
 10
25.8811761727
 20
87.6047909159
 30
0.0
 10
25.8829254216
 20
87.6017611292
 30
0.0
 10
25.8849269004
 20
87.5939791415
 30
0.0
 10
25.8828376703
 20
87.5809237215
 30
0.0
 10
25.876537736
 20
87.5659899944
 30
0.0
 10
25.8660488071
 20
87.5490759696
 30
0.0
 10
25.851468615
 20
87.530230867
 30
0.0
 10
25.8250060541
 20
87.5009170855
 30
0.0
 10
25.7823156087
 20
87.4612481528
 30
0.0
 10
25.7207453413
 20
87.4117167373
 30
0.0
 10
25.6483408883
 20
87.3597225494
 30
0.0
 10
25.5680020661
 20
87.3074088181
 30
0.0
 10
25.5114343077
 20
87.2737980223
 30
0.0
 10
25.4823837984
 20
87.2573251749
 30
0.0
  0
SPLINE
  5
27E
100
AcDbEntity
  8
0
100
AcDbSpline
 62
7
  6
BYLAYER
 70
0
 71
3
 72
18
 73
14
 74
0
 42
0.0000001
 43
0.0000001
 44
0.0000000001
 40
0.0
 40
0.0
 40
0.0
 40
0.0
 40
0.1830276026
 40
0.3604810649
 40
0.5253473627
 40
0.6716679288
 40
0.7941657943
 40
0.8452678938
 40
0.8891907307
 40
0.9259196462
 40
0.9557581134
 40
0.9797207474
 40
1.0
 40
1.0
 40
1.0
 40
1.0
 10
25.6633674782
 20
86.9438522088
 30
0.0
 10
25.692421772
 20
86.9603090643
 30
0.0
 10
25.7489562308
 20
86.9939571024
 30
0.0
 10
25.8291277592
 20
87.0465339683
 30
0.0
 10
25.9012624291
 20
87.098991337
 30
0.0
 10
25.9624867411
 20
87.1491755762
 30
0.0
 10
26.0047912544
 20
87.1895406602
 30
0.0
 10
26.0308768137
 20
87.2194875749
 30
0.0
 10
26.0451984302
 20
87.2388318398
 30
0.0
 10
26.055414735
 20
87.2562744624
 30
0.0
 10
26.0614173159
 20
87.2717664218
 30
0.0
 10
26.0631511303
 20
87.2853788085
 30
0.0
 10
26.0609208956
 20
87.2934639186
 30
0.0
 10
26.0590710379
 20
87.296667972
 30
0.0
  0
SPLINE
  5
27F
100
AcDbEntity
  8
0
100
AcDbSpline
 62
7
  6
BYLAYER
 70
0
 71
3
 72
18
 73
14
 74
0
 42
0.0000001
 43
0.0000001
 44
0.0000000001
 40
0.0
 40
0.0
 40
0.0
 40
0.0
 40
0.1830288768
 40
0.3604828727
 40
0.5253491211
 40
0.6716693157
 40
0.7941666895
 40
0.8452685918
 40
0.8891912883
 40
0.925920058
 40
0.9557582663
 40
0.9797206309
 40
1.0
 40
1.0
 40
1.0
 40
1.0
 10
17.1661535482
 20
94.0879021155
 30
0.0
 10
17.1658785424
 20
94.0545125438
 30
0.0
 10
17.1667517923
 20
93.9887295851
 30
0.0
 10
17.1721993506
 20
93.8930127112
 30
0.0
 10
17.1815615768
 20
93.8043158349
 30
0.0
 10
17.1944103215
 20
93.7262041206
 30
0.0
 10
17.2082151201
 20
93.6693864825
 30
0.0
 10
17.2211070497
 20
93.631823462
 30
0.0
 10
17.2306988007
 20
93.6097491772
 30
0.0
 10
17.2406962321
 20
93.5921808991
 30
0.0
 10
17.2511109906
 20
93.5792369407
 30
0.0
 10
17.2620323934
 20
93.570929418
 30
0.0
 10
17.2701492095
 20
93.568818433
 30
0.0
 10
17.2738488575
 20
93.5688184324
 30
0.0
  0
SPLINE
  5
280
100
AcDbEntity
  8
0
100
AcDbSpline
 62
7
  6
BYLAYER
 70
0
 71
3
 72
18
 73
14
 74
0
 42
0.0000001
 43
0.0000001
 44
0.0000000001
 40
0.0
 40
0.0
 40
0.0
 40
0.0
 40
0.1865686147
 40
0.3657480317
 40
0.5309704244
 40
0.676705242
 40
0.7980939588
 40
0.8485534721
 40
0.8918185376
 40
0.9278915905
 40
0.9570814917
 40
0.9803895831
 40
1.0
 40
1.0
 40
1.0
 40
1.0
 10
17.5280745876
 20
91.8810708133
 30
0.0
 10
17.5282336048
 20
91.9129985294
 30
0.0
 10
17.5297575995
 20
91.975591096
 30
0.0
 10
17.535631089
 20
92.0662927077
 30
0.0
 10
17.5448488854
 20
92.1497017127
 30
0.0
 10
17.5570236732
 20
92.2227185703
 30
0.0
 10
17.5698425122
 20
92.2756300342
 30
0.0
 10
17.5816921896
 20
92.3105121377
 30
0.0
 10
17.5904542562
 20
92.3309542055
 30
0.0
 10
17.5995528842
 20
92.3472038674
 30
0.0
 10
17.6090027767
 20
92.3591664258
 30
0.0
 10
17.6188977598
 20
92.3668545846
 30
0.0
 10
17.6262824704
 20
92.3688183788
 30
0.0
 10
17.6296384667
 20
92.3688183788
 30
0.0
  0
SPLINE
  5
281
100
AcDbEntity
  8
0
100
AcDbSpline
 62
7
  6
BYLAYER
 70
0
 71
3
 72
13
 73
9
 74
0
 42
0.0000001
 43
0.0000001
 44
0.0000000001
 40
0.0
 40
0.0
 40
0.0
 40
0.0
 40
0.3779143277
 40
0.6774408653
 40
0.7920246394
 40
0.8819712935
 40
0.9489529745
 40
1.0
 40
1.0
 40
1.0
 40
1.0
 10
27.3907662404
 20
97.984077154
 30
0.0
 10
27.3551734871
 20
97.9999457421
 30
0.0
 10
27.2904146121
 20
98.026264327
 30
0.0
 10
27.2119416716
 20
98.0499234633
 30
0.0
 10
27.1604537725
 20
98.0578492293
 30
0.0
 10
27.1323476301
 20
98.0581741808
 30
0.0
 10
27.1110396654
 20
98.0536679734
 30
0.0
 10
27.1009334732
 20
98.0455274502
 30
0.0
 10
27.0983015281
 20
98.0409687877
 30
0.0
  0
ENDSEC
  0
SECTION
  2
OBJECTS
  0
DICTIONARY
  5
C
100
AcDbDictionary
280
0
281
1
  3
ACAD_GROUP
350
D
  3
ACAD_MLINESTYLE
350
17
  3
ACAD_LAYOUT
350
1A
  3
ACAD_PLOTSETTINGS
350
19
  3
ACAD_PLOTSTYLENAME
350
E
  0
DICTIONARY
  5
D
102
{ACAD_REACTORS
330
C
102
}
100
AcDbDictionary
280
0
281
1
  0
ACDBDICTIONARYWDFLT
  5
E
102
{ACAD_REACTORS
330
C
102
}
100
AcDbDictionary
281
1
  3
Normal
350
F
100
AcDbDictionaryWithDefault
340
F
  0
DICTIONARY
  5
17
102
{ACAD_REACTORS
330
C
102
}
100
AcDbDictionary
280
0
281
1
  3
Standard
350
18
  0
DICTIONARY
  5
19
102
{ACAD_REACTORS
330
C
102
}
100
AcDbDictionary
281
1
  0
DICTIONARY
  5
1A
102
{ACAD_REACTORS
330
C
102
}
100
AcDbDictionary
281
1
  3
Model
350
282
  3
Layout1
350
283
  0
ACDBPLACEHOLDER
  5
F
102
{ACAD_REACTORS
330
E
102
}
  0
MLINESTYLE
  5
18
102
{ACAD_REACTORS
330
17
102
}
100
AcDbMlineStyle
  2
STANDARD
 70
0
  3

 62
256
 51
90.0
 52
90.0
 71
2
 49
0.5
 62
256
  6
BYLAYER
 49
-0.5
 62
256
  6
BYLAYER
  0
LAYOUT
  5
282
102
{ACAD_REACTORS
330
1A
102
}
100
AcDbPlotSettings
  1

  2
none_device
  4

  6

 40
0.0
 41
0.0
 42
0.0
 43
0.0
 44
210.0
 45
297.0
 46
0.0
 47
0.0
 48
0.0
 49
0.0
140
0.0
141
0.0
142
1.0
143
1.0
 70
1024
 72
1
 73
0
 74
0
  7

 75
0
147
1.0
148
0.0
149
0.0
100
AcDbLayout
  1
Model
 70
0
 71
0
 10
0.0
 20
0.0
 11
210.0
 21
297.0
 12
0.0
 22
0.0
 32
0.0
 14
0.0
 24
0.0
 34
0.0
 15
0.0
 25
0.0
 35
0.0
146
0.0
 13
0.0
 23
0.0
 33
0.0
 16
1.0
 26
0.0
 36
0.0
 17
0.0
 27
1.0
 37
0.0
 76
0
330
210
345
0
346
0
  0
LAYOUT
  5
283
102
{ACAD_REACTORS
330
1A
102
}
100
AcDbPlotSettings
  1

  2
none_device
  4

  6

 40
0.0
 41
0.0
 42
0.0
 43
0.0
 44
210.0
 45
297.0
 46
0.0
 47
0.0
 48
0.0
 49
0.0
140
0.0
141
0.0
142
1.0
143
1.0
 70
0
 72
1
 73
0
 74
0
  7

 75
0
147
1.0
148
0.0
149
0.0
100
AcDbLayout
  1
Layout1
 70
0
 71
1
 10
0.0
 20
0.0
 11
210.0
 21
297.0
 12
0.0
 22
0.0
 32
0.0
 14
0.0
 24
0.0
 34
0.0
 15
0.0
 25
0.0
 35
0.0
146
0.0
 13
0.0
 23
0.0
 33
0.0
 16
1.0
 26
0.0
 36
0.0
 17
0.0
 27
1.0
 37
0.0
 76
0
330
211
345
0
346
0
  0
ENDSEC
  0
EOF
