999
DXF file: C:\Users\sesa63760\Dev\_Creo\CAD\MCADID0004757_3D-CAD\drw0001_4.dxf
999
Pro/ENGINEER 2019471 by Parametric Technology Corporation
  0
SECTION
  2
HEADER
  9
$ACADVER
  1
AC1024
  9
$DWGCODEPAGE
  3
ANSI_1252
  9
$EXTMAX
 10
38.3718675968
 20
54.2687841727
 30
0.0
  9
$EXTMIN
 10
0.0
 20
0.0
 30
0.0
  9
$LIMMIN
 10
0.0
 20
0.0
  9
$LIMMAX
 10
38.3718675968
 20
54.2687841727
  9
$VIEWCTR
 10
19.1859337984
 20
27.1343920863
  9
$VIEWSIZE
 40
54.2687841727
  9
$CLAYER
  8
0
  9
$LTSCALE
 40
3.5375207461
  9
$CELTYPE
  6
BYLAYER
  9
$DIMSCALE
 40
1.0
  9
$DIMASZ
 40
0.4568079476
  9
$DIMEXO
 40
1.0
  9
$DIMDLI
 40
2.4441052427
  9
$DIMEXE
 40
1.0
  9
$DIMCEN
 40
0.5788670312
  9
$DIMLFAC
 40
1.0
  9
$DIMBLK
  1
_FILLED
  9
$DIMALT
 70
0
  9
$DIMALTF
 40
0.0393700787
  9
$DIMTXT
 40
0.6395311266
  9
$DIMTOL
 70
1
  9
$DIMLIM
 70
0
  9
$DIMTFAC
 40
1.0
  9
$DIMTP
 40
0.01
  9
$DIMTM
 40
0.01
  9
$DIMGAP
 40
0.625
  9
$DIMDSEP
 70
46
  9
$AUNITS
 70
0
  9
$PDMODE
 70
3
  9
$PDSIZE
 40
0.3125
  9
$HANDSEED
  5
27E
  9
$TILEMODE
 70
1
  9
$MEASUREMENT
 70
1
  9
$INSUNITS
 70
4
  0
ENDSEC
  0
SECTION
  2
CLASSES
  0
CLASS
  1
ACDBDICTIONARYWDFLT
  2
AcDbDictionaryWithDefault
  3
AutoCAD 2000
 90
0
 91
1
280
0
281
0
  0
CLASS
  1
ACDBPLACEHOLDER
  2
AcDbPlaceHolder
  3
AutoCAD 2000
 90
0
 91
1
280
0
281
0
  0
CLASS
  1
LAYOUT
  2
AcDbLayout
  3
AutoCAD 2000
 90
0
 91
0
280
0
281
0
  0
ENDSEC
  0
SECTION
  2
TABLES
  0
TABLE
  2
VPORT
  5
8
100
AcDbSymbolTable
 70
2
  0
VPORT
  5
1F4
100
AcDbSymbolTableRecord
100
AcDbViewportTableRecord
  2
*ACTIVE
 70
0
 10
0.0
 20
0.0
 11
1.0
 21
1.0
 12
19.1859337984
 22
27.1343920863
 13
0.0
 23
0.0
 14
1.0
 24
1.0
 15
0.0
 25
0.0
 16
0.0
 26
0.0
 36
1.0
 17
0.0
 27
0.0
 37
0.0
 40
54.2687841727
 41
0.7070707071
 42
50.0
 43
0.0
 44
0.0
 50
0.0
 51
0.0
 71
0
 72
100
 73
1
 74
1
 75
0
 76
0
 77
0
 78
0
  0
ENDTAB
  0
TABLE
  2
LTYPE
  5
5
100
AcDbSymbolTable
 70
6
  0
LTYPE
  5
14
100
AcDbSymbolTableRecord
100
AcDbLinetypeTableRecord
  2
BYBLOCK
 70
0
  3

 72
65
 73
0
 40
0.0
  0
LTYPE
  5
15
100
AcDbSymbolTableRecord
100
AcDbLinetypeTableRecord
  2
BYLAYER
 70
0
  3

 72
65
 73
0
 40
0.0
  0
LTYPE
  5
16
100
AcDbSymbolTableRecord
100
AcDbLinetypeTableRecord
  2
CONTINUOUS
 70
64
  3
Solid line
 72
65
 73
0
 40
0.0
  0
LTYPE
  5
1F5
100
AcDbSymbolTableRecord
100
AcDbLinetypeTableRecord
  2
CENTER
 70
64
  3
____ _ ____ _ ____ _ ____ _ ____ _ ____ _ ____
 72
65
 73
4
 40
0.6
 49
0.375
 74
0
 49
-0.075
 74
0
 49
0.075
 74
0
 49
-0.075
 74
0
  0
LTYPE
  5
1F6
100
AcDbSymbolTableRecord
100
AcDbLinetypeTableRecord
  2
HIDDEN
 70
64
  3
- - - - - - - - - - - - - - - - - - - -
 72
65
 73
2
 40
0.2
 49
0.1
 74
0
 49
-0.1
 74
0
  0
LTYPE
  5
1F7
100
AcDbSymbolTableRecord
100
AcDbLinetypeTableRecord
  2
PHANTOM
 70
64
  3
_____ _ _ _____ _ _ _____ _ _ _____
 72
65
 73
6
 40
0.8
 49
0.45
 74
0
 49
-0.05
 74
0
 49
0.1
 74
0
 49
-0.05
 74
0
 49
0.1
 74
0
 49
-0.05
 74
0
  0
LTYPE
  5
1F8
100
AcDbSymbolTableRecord
100
AcDbLinetypeTableRecord
  2
DOT
 70
64
  3
. . . . . . . . . . . . . . . . . . . .
 72
65
 73
2
 40
0.2
 49
0.1
 74
0
 49
-0.1
 74
0
  0
LTYPE
  5
1F9
100
AcDbSymbolTableRecord
100
AcDbLinetypeTableRecord
  2
DASHED
 70
64
  3
- - - - - - - - - - - - - - - - - - - -
 72
65
 73
2
 40
0.2
 49
0.1
 74
0
 49
-0.1
 74
0
  0
ENDTAB
  0
TABLE
  2
LAYER
  5
2
100
AcDbSymbolTable
 70
36
  0
LAYER
  5
10
100
AcDbSymbolTableRecord
100
AcDbLayerTableRecord
  2
0
 70
0
 62
7
  6
CONTINUOUS
370
-3
390
F
  0
LAYER
  5
1FA
100
AcDbSymbolTableRecord
100
AcDbLayerTableRecord
  2
DEFAULT_1
 70
0
 62
7
  6
CENTER
370
-3
390
F
  0
LAYER
  5
1FB
100
AcDbSymbolTableRecord
100
AcDbLayerTableRecord
  2
DEFAULT_2
 70
0
 62
7
  6
HIDDEN
370
-3
390
F
  0
LAYER
  5
1FC
100
AcDbSymbolTableRecord
100
AcDbLayerTableRecord
  2
DEFAULT_3
 70
0
 62
7
  6
PHANTOM
370
-3
390
F
  0
LAYER
  5
1FD
100
AcDbSymbolTableRecord
100
AcDbLayerTableRecord
  2
00_COMPONENTS
 70
0
 62
7
  6
CONTINUOUS
370
-3
390
F
  0
LAYER
  5
1FE
100
AcDbSymbolTableRecord
100
AcDbLayerTableRecord
  2
01_1_DEFAULT_DATUMS
 70
0
 62
7
  6
CONTINUOUS
370
-3
390
F
  0
LAYER
  5
1FF
100
AcDbSymbolTableRecord
100
AcDbLayerTableRecord
  2
01_PLANES
 70
0
 62
7
  6
CONTINUOUS
370
-3
390
F
  0
LAYER
  5
200
100
AcDbSymbolTableRecord
100
AcDbLayerTableRecord
  2
02_COORD_SYS
 70
0
 62
7
  6
CONTINUOUS
370
-3
390
F
  0
LAYER
  5
201
100
AcDbSymbolTableRecord
100
AcDbLayerTableRecord
  2
03_AXES
 70
0
 62
7
  6
CONTINUOUS
370
-3
390
F
  0
LAYER
  5
202
100
AcDbSymbolTableRecord
100
AcDbLayerTableRecord
  2
04_POINTS
 70
0
 62
7
  6
CONTINUOUS
370
-3
390
F
  0
LAYER
  5
203
100
AcDbSymbolTableRecord
100
AcDbLayerTableRecord
  2
05_CURVES
 70
0
 62
7
  6
CONTINUOUS
370
-3
390
F
  0
LAYER
  5
204
100
AcDbSymbolTableRecord
100
AcDbLayerTableRecord
  2
06_SURFS
 70
0
 62
7
  6
CONTINUOUS
370
-3
390
F
  0
LAYER
  5
205
100
AcDbSymbolTableRecord
100
AcDbLayerTableRecord
  2
07_COSMETICS
 70
0
 62
7
  6
CONTINUOUS
370
-3
390
F
  0
LAYER
  5
206
100
AcDbSymbolTableRecord
100
AcDbLayerTableRecord
  2
10_NOTES
 70
0
 62
7
  6
CONTINUOUS
370
-3
390
F
  0
LAYER
  5
207
100
AcDbSymbolTableRecord
100
AcDbLayerTableRecord
  2
11_NOTES_PUB
 70
0
 62
7
  6
CONTINUOUS
370
-3
390
F
  0
LAYER
  5
208
100
AcDbSymbolTableRecord
100
AcDbLayerTableRecord
  2
13_REF_GTOL
 70
0
 62
7
  6
CONTINUOUS
370
-3
390
F
  0
LAYER
  5
209
100
AcDbSymbolTableRecord
100
AcDbLayerTableRecord
  2
16_MISC
 70
0
 62
7
  6
CONTINUOUS
370
-3
390
F
  0
LAYER
  5
20A
100
AcDbSymbolTableRecord
100
AcDbLayerTableRecord
  2
17_NO_PRINT
 70
0
 62
7
  6
CONTINUOUS
370
-3
390
F
  0
LAYER
  5
20B
100
AcDbSymbolTableRecord
100
AcDbLayerTableRecord
  2
18_DATUM_CAMS_JOINTS
 70
0
 62
7
  6
CONTINUOUS
370
-3
390
F
  0
LAYER
  5
20C
100
AcDbSymbolTableRecord
100
AcDbLayerTableRecord
  2
19_DATUM_FUNCTIONAL
 70
0
 62
7
  6
CONTINUOUS
370
-3
390
F
  0
LAYER
  5
20D
100
AcDbSymbolTableRecord
100
AcDbLayerTableRecord
  2
20_DATUM_KINEMATIC_SCHEME
 70
0
 62
7
  6
CONTINUOUS
370
-3
390
F
  0
ENDTAB
  0
TABLE
  2
STYLE
  5
3
100
AcDbSymbolTable
 70
1
  0
STYLE
  5
11
100
AcDbSymbolTableRecord
100
AcDbTextStyleTableRecord
  2
STANDARD
 70
0
 40
0.0
 41
1.0
 50
0.0
 71
0
 42
0.2
  3
ARIAL.TTF
  4

  0
STYLE
  5
20E
100
AcDbSymbolTableRecord
100
AcDbTextStyleTableRecord
  2
TEXTSTYLE_1
 70
0
 40
0.0
 41
0.8
 50
0.0
 71
0
 42
0.2
  3
gdt
  4

  0
ENDTAB
  0
TABLE
  2
VIEW
  5
6
100
AcDbSymbolTable
 70
0
  0
ENDTAB
  0
TABLE
  2
UCS
  5
7
100
AcDbSymbolTable
 70
0
  0
ENDTAB
  0
TABLE
  2
APPID
  5
9
100
AcDbSymbolTable
 70
1
  0
APPID
  5
20F
100
AcDbSymbolTableRecord
100
AcDbRegAppTableRecord
  2
ACAD
 70
0
  0
ENDTAB
  0
TABLE
  2
BLOCK_RECORD
  5
1
100
AcDbSymbolTable
 70
0
  0
BLOCK_RECORD
  5
210
100
AcDbSymbolTableRecord
100
AcDbBlockTableRecord
  2
*Model_Space
  0
BLOCK_RECORD
  5
211
100
AcDbSymbolTableRecord
100
AcDbBlockTableRecord
  2
*Paper_Space
  0
BLOCK_RECORD
  5
212
100
AcDbSymbolTableRecord
100
AcDbBlockTableRecord
  2
_FILLED
  0
ENDTAB
  0
TABLE
  2
DIMSTYLE
  5
A
100
AcDbSymbolTable
 70
1
100
AcDbDimStyleTable
 71
0
  0
DIMSTYLE
105
213
100
AcDbSymbolTableRecord
100
AcDbDimStyleTableRecord
  2
STANDARD
 70
0
  3

  4

 40
1.0
 41
0.4568079476
 42
1.0
 43
0.38
 44
1.0
 45
0.0
 46
0.0
 47
0.01
 48
0.01
140
0.6395311266
141
0.09
142
0.0
143
25.4
144
1.0
145
0.0
146
1.0
147
0.625
 71
1
 72
0
 73
0
 74
0
 75
0
 76
0
 77
1
 78
8
 79
2
170
0
171
1
172
0
173
0
174
0
175
0
176
0
177
0
178
0
270
2
179
2
271
2
272
2
273
2
274
2
275
0
280
0
281
0
282
0
283
1
284
8
285
0
286
0
287
3
288
0
340
11
278
46
341
212
342
212
343
212
344
212
  0
ENDTAB
  0
ENDSEC
  0
SECTION
  2
BLOCKS
  0
BLOCK
  5
20
100
AcDbEntity
  8
0
100
AcDbBlockBegin
  2
*Model_Space
 70
0
 10
0.0
 20
0.0
 30
0.0
  3
*Model_Space
  1

  0
ENDBLK
  5
21
100
AcDbEntity
  8
0
100
AcDbBlockEnd
  0
BLOCK
  5
1C
100
AcDbEntity
  8
0
100
AcDbBlockBegin
  2
*Paper_Space
 70
0
 10
0.0
 20
0.0
 30
0.0
  3
*Paper_Space
  1

  0
ENDBLK
  5
1D
100
AcDbEntity
  8
0
100
AcDbBlockEnd
  0
BLOCK
  5
214
100
AcDbEntity
  8
0
100
AcDbBlockBegin
  2
_FILLED
 70
64
 10
0.0
 20
0.0
  3
_FILLED
  1

  0
SOLID
  5
215
100
AcDbEntity
  8
0
  6
BYBLOCK
 62
0
100
AcDbTrace
 10
0.0
 20
0.0
 11
-1.0
 21
0.25
 12
-1.0
 22
-0.25
 13
-1.0
 23
-0.25
  0
ENDBLK
  5
216
100
AcDbEntity
  8
0
  6
BYBLOCK
 62
0
100
AcDbBlockEnd
  0
ENDSEC
  0
SECTION
  2
ENTITIES
  0
LINE
  5
217
100
AcDbEntity
  8
0
100
AcDbLine
 62
7
  6
BYLAYER
 10
13.8341180406
 20
3.8858309353
 11
25.5341164627
 21
3.8858309353
  0
LINE
  5
218
100
AcDbEntity
  8
0
100
AcDbLine
 62
7
  6
BYLAYER
 10
26.0341172516
 20
4.3858309353
 11
13.3341172516
 21
4.3858309353
  0
LINE
  5
219
100
AcDbEntity
  8
0
100
AcDbLine
 62
7
  6
BYLAYER
 10
13.3341172516
 20
6.3858309353
 11
26.0341172516
 21
6.3858309353
  0
LINE
  5
21A
100
AcDbEntity
  8
0
100
AcDbLine
 62
7
  6
BYLAYER
 10
25.8341172516
 20
7.5858309353
 11
13.5341172516
 21
7.5858309353
  0
LINE
  5
21B
100
AcDbEntity
  8
0
100
AcDbLine
 62
7
  6
BYLAYER
 10
26.0341172516
 20
7.7858309353
 11
13.3341172516
 21
7.7858309353
  0
LINE
  5
21C
100
AcDbEntity
  8
0
100
AcDbLine
 62
7
  6
BYLAYER
 10
13.3341172516
 20
8.7358309353
 11
26.0341172516
 21
8.7358309353
  0
LINE
  5
21D
100
AcDbEntity
  8
0
100
AcDbLine
 62
7
  6
BYLAYER
 10
13.5341172516
 20
7.5858309353
 11
13.3341172516
 21
7.7858309353
  0
LINE
  5
21E
100
AcDbEntity
  8
0
100
AcDbLine
 62
7
  6
BYLAYER
 10
26.3841172516
 20
10.0858309353
 11
12.9841172516
 21
10.0858309353
  0
LINE
  5
21F
100
AcDbEntity
  8
0
100
AcDbLine
 62
7
  6
BYLAYER
 10
26.8674260573
 20
10.1858309353
 11
26.2474481675
 21
10.1858309353
  0
LINE
  5
220
100
AcDbEntity
  8
0
100
AcDbLine
 62
7
  6
BYLAYER
 10
15.9951622755
 20
10.1858309353
 11
15.0992289518
 21
10.1858309353
  0
LINE
  5
221
100
AcDbEntity
  8
0
100
AcDbLine
 62
7
  6
BYLAYER
 10
26.9210278604
 20
10.3858309353
 11
26.2474481675
 21
10.3858309353
  0
LINE
  5
222
100
AcDbEntity
  8
0
100
AcDbLine
 62
7
  6
BYLAYER
 10
15.9951622755
 20
10.3858309353
 11
15.0456271487
 21
10.3858309353
  0
LINE
  5
223
100
AcDbEntity
  8
0
100
AcDbLine
 62
7
  6
BYLAYER
 10
27.6341172516
 20
12.1858309353
 11
11.7341172516
 21
12.1858309353
  0
LINE
  5
224
100
AcDbEntity
  8
0
100
AcDbLine
 62
7
  6
BYLAYER
 10
11.7341172516
 20
13.9858309353
 11
27.6341172516
 21
13.9858309353
  0
LINE
  5
225
100
AcDbEntity
  8
0
100
AcDbLine
 62
7
  6
BYLAYER
 10
11.9341173529
 20
14.1858309353
 11
27.4341171504
 21
14.1858309353
  0
LINE
  5
226
100
AcDbEntity
  8
0
100
AcDbLine
 62
7
  6
BYLAYER
 10
28.1841172516
 20
16.4158309353
 11
11.1841172516
 21
16.4158309353
  0
LINE
  5
227
100
AcDbEntity
  8
0
100
AcDbLine
 62
7
  6
BYLAYER
 10
11.1841172516
 20
23.9158309353
 11
11.1841172516
 21
20.4158309345
  0
LINE
  5
228
100
AcDbEntity
  8
0
100
AcDbLine
 62
7
  6
BYLAYER
 10
11.1841172516
 20
19.9158309353
 11
11.1841172516
 21
16.4158309345
  0
LINE
  5
229
100
AcDbEntity
  8
0
100
AcDbLine
 62
7
  6
BYLAYER
 10
14.4341172516
 20
33.3858309353
 11
13.6841172516
 21
32.6358309353
  0
LINE
  5
22A
100
AcDbEntity
  8
0
100
AcDbLine
 62
7
  6
BYLAYER
 10
15.0992169872
 20
10.1858309353
 11
15.0456271487
 21
10.3858309353
  0
LINE
  5
22B
100
AcDbEntity
  8
0
100
AcDbLine
 62
7
  6
BYLAYER
 10
11.7341172516
 20
13.9858309353
 11
11.7341172516
 21
12.1858309353
  0
LINE
  5
22C
100
AcDbEntity
  8
0
100
AcDbLine
 62
7
  6
BYLAYER
 10
12.9841172516
 20
10.0858309353
 11
12.9841172516
 21
12.1858309353
  0
LINE
  5
22D
100
AcDbEntity
  8
0
100
AcDbLine
 62
7
  6
BYLAYER
 10
13.3341172516
 20
6.3858309353
 11
13.3341172516
 21
4.3858309353
  0
LINE
  5
22E
100
AcDbEntity
  8
0
100
AcDbLine
 62
7
  6
BYLAYER
 10
13.3341172516
 20
7.7858309353
 11
13.3341172516
 21
8.7358309353
  0
LINE
  5
22F
100
AcDbEntity
  8
0
100
AcDbLine
 62
7
  6
BYLAYER
 10
11.1841172516
 20
19.9158309353
 11
28.1841172516
 21
19.9158309353
  0
LINE
  5
230
100
AcDbEntity
  8
0
100
AcDbLine
 62
7
  6
BYLAYER
 10
28.1841172516
 20
20.4158309353
 11
11.1841172516
 21
20.4158309353
  0
LINE
  5
231
100
AcDbEntity
  8
0
100
AcDbLine
 62
7
  6
BYLAYER
 10
13.6841172516
 20
14.1858309353
 11
13.6841172516
 21
16.4158309353
  0
LINE
  5
232
100
AcDbEntity
  8
0
100
AcDbLine
 62
7
  6
BYLAYER
 10
13.6841172516
 20
19.9158309353
 11
13.6841172516
 21
20.4158309353
  0
LINE
  5
233
100
AcDbEntity
  8
0
100
AcDbLine
 62
7
  6
BYLAYER
 10
13.6841172516
 20
23.9158309353
 11
13.6841172516
 21
32.6358309353
  0
LINE
  5
234
100
AcDbEntity
  8
0
100
AcDbLine
 62
7
  6
BYLAYER
 10
14.0841172516
 20
7.5858309353
 11
14.0841172516
 21
6.3858309353
  0
LINE
  5
235
100
AcDbEntity
  8
0
100
AcDbLine
 62
7
  6
BYLAYER
 10
14.1841172516
 20
10.0858309353
 11
14.1841172516
 21
8.7358309353
  0
LINE
  5
236
100
AcDbEntity
  8
0
100
AcDbLine
 62
7
  6
BYLAYER
 10
14.7523325848
 20
41.3858438501
 11
14.7523325848
 21
33.3858309353
  0
LINE
  5
237
100
AcDbEntity
  8
0
100
AcDbLine
 62
7
  6
BYLAYER
 10
15.0456271487
 20
10.3858309353
 11
15.0456271487
 21
12.1858309353
  0
LINE
  5
238
100
AcDbEntity
  8
0
100
AcDbLine
 62
7
  6
BYLAYER
 10
15.236469175
 20
10.1858309353
 11
15.236469175
 21
10.0858309353
  0
LINE
  5
239
100
AcDbEntity
  8
0
100
AcDbLine
 62
7
  6
BYLAYER
 10
15.9951622755
 20
10.1858309353
 11
15.9951622755
 21
10.0858309353
  0
LINE
  5
23A
100
AcDbEntity
  8
0
100
AcDbLine
 62
7
  6
BYLAYER
 10
16.6530283384
 20
47.2858319657
 11
16.6530283384
 21
42.1858309353
  0
LINE
  5
23B
100
AcDbEntity
  8
0
100
AcDbLine
 62
7
  6
BYLAYER
 10
11.1841172516
 20
23.9158309353
 11
28.1841172516
 21
23.9158309353
  0
LINE
  5
23C
100
AcDbEntity
  8
0
100
AcDbLine
 62
7
  6
BYLAYER
 10
19.6841172516
 20
23.5634899185
 11
19.6841172516
 21
20.768171952
  0
LINE
  5
23D
100
AcDbEntity
  8
0
100
AcDbLine
 62
7
  6
BYLAYER
 10
19.6841172516
 20
19.5634899185
 11
19.6841172516
 21
16.768171952
  0
LINE
  5
23E
100
AcDbEntity
  8
0
100
AcDbLine
 62
7
  6
BYLAYER
 10
22.7152061649
 20
42.1858309353
 11
22.7152061649
 21
47.2858266371
  0
LINE
  5
23F
100
AcDbEntity
  8
0
100
AcDbLine
 62
7
  6
BYLAYER
 10
24.6159019185
 20
33.3858309353
 11
24.6159019185
 21
41.3858438483
  0
LINE
  5
240
100
AcDbEntity
  8
0
100
AcDbLine
 62
7
  6
BYLAYER
 10
25.1841172516
 20
10.0858309353
 11
25.1841172516
 21
8.7358309353
  0
LINE
  5
241
100
AcDbEntity
  8
0
100
AcDbLine
 62
7
  6
BYLAYER
 10
25.2841172516
 20
7.5858309353
 11
25.2841172516
 21
6.3858309353
  0
LINE
  5
242
100
AcDbEntity
  8
0
100
AcDbLine
 62
7
  6
BYLAYER
 10
25.6841172516
 20
32.6358309353
 11
25.6841172516
 21
23.9158309353
  0
LINE
  5
243
100
AcDbEntity
  8
0
100
AcDbLine
 62
7
  6
BYLAYER
 10
25.6841172516
 20
20.4158309353
 11
25.6841172516
 21
19.9158309353
  0
LINE
  5
244
100
AcDbEntity
  8
0
100
AcDbLine
 62
7
  6
BYLAYER
 10
25.6841172516
 20
16.4158309353
 11
25.6841172516
 21
14.1858309353
  0
LINE
  5
245
100
AcDbEntity
  8
0
100
AcDbLine
 62
7
  6
BYLAYER
 10
26.0341172516
 20
8.7358309353
 11
26.0341172516
 21
7.7858309353
  0
LINE
  5
246
100
AcDbEntity
  8
0
100
AcDbLine
 62
7
  6
BYLAYER
 10
26.0341172516
 20
6.3858309353
 11
26.0341172516
 21
4.3858309353
  0
LINE
  5
247
100
AcDbEntity
  8
0
100
AcDbLine
 62
7
  6
BYLAYER
 10
26.2474481675
 20
10.1858309353
 11
26.2474481675
 21
10.0858309353
  0
LINE
  5
248
100
AcDbEntity
  8
0
100
AcDbLine
 62
7
  6
BYLAYER
 10
26.3722718954
 20
10.1858309353
 11
26.3722718954
 21
10.0858309353
  0
LINE
  5
249
100
AcDbEntity
  8
0
100
AcDbLine
 62
7
  6
BYLAYER
 10
26.3841172516
 20
10.1858309353
 11
26.3841172516
 21
10.0858309353
  0
LINE
  5
24A
100
AcDbEntity
  8
0
100
AcDbLine
 62
7
  6
BYLAYER
 10
13.6841172516
 20
32.6358309353
 11
25.6841172516
 21
32.6358309353
  0
LINE
  5
24B
100
AcDbEntity
  8
0
100
AcDbLine
 62
7
  6
BYLAYER
 10
14.4341217501
 20
33.3858309353
 11
24.9341127532
 21
33.3858309353
  0
LINE
  5
24C
100
AcDbEntity
  8
0
100
AcDbLine
 62
7
  6
BYLAYER
 10
26.9210278604
 20
10.3858309353
 11
26.9210278604
 21
12.1858309353
  0
LINE
  5
24D
100
AcDbEntity
  8
0
100
AcDbLine
 62
7
  6
BYLAYER
 10
27.6341172516
 20
13.9858309353
 11
27.6341172516
 21
12.1858309353
  0
LINE
  5
24E
100
AcDbEntity
  8
0
100
AcDbLine
 62
7
  6
BYLAYER
 10
24.9341172516
 20
33.3858309353
 11
25.6841172516
 21
32.6358309353
  0
LINE
  5
24F
100
AcDbEntity
  8
0
100
AcDbLine
 62
7
  6
BYLAYER
 10
28.1841172516
 20
16.4158309353
 11
28.1841172516
 21
19.9158309353
  0
LINE
  5
250
100
AcDbEntity
  8
0
100
AcDbLine
 62
7
  6
BYLAYER
 10
28.1841172516
 20
20.4158309353
 11
28.1841172516
 21
23.9158309353
  0
LINE
  5
251
100
AcDbEntity
  8
0
100
AcDbLine
 62
7
  6
BYLAYER
 10
26.8674380219
 20
10.1858309353
 11
26.9210278604
 21
10.3858309353
  0
LINE
  5
252
100
AcDbEntity
  8
0
100
AcDbLine
 62
7
  6
BYLAYER
 10
14.7523325848
 20
41.3858309353
 11
24.6159019185
 21
41.3858309353
  0
LINE
  5
253
100
AcDbEntity
  8
0
100
AcDbLine
 62
7
  6
BYLAYER
 10
15.6144121026
 20
42.1858309353
 11
23.7538224007
 21
42.1858309353
  0
LINE
  5
254
100
AcDbEntity
  8
0
100
AcDbLine
 62
7
  6
BYLAYER
 10
25.8341172516
 20
7.5858309353
 11
26.0341172516
 21
7.7858309353
  0
LINE
  5
255
100
AcDbEntity
  8
0
100
AcDbLine
 62
7
  6
BYLAYER
 10
18.4383354441
 20
44.5661659905
 11
18.7977902739
 21
44.6295475754
  0
LINE
  5
256
100
AcDbEntity
  8
0
100
AcDbLine
 62
7
  6
BYLAYER
 10
18.4383354441
 20
45.00549588
 11
18.7977902739
 21
44.9421142952
  0
LINE
  5
257
100
AcDbEntity
  8
0
100
AcDbLine
 62
7
  6
BYLAYER
 10
16.6530283384
 20
47.2858309353
 11
22.7152061649
 21
47.2858309353
  0
LINE
  5
258
100
AcDbEntity
  8
0
100
AcDbLine
 62
7
  6
BYLAYER
 10
16.8863502849
 20
47.4858309353
 11
22.4818842184
 21
47.4858309353
  0
ARC
  5
259
100
AcDbEntity
  8
0
100
AcDbCircle
 62
7
  6
BYLAYER
 10
77.4262838447
 20
-25.2818523635
 40
91.5019430623
100
AcDbArc
 50
132.4950096787
 51
133.2314122761
  0
ARC
  5
25A
100
AcDbEntity
  8
0
100
AcDbCircle
 62
7
  6
BYLAYER
 10
3.5579788853
 20
25.1732734719
 40
29.2568686726
100
AcDbArc
 50
49.0959547001
 51
49.697790644
  0
ARC
  5
25B
100
AcDbEntity
  8
0
100
AcDbCircle
 62
7
  6
BYLAYER
 10
35.8097982426
 20
25.1738119957
 40
29.256166193
100
AcDbArc
 50
130.3022177805
 51
130.9040520475
  0
ARC
  5
25C
100
AcDbEntity
  8
0
100
AcDbCircle
 62
7
  6
BYLAYER
 10
19.6841172516
 20
44.7508309353
 40
5.3
100
AcDbArc
 50
326.8100510536
 51
213.1902684686
  0
ARC
  5
25D
100
AcDbEntity
  8
0
100
AcDbCircle
 62
7
  6
BYLAYER
 10
19.6841172516
 20
44.7508309353
 40
5.0734989707
100
AcDbArc
 50
180.0
 51
215.8091695836
  0
ARC
  5
25E
100
AcDbEntity
  8
0
100
AcDbCircle
 62
7
  6
BYLAYER
 10
19.6841172516
 20
44.7508309353
 40
5.0734989707
100
AcDbArc
 50
324.1562782079
 51
179.7000458411
  0
ARC
  5
25F
100
AcDbEntity
  8
0
100
AcDbCircle
 62
7
  6
BYLAYER
 10
19.6841007855
 20
44.75517866
 40
5.0734736073
100
AcDbArc
 50
179.7491439498
 51
180.049099755
  0
ARC
  5
260
100
AcDbEntity
  8
0
100
AcDbCircle
 62
7
  6
BYLAYER
 10
19.6841172516
 20
44.7508309353
 40
4.8820460743
100
AcDbArc
 50
324.5540960995
 51
215.39766576
  0
CIRCLE
  5
261
100
AcDbEntity
  8
0
100
AcDbCircle
 62
7
  6
BYLAYER
 10
19.6841172516
 20
44.7858309353
 40
1.275
  0
CIRCLE
  5
262
100
AcDbEntity
  8
0
100
AcDbCircle
 62
7
  6
BYLAYER
 10
19.6841172516
 20
44.7858309353
 40
1.265
  0
ARC
  5
263
100
AcDbEntity
  8
0
100
AcDbCircle
 62
7
  6
BYLAYER
 10
19.6841172516
 20
44.7858309353
 40
1.0340598923
100
AcDbArc
 50
190.0
 51
170.0
  0
ARC
  5
264
100
AcDbEntity
  8
0
100
AcDbCircle
 62
7
  6
BYLAYER
 10
19.6841172516
 20
44.7858309353
 40
0.9
100
AcDbArc
 50
190.0
 51
170.0
  0
ARC
  5
265
100
AcDbEntity
  8
0
100
AcDbCircle
 62
7
  6
BYLAYER
 10
13.8341172516
 20
4.3858309353
 40
0.5
100
AcDbArc
 50
180.0
 51
270.0000904032
  0
ARC
  5
266
100
AcDbEntity
  8
0
100
AcDbCircle
 62
7
  6
BYLAYER
 10
25.5341172516
 20
4.3858309353
 40
0.5
100
AcDbArc
 50
269.9999095968
 51
360.0
  0
ARC
  5
267
100
AcDbEntity
  8
0
100
AcDbCircle
 62
7
  6
BYLAYER
 10
11.9341172516
 20
13.9858309353
 40
0.2
100
AcDbArc
 50
89.999970988
 51
180.0
  0
ARC
  5
268
100
AcDbEntity
  8
0
100
AcDbCircle
 62
7
  6
BYLAYER
 10
27.4341172516
 20
13.9858309353
 40
0.2
100
AcDbArc
 50
0.0
 51
90.000029012
  0
SPLINE
  5
269
100
AcDbEntity
  8
0
100
AcDbSpline
 62
7
  6
BYLAYER
 70
0
 71
3
 72
11
 73
7
 74
0
 42
0.0000001
 43
0.0000001
 44
0.0000000001
 40
0.0
 40
0.0
 40
0.0
 40
0.0
 40
0.2503270763
 40
0.5003966946
 40
0.7502573322
 40
1.0
 40
1.0
 40
1.0
 40
1.0
 10
19.6841172516
 20
20.768171952
 30
0.0
 10
19.3321222063
 20
20.713718129
 30
0.0
 10
18.6269045179
 20
20.6147519281
 30
0.0
 10
17.5650877704
 20
20.5023063444
 30
0.0
 10
16.5004355915
 20
20.4318558412
 30
0.0
 10
15.7894678743
 20
20.4158309352
 30
0.0
 10
15.4341172503
 20
20.4158309353
 30
0.0
  0
SPLINE
  5
26A
100
AcDbEntity
  8
0
100
AcDbSpline
 62
7
  6
BYLAYER
 70
0
 71
3
 72
11
 73
7
 74
0
 42
0.0000001
 43
0.0000001
 44
0.0000000001
 40
0.0
 40
0.0
 40
0.0
 40
0.0
 40
0.2503270754
 40
0.5003966947
 40
0.7502573324
 40
1.0
 40
1.0
 40
1.0
 40
1.0
 10
11.1841172516
 20
23.5634899185
 30
0.0
 10
11.5361122954
 20
23.6179437412
 30
0.0
 10
12.2413299955
 20
23.7169098495
 30
0.0
 10
13.3031467275
 20
23.8293555647
 30
0.0
 10
14.3677989116
 20
23.8998060196
 30
0.0
 10
15.0787666269
 20
23.9158309352
 30
0.0
 10
15.4341172503
 20
23.9158309353
 30
0.0
  0
SPLINE
  5
26B
100
AcDbEntity
  8
0
100
AcDbSpline
 62
7
  6
BYLAYER
 70
0
 71
3
 72
11
 73
7
 74
0
 42
0.0000001
 43
0.0000001
 44
0.0000000001
 40
0.0
 40
0.0
 40
0.0
 40
0.0
 40
0.2503270763
 40
0.5003966946
 40
0.7502573322
 40
1.0
 40
1.0
 40
1.0
 40
1.0
 10
28.1841172516
 20
20.768171952
 30
0.0
 10
27.8321222065
 20
20.713718129
 30
0.0
 10
27.1269045184
 20
20.6147519282
 30
0.0
 10
26.0650877714
 20
20.5023063445
 30
0.0
 10
25.0004355931
 20
20.4318558413
 30
0.0
 10
24.2894678762
 20
20.4158309353
 30
0.0
 10
23.9341172524
 20
20.4158309352
 30
0.0
  0
SPLINE
  5
26C
100
AcDbEntity
  8
0
100
AcDbSpline
 62
7
  6
BYLAYER
 70
0
 71
3
 72
11
 73
7
 74
0
 42
0.0000001
 43
0.0000001
 44
0.0000000001
 40
0.0
 40
0.0
 40
0.0
 40
0.0
 40
0.2497426693
 40
0.4996033072
 40
0.7496729248
 40
1.0
 40
1.0
 40
1.0
 40
1.0
 10
23.9341172524
 20
23.9158309353
 30
0.0
 10
24.2894678784
 20
23.9158309352
 30
0.0
 10
25.0004355978
 20
23.8998060297
 30
0.0
 10
26.0650877774
 20
23.829355522
 30
0.0
 10
27.1269045224
 20
23.7169099415
 30
0.0
 10
27.8321222081
 20
23.6179437412
 30
0.0
 10
28.1841172516
 20
23.5634899185
 30
0.0
  0
SPLINE
  5
26D
100
AcDbEntity
  8
0
100
AcDbSpline
 62
7
  6
BYLAYER
 70
0
 71
3
 72
11
 73
7
 74
0
 42
0.0000001
 43
0.0000001
 44
0.0000000001
 40
0.0
 40
0.0
 40
0.0
 40
0.0
 40
0.2497426693
 40
0.4996033072
 40
0.7496729248
 40
1.0
 40
1.0
 40
1.0
 40
1.0
 10
15.4341172503
 20
23.9158309353
 30
0.0
 10
15.7894678765
 20
23.9158309353
 30
0.0
 10
16.5004355962
 20
23.8998060298
 30
0.0
 10
17.5650877764
 20
23.8293555221
 30
0.0
 10
18.6269045219
 20
23.7169099416
 30
0.0
 10
19.3321222079
 20
23.6179437412
 30
0.0
 10
19.6841172516
 20
23.5634899185
 30
0.0
  0
SPLINE
  5
26E
100
AcDbEntity
  8
0
100
AcDbSpline
 62
7
  6
BYLAYER
 70
0
 71
3
 72
11
 73
7
 74
0
 42
0.0000001
 43
0.0000001
 44
0.0000000001
 40
0.0
 40
0.0
 40
0.0
 40
0.0
 40
0.2497426692
 40
0.499603307
 40
0.7496729258
 40
1.0
 40
1.0
 40
1.0
 40
1.0
 10
23.9341172524
 20
20.4158309352
 30
0.0
 10
23.5787666265
 20
20.4158309352
 30
0.0
 10
22.8677989084
 20
20.4318558503
 30
0.0
 10
21.8031467225
 20
20.5023063096
 30
0.0
 10
20.7413299919
 20
20.6147520217
 30
0.0
 10
20.036112294
 20
20.7137181295
 30
0.0
 10
19.6841172516
 20
20.768171952
 30
0.0
  0
SPLINE
  5
26F
100
AcDbEntity
  8
0
100
AcDbSpline
 62
7
  6
BYLAYER
 70
0
 71
3
 72
11
 73
7
 74
0
 42
0.0000001
 43
0.0000001
 44
0.0000000001
 40
0.0
 40
0.0
 40
0.0
 40
0.0
 40
0.2497426692
 40
0.499603307
 40
0.7496729258
 40
1.0
 40
1.0
 40
1.0
 40
1.0
 10
15.4341172503
 20
20.4158309353
 30
0.0
 10
15.0787666246
 20
20.4158309353
 30
0.0
 10
14.3677989068
 20
20.4318558504
 30
0.0
 10
13.3031467215
 20
20.5023063097
 30
0.0
 10
12.2413299914
 20
20.6147520218
 30
0.0
 10
11.5361122938
 20
20.7137181295
 30
0.0
 10
11.1841172516
 20
20.768171952
 30
0.0
  0
SPLINE
  5
270
100
AcDbEntity
  8
0
100
AcDbSpline
 62
7
  6
BYLAYER
 70
0
 71
3
 72
11
 73
7
 74
0
 42
0.0000001
 43
0.0000001
 44
0.0000000001
 40
0.0
 40
0.0
 40
0.0
 40
0.0
 40
0.2503270754
 40
0.5003966947
 40
0.7502573324
 40
1.0
 40
1.0
 40
1.0
 40
1.0
 10
19.6841172516
 20
23.5634899185
 30
0.0
 10
20.0361122956
 20
23.6179437413
 30
0.0
 10
20.741329996
 20
23.7169098496
 30
0.0
 10
21.8031467286
 20
23.8293555648
 30
0.0
 10
22.8677989132
 20
23.8998060197
 30
0.0
 10
23.5787666288
 20
23.9158309353
 30
0.0
 10
23.9341172524
 20
23.9158309353
 30
0.0
  0
SPLINE
  5
271
100
AcDbEntity
  8
0
100
AcDbSpline
 62
7
  6
BYLAYER
 70
0
 71
3
 72
11
 73
7
 74
0
 42
0.0000001
 43
0.0000001
 44
0.0000000001
 40
0.0
 40
0.0
 40
0.0
 40
0.0
 40
0.2503270763
 40
0.5003966946
 40
0.7502573322
 40
1.0
 40
1.0
 40
1.0
 40
1.0
 10
19.6841172516
 20
16.768171952
 30
0.0
 10
19.3321222063
 20
16.713718129
 30
0.0
 10
18.6269045179
 20
16.6147519281
 30
0.0
 10
17.5650877704
 20
16.5023063444
 30
0.0
 10
16.5004355915
 20
16.4318558412
 30
0.0
 10
15.7894678743
 20
16.4158309352
 30
0.0
 10
15.4341172503
 20
16.4158309353
 30
0.0
  0
SPLINE
  5
272
100
AcDbEntity
  8
0
100
AcDbSpline
 62
7
  6
BYLAYER
 70
0
 71
3
 72
11
 73
7
 74
0
 42
0.0000001
 43
0.0000001
 44
0.0000000001
 40
0.0
 40
0.0
 40
0.0
 40
0.0
 40
0.2503270754
 40
0.5003966947
 40
0.7502573324
 40
1.0
 40
1.0
 40
1.0
 40
1.0
 10
11.1841172516
 20
19.5634899185
 30
0.0
 10
11.5361122954
 20
19.6179437412
 30
0.0
 10
12.2413299955
 20
19.7169098495
 30
0.0
 10
13.3031467275
 20
19.8293555647
 30
0.0
 10
14.3677989116
 20
19.8998060196
 30
0.0
 10
15.0787666269
 20
19.9158309352
 30
0.0
 10
15.4341172503
 20
19.9158309353
 30
0.0
  0
SPLINE
  5
273
100
AcDbEntity
  8
0
100
AcDbSpline
 62
7
  6
BYLAYER
 70
0
 71
3
 72
11
 73
7
 74
0
 42
0.0000001
 43
0.0000001
 44
0.0000000001
 40
0.0
 40
0.0
 40
0.0
 40
0.0
 40
0.2503270763
 40
0.5003966946
 40
0.7502573322
 40
1.0
 40
1.0
 40
1.0
 40
1.0
 10
28.1841172516
 20
16.768171952
 30
0.0
 10
27.8321222065
 20
16.713718129
 30
0.0
 10
27.1269045184
 20
16.6147519282
 30
0.0
 10
26.0650877714
 20
16.5023063445
 30
0.0
 10
25.0004355931
 20
16.4318558413
 30
0.0
 10
24.2894678762
 20
16.4158309353
 30
0.0
 10
23.9341172524
 20
16.4158309352
 30
0.0
  0
SPLINE
  5
274
100
AcDbEntity
  8
0
100
AcDbSpline
 62
7
  6
BYLAYER
 70
0
 71
3
 72
11
 73
7
 74
0
 42
0.0000001
 43
0.0000001
 44
0.0000000001
 40
0.0
 40
0.0
 40
0.0
 40
0.0
 40
0.2497426693
 40
0.4996033072
 40
0.7496729248
 40
1.0
 40
1.0
 40
1.0
 40
1.0
 10
23.9341172524
 20
19.9158309353
 30
0.0
 10
24.2894678784
 20
19.9158309352
 30
0.0
 10
25.0004355978
 20
19.8998060297
 30
0.0
 10
26.0650877774
 20
19.829355522
 30
0.0
 10
27.1269045224
 20
19.7169099415
 30
0.0
 10
27.8321222081
 20
19.6179437412
 30
0.0
 10
28.1841172516
 20
19.5634899185
 30
0.0
  0
SPLINE
  5
275
100
AcDbEntity
  8
0
100
AcDbSpline
 62
7
  6
BYLAYER
 70
0
 71
3
 72
11
 73
7
 74
0
 42
0.0000001
 43
0.0000001
 44
0.0000000001
 40
0.0
 40
0.0
 40
0.0
 40
0.0
 40
0.2497426693
 40
0.4996033072
 40
0.7496729248
 40
1.0
 40
1.0
 40
1.0
 40
1.0
 10
15.4341172503
 20
19.9158309353
 30
0.0
 10
15.7894678765
 20
19.9158309353
 30
0.0
 10
16.5004355962
 20
19.8998060298
 30
0.0
 10
17.5650877764
 20
19.8293555221
 30
0.0
 10
18.6269045219
 20
19.7169099416
 30
0.0
 10
19.3321222079
 20
19.6179437412
 30
0.0
 10
19.6841172516
 20
19.5634899185
 30
0.0
  0
SPLINE
  5
276
100
AcDbEntity
  8
0
100
AcDbSpline
 62
7
  6
BYLAYER
 70
0
 71
3
 72
11
 73
7
 74
0
 42
0.0000001
 43
0.0000001
 44
0.0000000001
 40
0.0
 40
0.0
 40
0.0
 40
0.0
 40
0.2497426692
 40
0.499603307
 40
0.7496729258
 40
1.0
 40
1.0
 40
1.0
 40
1.0
 10
23.9341172524
 20
16.4158309352
 30
0.0
 10
23.5787666265
 20
16.4158309352
 30
0.0
 10
22.8677989084
 20
16.4318558503
 30
0.0
 10
21.8031467225
 20
16.5023063096
 30
0.0
 10
20.7413299919
 20
16.6147520217
 30
0.0
 10
20.036112294
 20
16.7137181295
 30
0.0
 10
19.6841172516
 20
16.768171952
 30
0.0
  0
SPLINE
  5
277
100
AcDbEntity
  8
0
100
AcDbSpline
 62
7
  6
BYLAYER
 70
0
 71
3
 72
11
 73
7
 74
0
 42
0.0000001
 43
0.0000001
 44
0.0000000001
 40
0.0
 40
0.0
 40
0.0
 40
0.0
 40
0.2497426692
 40
0.499603307
 40
0.7496729258
 40
1.0
 40
1.0
 40
1.0
 40
1.0
 10
15.4341172503
 20
16.4158309353
 30
0.0
 10
15.0787666246
 20
16.4158309353
 30
0.0
 10
14.3677989068
 20
16.4318558504
 30
0.0
 10
13.3031467215
 20
16.5023063097
 30
0.0
 10
12.2413299914
 20
16.6147520218
 30
0.0
 10
11.5361122938
 20
16.7137181295
 30
0.0
 10
11.1841172516
 20
16.768171952
 30
0.0
  0
SPLINE
  5
278
100
AcDbEntity
  8
0
100
AcDbSpline
 62
7
  6
BYLAYER
 70
0
 71
3
 72
11
 73
7
 74
0
 42
0.0000001
 43
0.0000001
 44
0.0000000001
 40
0.0
 40
0.0
 40
0.0
 40
0.0
 40
0.2503270754
 40
0.5003966947
 40
0.7502573324
 40
1.0
 40
1.0
 40
1.0
 40
1.0
 10
19.6841172516
 20
19.5634899185
 30
0.0
 10
20.0361122956
 20
19.6179437413
 30
0.0
 10
20.741329996
 20
19.7169098496
 30
0.0
 10
21.8031467286
 20
19.8293555648
 30
0.0
 10
22.8677989132
 20
19.8998060197
 30
0.0
 10
23.5787666288
 20
19.9158309353
 30
0.0
 10
23.9341172524
 20
19.9158309353
 30
0.0
  0
SPLINE
  5
279
100
AcDbEntity
  8
0
100
AcDbSpline
 62
7
  6
BYLAYER
 70
0
 71
3
 72
24
 73
20
 74
0
 42
0.0000001
 43
0.0000001
 44
0.0000000001
 40
0.0
 40
0.0
 40
0.0
 40
0.0
 40
0.0629902748
 40
0.1255500568
 40
0.1876525097
 40
0.2495423592
 40
0.3115478695
 40
0.3739387674
 40
0.4367691974
 40
0.4998858125
 40
0.5630086498
 40
0.6258509645
 40
0.657136988
 40
0.6883095912
 40
0.750344096
 40
0.8122592591
 40
0.8743922893
 40
0.9369909009
 40
1.0
 40
1.0
 40
1.0
 40
1.0
 10
19.6841172516
 20
42.9108309353
 30
0.0
 10
19.7962577233
 20
42.9108309353
 30
0.0
 10
20.020921999
 20
42.9422833088
 30
0.0
 10
20.3310815108
 20
43.0751891912
 30
0.0
 10
20.5996048341
 20
43.275196228
 30
0.0
 10
20.8206750122
 20
43.5244233547
 30
0.0
 10
20.9933210505
 20
43.8094900029
 30
0.0
 10
21.117479253
 20
44.1203318234
 30
0.0
 10
21.1925217597
 20
44.4484489047
 30
0.0
 10
21.217700434
 20
44.7853632814
 30
0.0
 10
21.1926766556
 20
45.1222747816
 30
0.0
 10
21.1300473298
 20
45.3963439457
 30
0.0
 10
21.0554022774
 20
45.6067731734
 30
0.0
 10
20.964848168
 20
45.8092767538
 30
0.0
 10
20.8210652347
 20
46.0467849165
 30
0.0
 10
20.5998504402
 20
46.2960121555
 30
0.0
 10
20.3314105098
 20
46.49643874
 30
0.0
 10
20.0210355745
 20
46.6292862061
 30
0.0
 10
19.7962912359
 20
46.6608309353
 30
0.0
 10
19.6841172516
 20
46.6608309353
 30
0.0
  0
SPLINE
  5
27A
100
AcDbEntity
  8
0
100
AcDbSpline
 62
7
  6
BYLAYER
 70
0
 71
3
 72
23
 73
19
 74
0
 42
0.0000001
 43
0.0000001
 44
0.0000000001
 40
0.0
 40
0.0
 40
0.0
 40
0.0
 40
0.0629934805
 40
0.1255564434
 40
0.1876620403
 40
0.2495550008
 40
0.3115634857
 40
0.3739574693
 40
0.4367910268
 40
0.499910795
 40
0.563036844
 40
0.6258823459
 40
0.6882943252
 40
0.7503318777
 40
0.8122500234
 40
0.8743860803
 40
0.9369877194
 40
1.0
 40
1.0
 40
1.0
 40
1.0
 10
19.6841172516
 20
46.6608309353
 30
0.0
 10
19.5719766495
 20
46.6608309353
 30
0.0
 10
19.3473122478
 20
46.6293780819
 30
0.0
 10
19.0371519903
 20
46.4964728328
 30
0.0
 10
18.7686294518
 20
46.2964642572
 30
0.0
 10
18.5475585568
 20
46.0472379235
 30
0.0
 10
18.3749134692
 20
45.7621706729
 30
0.0
 10
18.2507550012
 20
45.4513298293
 30
0.0
 10
18.175712929
 20
45.1232104099
 30
0.0
 10
18.15053225
 20
44.7863046245
 30
0.0
 10
18.1755653924
 20
44.4493600807
 30
0.0
 10
18.250556076
 20
44.1211690587
 30
0.0
 10
18.3744798004
 20
43.8101247242
 30
0.0
 10
18.5471576179
 20
43.5248986545
 30
0.0
 10
18.7683873012
 20
43.2756422086
 30
0.0
 10
19.0368245641
 20
43.0752267355
 30
0.0
 10
19.3471984702
 20
42.9423723317
 30
0.0
 10
19.5719431815
 20
42.9108309353
 30
0.0
 10
19.6841172516
 20
42.9108309353
 30
0.0
  0
SPLINE
  5
27B
100
AcDbEntity
  8
0
100
AcDbSpline
 62
7
  6
BYLAYER
 70
0
 71
3
 72
9
 73
5
 74
0
 42
0.0000001
 43
0.0000001
 44
0.0000000001
 40
0.0
 40
0.0
 40
0.0
 40
0.0
 40
0.5000001066
 40
1.0
 40
1.0
 40
1.0
 40
1.0
 10
24.6159019185
 20
41.3858438483
 30
0.0
 10
24.4730423009
 20
41.5200444173
 30
0.0
 10
24.1866088057
 20
41.7876858964
 30
0.0
 10
23.8985227964
 20
42.0535514872
 30
0.0
 10
23.7538826293
 20
42.1858309353
 30
0.0
  0
ENDSEC
  0
SECTION
  2
OBJECTS
  0
DICTIONARY
  5
C
100
AcDbDictionary
280
0
281
1
  3
ACAD_GROUP
350
D
  3
ACAD_MLINESTYLE
350
17
  3
ACAD_LAYOUT
350
1A
  3
ACAD_PLOTSETTINGS
350
19
  3
ACAD_PLOTSTYLENAME
350
E
  0
DICTIONARY
  5
D
102
{ACAD_REACTORS
330
C
102
}
100
AcDbDictionary
280
0
281
1
  0
ACDBDICTIONARYWDFLT
  5
E
102
{ACAD_REACTORS
330
C
102
}
100
AcDbDictionary
281
1
  3
Normal
350
F
100
AcDbDictionaryWithDefault
340
F
  0
DICTIONARY
  5
17
102
{ACAD_REACTORS
330
C
102
}
100
AcDbDictionary
280
0
281
1
  3
Standard
350
18
  0
DICTIONARY
  5
19
102
{ACAD_REACTORS
330
C
102
}
100
AcDbDictionary
281
1
  0
DICTIONARY
  5
1A
102
{ACAD_REACTORS
330
C
102
}
100
AcDbDictionary
281
1
  3
Model
350
27C
  3
Layout1
350
27D
  0
ACDBPLACEHOLDER
  5
F
102
{ACAD_REACTORS
330
E
102
}
  0
MLINESTYLE
  5
18
102
{ACAD_REACTORS
330
17
102
}
100
AcDbMlineStyle
  2
STANDARD
 70
0
  3

 62
256
 51
90.0
 52
90.0
 71
2
 49
0.5
 62
256
  6
BYLAYER
 49
-0.5
 62
256
  6
BYLAYER
  0
LAYOUT
  5
27C
102
{ACAD_REACTORS
330
1A
102
}
100
AcDbPlotSettings
  1

  2
none_device
  4

  6

 40
0.0
 41
0.0
 42
0.0
 43
0.0
 44
210.0
 45
297.0
 46
0.0
 47
0.0
 48
0.0
 49
0.0
140
0.0
141
0.0
142
1.0
143
1.0
 70
1024
 72
1
 73
0
 74
0
  7

 75
0
147
1.0
148
0.0
149
0.0
100
AcDbLayout
  1
Model
 70
0
 71
0
 10
0.0
 20
0.0
 11
210.0
 21
297.0
 12
0.0
 22
0.0
 32
0.0
 14
0.0
 24
0.0
 34
0.0
 15
0.0
 25
0.0
 35
0.0
146
0.0
 13
0.0
 23
0.0
 33
0.0
 16
1.0
 26
0.0
 36
0.0
 17
0.0
 27
1.0
 37
0.0
 76
0
330
210
345
0
346
0
  0
LAYOUT
  5
27D
102
{ACAD_REACTORS
330
1A
102
}
100
AcDbPlotSettings
  1

  2
none_device
  4

  6

 40
0.0
 41
0.0
 42
0.0
 43
0.0
 44
210.0
 45
297.0
 46
0.0
 47
0.0
 48
0.0
 49
0.0
140
0.0
141
0.0
142
1.0
143
1.0
 70
0
 72
1
 73
0
 74
0
  7

 75
0
147
1.0
148
0.0
149
0.0
100
AcDbLayout
  1
Layout1
 70
0
 71
1
 10
0.0
 20
0.0
 11
210.0
 21
297.0
 12
0.0
 22
0.0
 32
0.0
 14
0.0
 24
0.0
 34
0.0
 15
0.0
 25
0.0
 35
0.0
146
0.0
 13
0.0
 23
0.0
 33
0.0
 16
1.0
 26
0.0
 36
0.0
 17
0.0
 27
1.0
 37
0.0
 76
0
330
211
345
0
346
0
  0
ENDSEC
  0
EOF
