999
DXF file: C:\Users\sesa63760\Dev\_Creo\CAD\MCADID0003701_3D-CAD\drw0001_1.dxf
999
Pro/ENGINEER 2019471 by Parametric Technology Corporation
  0
SECTION
  2
HEADER
  9
$ACADVER
  1
AC1024
  9
$DWGCODEPAGE
  3
ANSI_1252
  9
$EXTMAX
 10
180.2723370709
 20
254.9565910003
 30
0.0
  9
$EXTMIN
 10
0.0
 20
0.0
 30
0.0
  9
$LIMMIN
 10
0.0
 20
0.0
  9
$LIMMAX
 10
180.2723370709
 20
254.9565910003
  9
$VIEWCTR
 10
90.1361685355
 20
127.4782955002
  9
$VIEWSIZE
 40
254.9565910003
  9
$CLAYER
  8
0
  9
$LTSCALE
 40
16.6193925985
  9
$CELTYPE
  6
BYLAYER
  9
$DIMSCALE
 40
1.0
  9
$DIMASZ
 40
2.1460992508
  9
$DIMEXO
 40
1.0
  9
$DIMDLI
 40
11.4824894317
  9
$DIMEXE
 40
1.0
  9
$DIMCEN
 40
2.7195369707
  9
$DIMLFAC
 40
1.0
  9
$DIMBLK
  1
_FILLED
  9
$DIMALT
 70
0
  9
$DIMALTF
 40
0.0393700787
  9
$DIMTXT
 40
3.0045389512
  9
$DIMTOL
 70
1
  9
$DIMLIM
 70
0
  9
$DIMTFAC
 40
1.0
  9
$DIMTP
 40
0.01
  9
$DIMTM
 40
0.01
  9
$DIMGAP
 40
0.625
  9
$DIMDSEP
 70
46
  9
$AUNITS
 70
0
  9
$PDMODE
 70
3
  9
$PDSIZE
 40
0.3125
  9
$HANDSEED
  5
28A
  9
$TILEMODE
 70
1
  9
$MEASUREMENT
 70
1
  9
$INSUNITS
 70
4
  0
ENDSEC
  0
SECTION
  2
CLASSES
  0
CLASS
  1
ACDBDICTIONARYWDFLT
  2
AcDbDictionaryWithDefault
  3
AutoCAD 2000
 90
0
 91
1
280
0
281
0
  0
CLASS
  1
ACDBPLACEHOLDER
  2
AcDbPlaceHolder
  3
AutoCAD 2000
 90
0
 91
1
280
0
281
0
  0
CLASS
  1
LAYOUT
  2
AcDbLayout
  3
AutoCAD 2000
 90
0
 91
0
280
0
281
0
  0
ENDSEC
  0
SECTION
  2
TABLES
  0
TABLE
  2
VPORT
  5
8
100
AcDbSymbolTable
 70
2
  0
VPORT
  5
1F4
100
AcDbSymbolTableRecord
100
AcDbViewportTableRecord
  2
*ACTIVE
 70
0
 10
0.0
 20
0.0
 11
1.0
 21
1.0
 12
90.1361685355
 22
127.4782955002
 13
0.0
 23
0.0
 14
1.0
 24
1.0
 15
0.0
 25
0.0
 16
0.0
 26
0.0
 36
1.0
 17
0.0
 27
0.0
 37
0.0
 40
254.9565910003
 41
0.7070707071
 42
50.0
 43
0.0
 44
0.0
 50
0.0
 51
0.0
 71
0
 72
100
 73
1
 74
1
 75
0
 76
0
 77
0
 78
0
  0
ENDTAB
  0
TABLE
  2
LTYPE
  5
5
100
AcDbSymbolTable
 70
6
  0
LTYPE
  5
14
100
AcDbSymbolTableRecord
100
AcDbLinetypeTableRecord
  2
BYBLOCK
 70
0
  3

 72
65
 73
0
 40
0.0
  0
LTYPE
  5
15
100
AcDbSymbolTableRecord
100
AcDbLinetypeTableRecord
  2
BYLAYER
 70
0
  3

 72
65
 73
0
 40
0.0
  0
LTYPE
  5
16
100
AcDbSymbolTableRecord
100
AcDbLinetypeTableRecord
  2
CONTINUOUS
 70
64
  3
Solid line
 72
65
 73
0
 40
0.0
  0
LTYPE
  5
1F5
100
AcDbSymbolTableRecord
100
AcDbLinetypeTableRecord
  2
CENTER
 70
64
  3
____ _ ____ _ ____ _ ____ _ ____ _ ____ _ ____
 72
65
 73
4
 40
0.6
 49
0.375
 74
0
 49
-0.075
 74
0
 49
0.075
 74
0
 49
-0.075
 74
0
  0
LTYPE
  5
1F6
100
AcDbSymbolTableRecord
100
AcDbLinetypeTableRecord
  2
HIDDEN
 70
64
  3
- - - - - - - - - - - - - - - - - - - -
 72
65
 73
2
 40
0.2
 49
0.1
 74
0
 49
-0.1
 74
0
  0
LTYPE
  5
1F7
100
AcDbSymbolTableRecord
100
AcDbLinetypeTableRecord
  2
PHANTOM
 70
64
  3
_____ _ _ _____ _ _ _____ _ _ _____
 72
65
 73
6
 40
0.8
 49
0.45
 74
0
 49
-0.05
 74
0
 49
0.1
 74
0
 49
-0.05
 74
0
 49
0.1
 74
0
 49
-0.05
 74
0
  0
LTYPE
  5
1F8
100
AcDbSymbolTableRecord
100
AcDbLinetypeTableRecord
  2
DOT
 70
64
  3
. . . . . . . . . . . . . . . . . . . .
 72
65
 73
2
 40
0.2
 49
0.1
 74
0
 49
-0.1
 74
0
  0
LTYPE
  5
1F9
100
AcDbSymbolTableRecord
100
AcDbLinetypeTableRecord
  2
DASHED
 70
64
  3
- - - - - - - - - - - - - - - - - - - -
 72
65
 73
2
 40
0.2
 49
0.1
 74
0
 49
-0.1
 74
0
  0
ENDTAB
  0
TABLE
  2
LAYER
  5
2
100
AcDbSymbolTable
 70
36
  0
LAYER
  5
10
100
AcDbSymbolTableRecord
100
AcDbLayerTableRecord
  2
0
 70
0
 62
7
  6
CONTINUOUS
370
-3
390
F
  0
LAYER
  5
1FA
100
AcDbSymbolTableRecord
100
AcDbLayerTableRecord
  2
DEFAULT_1
 70
0
 62
7
  6
CENTER
370
-3
390
F
  0
LAYER
  5
1FB
100
AcDbSymbolTableRecord
100
AcDbLayerTableRecord
  2
DEFAULT_2
 70
0
 62
7
  6
HIDDEN
370
-3
390
F
  0
LAYER
  5
1FC
100
AcDbSymbolTableRecord
100
AcDbLayerTableRecord
  2
DEFAULT_3
 70
0
 62
7
  6
PHANTOM
370
-3
390
F
  0
LAYER
  5
1FD
100
AcDbSymbolTableRecord
100
AcDbLayerTableRecord
  2
00_COMPONENTS
 70
0
 62
7
  6
CONTINUOUS
370
-3
390
F
  0
LAYER
  5
1FE
100
AcDbSymbolTableRecord
100
AcDbLayerTableRecord
  2
01_1_DEFAULT_DATUMS
 70
0
 62
7
  6
CONTINUOUS
370
-3
390
F
  0
LAYER
  5
1FF
100
AcDbSymbolTableRecord
100
AcDbLayerTableRecord
  2
01_PLANES
 70
0
 62
7
  6
CONTINUOUS
370
-3
390
F
  0
LAYER
  5
200
100
AcDbSymbolTableRecord
100
AcDbLayerTableRecord
  2
02_COORD_SYS
 70
0
 62
7
  6
CONTINUOUS
370
-3
390
F
  0
LAYER
  5
201
100
AcDbSymbolTableRecord
100
AcDbLayerTableRecord
  2
03_AXES
 70
0
 62
7
  6
CONTINUOUS
370
-3
390
F
  0
LAYER
  5
202
100
AcDbSymbolTableRecord
100
AcDbLayerTableRecord
  2
04_POINTS
 70
0
 62
7
  6
CONTINUOUS
370
-3
390
F
  0
LAYER
  5
203
100
AcDbSymbolTableRecord
100
AcDbLayerTableRecord
  2
05_CURVES
 70
0
 62
7
  6
CONTINUOUS
370
-3
390
F
  0
LAYER
  5
204
100
AcDbSymbolTableRecord
100
AcDbLayerTableRecord
  2
06_SURFS
 70
0
 62
7
  6
CONTINUOUS
370
-3
390
F
  0
LAYER
  5
205
100
AcDbSymbolTableRecord
100
AcDbLayerTableRecord
  2
07_COSMETICS
 70
0
 62
7
  6
CONTINUOUS
370
-3
390
F
  0
LAYER
  5
206
100
AcDbSymbolTableRecord
100
AcDbLayerTableRecord
  2
1
 70
0
 62
7
  6
CONTINUOUS
370
-3
390
F
  0
LAYER
  5
207
100
AcDbSymbolTableRecord
100
AcDbLayerTableRecord
  2
10_NOTES
 70
0
 62
7
  6
CONTINUOUS
370
-3
390
F
  0
LAYER
  5
208
100
AcDbSymbolTableRecord
100
AcDbLayerTableRecord
  2
11_NOTES_PUB
 70
0
 62
7
  6
CONTINUOUS
370
-3
390
F
  0
LAYER
  5
209
100
AcDbSymbolTableRecord
100
AcDbLayerTableRecord
  2
13_REF_GTOL
 70
0
 62
7
  6
CONTINUOUS
370
-3
390
F
  0
LAYER
  5
20A
100
AcDbSymbolTableRecord
100
AcDbLayerTableRecord
  2
16_MISC
 70
0
 62
7
  6
CONTINUOUS
370
-3
390
F
  0
LAYER
  5
20B
100
AcDbSymbolTableRecord
100
AcDbLayerTableRecord
  2
17_NO_PRINT
 70
0
 62
7
  6
CONTINUOUS
370
-3
390
F
  0
LAYER
  5
20C
100
AcDbSymbolTableRecord
100
AcDbLayerTableRecord
  2
18_DATUM_CAMS_JOINTS
 70
0
 62
7
  6
CONTINUOUS
370
-3
390
F
  0
LAYER
  5
20D
100
AcDbSymbolTableRecord
100
AcDbLayerTableRecord
  2
19_DATUM_FUNCTIONAL
 70
0
 62
7
  6
CONTINUOUS
370
-3
390
F
  0
LAYER
  5
20E
100
AcDbSymbolTableRecord
100
AcDbLayerTableRecord
  2
2
 70
0
 62
7
  6
CONTINUOUS
370
-3
390
F
  0
LAYER
  5
20F
100
AcDbSymbolTableRecord
100
AcDbLayerTableRecord
  2
20_DATUM_KINEMATIC_SCHEME
 70
0
 62
7
  6
CONTINUOUS
370
-3
390
F
  0
ENDTAB
  0
TABLE
  2
STYLE
  5
3
100
AcDbSymbolTable
 70
1
  0
STYLE
  5
11
100
AcDbSymbolTableRecord
100
AcDbTextStyleTableRecord
  2
STANDARD
 70
0
 40
0.0
 41
1.0
 50
0.0
 71
0
 42
0.2
  3
ARIAL.TTF
  4

  0
STYLE
  5
210
100
AcDbSymbolTableRecord
100
AcDbTextStyleTableRecord
  2
TEXTSTYLE_1
 70
0
 40
0.0
 41
0.8
 50
0.0
 71
0
 42
0.2
  3
gdt
  4

  0
ENDTAB
  0
TABLE
  2
VIEW
  5
6
100
AcDbSymbolTable
 70
0
  0
ENDTAB
  0
TABLE
  2
UCS
  5
7
100
AcDbSymbolTable
 70
0
  0
ENDTAB
  0
TABLE
  2
APPID
  5
9
100
AcDbSymbolTable
 70
1
  0
APPID
  5
211
100
AcDbSymbolTableRecord
100
AcDbRegAppTableRecord
  2
ACAD
 70
0
  0
ENDTAB
  0
TABLE
  2
BLOCK_RECORD
  5
1
100
AcDbSymbolTable
 70
0
  0
BLOCK_RECORD
  5
212
100
AcDbSymbolTableRecord
100
AcDbBlockTableRecord
  2
*Model_Space
  0
BLOCK_RECORD
  5
213
100
AcDbSymbolTableRecord
100
AcDbBlockTableRecord
  2
*Paper_Space
  0
BLOCK_RECORD
  5
214
100
AcDbSymbolTableRecord
100
AcDbBlockTableRecord
  2
_FILLED
  0
ENDTAB
  0
TABLE
  2
DIMSTYLE
  5
A
100
AcDbSymbolTable
 70
1
100
AcDbDimStyleTable
 71
0
  0
DIMSTYLE
105
215
100
AcDbSymbolTableRecord
100
AcDbDimStyleTableRecord
  2
STANDARD
 70
0
  3

  4

 40
1.0
 41
2.1460992508
 42
1.0
 43
0.38
 44
1.0
 45
0.0
 46
0.0
 47
0.01
 48
0.01
140
3.0045389512
141
0.09
142
0.0
143
25.4
144
1.0
145
0.0
146
1.0
147
0.625
 71
1
 72
0
 73
0
 74
0
 75
0
 76
0
 77
1
 78
8
 79
2
170
0
171
1
172
0
173
0
174
0
175
0
176
0
177
0
178
0
270
2
179
2
271
2
272
2
273
2
274
2
275
0
280
0
281
0
282
0
283
1
284
8
285
0
286
0
287
3
288
0
340
11
278
46
341
214
342
214
343
214
344
214
  0
ENDTAB
  0
ENDSEC
  0
SECTION
  2
BLOCKS
  0
BLOCK
  5
20
100
AcDbEntity
  8
0
100
AcDbBlockBegin
  2
*Model_Space
 70
0
 10
0.0
 20
0.0
 30
0.0
  3
*Model_Space
  1

  0
ENDBLK
  5
21
100
AcDbEntity
  8
0
100
AcDbBlockEnd
  0
BLOCK
  5
1C
100
AcDbEntity
  8
0
100
AcDbBlockBegin
  2
*Paper_Space
 70
0
 10
0.0
 20
0.0
 30
0.0
  3
*Paper_Space
  1

  0
ENDBLK
  5
1D
100
AcDbEntity
  8
0
100
AcDbBlockEnd
  0
BLOCK
  5
216
100
AcDbEntity
  8
0
100
AcDbBlockBegin
  2
_FILLED
 70
64
 10
0.0
 20
0.0
  3
_FILLED
  1

  0
SOLID
  5
217
100
AcDbEntity
  8
0
  6
BYBLOCK
 62
0
100
AcDbTrace
 10
0.0
 20
0.0
 11
-1.0
 21
0.25
 12
-1.0
 22
-0.25
 13
-1.0
 23
-0.25
  0
ENDBLK
  5
218
100
AcDbEntity
  8
0
  6
BYBLOCK
 62
0
100
AcDbBlockEnd
  0
ENDSEC
  0
SECTION
  2
ENTITIES
  0
LINE
  5
219
100
AcDbEntity
  8
1
100
AcDbLine
 62
7
  6
BYLAYER
 10
20.9136651827
 20
138.801142559
 11
20.9136651827
 21
164.9292199072
  0
LINE
  5
21A
100
AcDbEntity
  8
1
100
AcDbLine
 62
7
  6
BYLAYER
 10
49.1978186713
 20
181.2590677123
 11
20.9136651827
 21
164.9292199072
  0
LINE
  5
21B
100
AcDbEntity
  8
1
100
AcDbLine
 62
7
  6
BYLAYER
 10
34.5254526426
 20
160.5406911404
 11
34.5254526426
 21
165.0313394402
  0
LINE
  5
21C
100
AcDbEntity
  8
1
100
AcDbLine
 62
7
  6
BYLAYER
 10
52.9101243701
 20
171.1551046025
 11
52.9101243701
 21
175.6457529023
  0
LINE
  5
21D
100
AcDbEntity
  8
1
100
AcDbLine
 62
7
  6
BYLAYER
 10
119.9090267033
 20
81.6474369262
 11
82.4080933056
 21
103.2981211143
  0
LINE
  5
21E
100
AcDbEntity
  8
1
100
AcDbLine
 62
7
  6
BYLAYER
 10
58.0346568151
 20
117.3698128889
 11
20.9136651827
 21
138.801142559
  0
LINE
  5
21F
100
AcDbEntity
  8
1
100
AcDbLine
 62
7
  6
BYLAYER
 10
52.7336028143
 20
129.0035839855
 11
60.5119442026
 21
133.4943846733
  0
LINE
  5
220
100
AcDbEntity
  8
1
100
AcDbLine
 62
7
  6
BYLAYER
 10
52.7336028143
 20
129.0035839855
 11
78.5668716283
 21
114.0890766929
  0
LINE
  5
221
100
AcDbEntity
  8
2
100
AcDbLine
 62
7
  6
BYLAYER
 10
82.1737509212
 20
116.1714969933
 11
86.2973733327
 21
113.790670233
  0
LINE
  5
222
100
AcDbEntity
  8
2
100
AcDbLine
 62
7
  6
BYLAYER
 10
136.9855928433
 20
87.832516389
 11
160.3909236667
 21
74.3197480373
  0
LINE
  5
223
100
AcDbEntity
  8
1
100
AcDbLine
 62
7
  6
BYLAYER
 10
88.0890890717
 20
117.5730728479
 11
52.7336028143
 21
137.9851105739
  0
LINE
  5
224
100
AcDbEntity
  8
1
100
AcDbLine
 62
7
  6
BYLAYER
 10
134.0511034476
 20
92.261827255
 11
131.0812673313
 21
93.9764241468
  0
LINE
  5
225
100
AcDbEntity
  8
2
100
AcDbLine
 62
7
  6
BYLAYER
 10
154.8047536012
 20
80.8108615353
 11
140.6625590983
 21
88.9756766257
  0
LINE
  5
226
100
AcDbEntity
  8
2
100
AcDbLine
 62
7
  6
BYLAYER
 10
131.0812673313
 20
95.3238152814
 11
136.9855928433
 21
91.9150284746
  0
LINE
  5
227
100
AcDbEntity
  8
1
100
AcDbLine
 62
7
  6
BYLAYER
 10
131.0812673313
 20
96.2627187286
 11
129.3135077382
 21
97.2833121166
  0
LINE
  5
228
100
AcDbEntity
  8
2
100
AcDbLine
 62
7
  6
BYLAYER
 10
154.8047536012
 20
82.852065308
 11
142.4303186913
 21
89.9962870104
  0
LINE
  5
229
100
AcDbEntity
  8
2
100
AcDbLine
 62
7
  6
BYLAYER
 10
159.330259079
 20
80.2393748804
 11
156.7139498591
 21
81.7498675409
  0
LINE
  5
22A
100
AcDbEntity
  8
2
100
AcDbLine
 62
7
  6
BYLAYER
 10
161.0980186721
 20
81.2599852651
 11
158.4817094521
 21
82.7704779256
  0
LINE
  5
22B
100
AcDbEntity
  8
2
100
AcDbLine
 62
7
  6
BYLAYER
 10
86.2973733327
 20
113.790670233
 11
88.3591049562
 21
108.4766680805
  0
LINE
  5
22C
100
AcDbEntity
  8
1
100
AcDbLine
 62
7
  6
BYLAYER
 10
20.9136651827
 20
164.9292199072
 11
119.9090267033
 21
107.7755142743
  0
LINE
  5
22D
100
AcDbEntity
  8
1
100
AcDbLine
 62
7
  6
BYLAYER
 10
116.1967210044
 20
113.3888290842
 11
111.9540626536
 21
115.8382736114
  0
LINE
  5
22E
100
AcDbEntity
  8
1
100
AcDbLine
 62
7
  6
BYLAYER
 10
34.8790398888
 20
160.3365520668
 11
30.6363815379
 21
162.7859965939
  0
LINE
  5
22F
100
AcDbEntity
  8
2
100
AcDbLine
 62
7
  6
BYLAYER
 10
75.3973073544
 20
112.2591388294
 11
82.1737509212
 21
116.1714969933
  0
LINE
  5
230
100
AcDbEntity
  8
2
100
AcDbLine
 62
7
  6
BYLAYER
 10
86.9780291634
 20
118.2145290733
 11
82.8065529661
 21
115.806140544
  0
LINE
  5
231
100
AcDbEntity
  8
2
100
AcDbLine
 62
7
  6
BYLAYER
 10
156.7139498591
 20
91.5478965465
 11
159.330259079
 21
90.037403886
  0
LINE
  5
232
100
AcDbEntity
  8
2
100
AcDbLine
 62
7
  6
BYLAYER
 10
136.9855928433
 20
104.1625647316
 11
131.0812673313
 21
107.5713515383
  0
LINE
  5
233
100
AcDbEntity
  8
2
100
AcDbLine
 62
7
  6
BYLAYER
 10
140.6625590983
 20
102.8562177169
 11
154.8047536012
 21
94.6914026265
  0
LINE
  5
234
100
AcDbEntity
  8
1
100
AcDbLine
 62
7
  6
BYLAYER
 10
34.5254526426
 20
165.0313394402
 11
38.7681109935
 21
162.5818949131
  0
LINE
  5
235
100
AcDbEntity
  8
1
100
AcDbLine
 62
7
  6
BYLAYER
 10
115.8431337582
 20
118.0836164577
 11
120.0857921091
 21
115.6341719305
  0
LINE
  5
236
100
AcDbEntity
  8
2
100
AcDbLine
 62
7
  6
BYLAYER
 10
136.9855928433
 20
106.2037685043
 11
131.0812673313
 21
109.612555311
  0
LINE
  5
237
100
AcDbEntity
  8
1
100
AcDbLine
 62
7
  6
BYLAYER
 10
136.9855928433
 20
106.7139664752
 11
136.1723693602
 21
107.1834706505
  0
LINE
  5
238
100
AcDbEntity
  8
2
100
AcDbLine
 62
7
  6
BYLAYER
 10
132.3893638311
 20
110.0820961556
 11
131.0812673313
 21
110.8373089367
  0
LINE
  5
239
100
AcDbEntity
  8
2
100
AcDbLine
 62
7
  6
BYLAYER
 10
160.3909236667
 20
94.7323084655
 11
136.9855928433
 21
108.2450768172
  0
LINE
  5
23A
100
AcDbEntity
  8
1
100
AcDbLine
 62
7
  6
BYLAYER
 10
131.4348229656
 20
111.9803888763
 11
134.0511034476
 21
110.4699128072
  0
LINE
  5
23B
100
AcDbEntity
  8
2
100
AcDbLine
 62
7
  6
BYLAYER
 10
88.3591049562
 20
108.4766680805
 11
86.2972141682
 21
105.5434926881
  0
LINE
  5
23C
100
AcDbEntity
  8
2
100
AcDbLine
 62
7
  6
BYLAYER
 10
78.2563893687
 20
109.1482336885
 11
86.2973733327
 21
113.790670233
  0
LINE
  5
23D
100
AcDbEntity
  8
2
100
AcDbLine
 62
7
  6
BYLAYER
 10
162.1586832598
 20
95.7529188502
 11
138.7533524364
 21
109.2656872019
  0
LINE
  5
23E
100
AcDbEntity
  8
2
100
AcDbLine
 62
7
  6
BYLAYER
 10
80.7443908762
 20
104.0803370992
 11
88.3591049562
 21
108.4766680805
  0
LINE
  5
23F
100
AcDbEntity
  8
2
100
AcDbLine
 62
7
  6
BYLAYER
 10
91.5629041739
 20
109.3144742465
 11
87.1619038545
 21
106.7735706945
  0
LINE
  5
240
100
AcDbEntity
  8
2
100
AcDbLine
 62
7
  6
BYLAYER
 10
81.0792882723
 20
102.5309397501
 11
86.2972141682
 21
105.5434926881
  0
LINE
  5
241
100
AcDbEntity
  8
1
100
AcDbLine
 62
7
  6
BYLAYER
 10
134.581392732
 20
124.0032425463
 11
130.3387343811
 21
126.4526870735
  0
LINE
  5
242
100
AcDbEntity
  8
1
100
AcDbLine
 62
7
  6
BYLAYER
 10
53.2637116164
 20
170.9509655289
 11
49.0210532655
 21
173.400410056
  0
LINE
  5
243
100
AcDbEntity
  8
1
100
AcDbLine
 62
7
  6
BYLAYER
 10
115.8431337582
 20
113.5929681578
 11
115.8431337582
 21
118.0836164577
  0
LINE
  5
244
100
AcDbEntity
  8
1
100
AcDbLine
 62
7
  6
BYLAYER
 10
52.9101243701
 20
175.6457529023
 11
57.152782721
 21
173.1963083752
  0
LINE
  5
245
100
AcDbEntity
  8
1
100
AcDbLine
 62
7
  6
BYLAYER
 10
134.2278054858
 20
128.6980299197
 11
138.4704638367
 21
126.2485853926
  0
LINE
  5
246
100
AcDbEntity
  8
1
100
AcDbLine
 62
7
  6
BYLAYER
 10
119.9090267033
 20
107.7755142743
 11
119.9090267033
 21
81.6474369262
  0
LINE
  5
247
100
AcDbEntity
  8
1
100
AcDbLine
 62
7
  6
BYLAYER
 10
148.1931801919
 20
124.1053620794
 11
49.1978186713
 21
181.2590677123
  0
LINE
  5
248
100
AcDbEntity
  8
1
100
AcDbLine
 62
7
  6
BYLAYER
 10
148.1931801919
 20
124.1053620794
 11
119.9090267033
 21
107.7755142743
  0
LINE
  5
249
100
AcDbEntity
  8
1
100
AcDbLine
 62
7
  6
BYLAYER
 10
134.0511034476
 20
113.4908901004
 11
131.0812673313
 21
111.7762646541
  0
LINE
  5
24A
100
AcDbEntity
  8
2
100
AcDbLine
 62
7
  6
BYLAYER
 10
133.5560905946
 20
110.7557021457
 11
132.3893638311
 21
110.0820961556
  0
LINE
  5
24B
100
AcDbEntity
  8
2
100
AcDbLine
 62
7
  6
BYLAYER
 10
160.3909236667
 20
76.7692552887
 11
159.330259079
 21
78.6063700462
  0
LINE
  5
24C
100
AcDbEntity
  8
2
100
AcDbLine
 62
7
  6
BYLAYER
 10
161.0980186721
 20
79.6269804308
 11
162.1586832598
 21
77.7898656734
  0
LINE
  5
24D
100
AcDbEntity
  8
1
100
AcDbLine
 62
7
  6
BYLAYER
 10
129.3135077382
 20
95.242108344
 11
129.3135077382
 21
105.0401373495
  0
LINE
  5
24E
100
AcDbEntity
  8
1
100
AcDbLine
 62
7
  6
BYLAYER
 10
131.0812673313
 20
90.5472018087
 11
131.0812673313
 21
96.2627187286
  0
LINE
  5
24F
100
AcDbEntity
  8
1
100
AcDbLine
 62
7
  6
BYLAYER
 10
131.0812673313
 20
106.0607477342
 11
131.0812673313
 21
111.7762646541
  0
LINE
  5
250
100
AcDbEntity
  8
2
100
AcDbLine
 62
7
  6
BYLAYER
 10
132.3893638311
 20
108.8573425299
 11
132.3893638311
 21
110.0820961556
  0
LINE
  5
251
100
AcDbEntity
  8
1
100
AcDbLine
 62
7
  6
BYLAYER
 10
134.0511034476
 20
110.4699128072
 11
137.0209395639
 21
112.1845382535
  0
LINE
  5
252
100
AcDbEntity
  8
1
100
AcDbLine
 62
7
  6
BYLAYER
 10
129.3135077382
 20
105.0401373495
 11
131.0812673313
 21
106.0607477342
  0
LINE
  5
253
100
AcDbEntity
  8
2
100
AcDbLine
 62
7
  6
BYLAYER
 10
138.7533524364
 20
109.2656872019
 11
136.9855928433
 21
108.2450768172
  0
LINE
  5
254
100
AcDbEntity
  8
1
100
AcDbLine
 62
7
  6
BYLAYER
 10
142.3243240578
 20
109.7554516864
 11
140.1146985654
 21
108.4797314286
  0
LINE
  5
255
100
AcDbEntity
  8
1
100
AcDbLine
 62
7
  6
BYLAYER
 10
134.0511034476
 20
92.261827255
 11
134.0511034476
 21
93.6092183895
  0
LINE
  5
256
100
AcDbEntity
  8
1
100
AcDbLine
 62
7
  6
BYLAYER
 10
134.0511034476
 20
110.4699128072
 11
134.0511034476
 21
113.4908901004
  0
LINE
  5
257
100
AcDbEntity
  8
1
100
AcDbLine
 62
7
  6
BYLAYER
 10
134.2278054858
 20
124.2073816199
 11
134.2278054858
 21
128.6980299197
  0
LINE
  5
258
100
AcDbEntity
  8
2
100
AcDbLine
 62
7
  6
BYLAYER
 10
136.1723693602
 20
106.6732726796
 11
136.1723693602
 21
111.6946189424
  0
LINE
  5
259
100
AcDbEntity
  8
2
100
AcDbLine
 62
7
  6
BYLAYER
 10
136.9855928433
 20
108.2450768172
 11
136.9855928433
 21
104.1625647316
  0
LINE
  5
25A
100
AcDbEntity
  8
2
100
AcDbLine
 62
7
  6
BYLAYER
 10
136.9855928433
 20
91.9150284746
 11
136.9855928433
 21
87.832516389
  0
LINE
  5
25B
100
AcDbEntity
  8
1
100
AcDbLine
 62
7
  6
BYLAYER
 10
137.0209395639
 20
112.1845382535
 11
137.0209395639
 21
108.265484134
  0
LINE
  5
25C
100
AcDbEntity
  8
1
100
AcDbLine
 62
7
  6
BYLAYER
 10
131.0812673313
 20
96.2627187286
 11
129.3135077382
 21
95.242108344
  0
LINE
  5
25D
100
AcDbEntity
  8
2
100
AcDbLine
 62
7
  6
BYLAYER
 10
140.6625590983
 20
88.9756766257
 11
140.6625590983
 21
102.8562177169
  0
LINE
  5
25E
100
AcDbEntity
  8
1
100
AcDbLine
 62
7
  6
BYLAYER
 10
142.3243240578
 20
107.2040324159
 11
142.3243240578
 21
109.7554516864
  0
LINE
  5
25F
100
AcDbEntity
  8
2
100
AcDbLine
 62
7
  6
BYLAYER
 10
142.4303186913
 20
89.9962870104
 11
142.4303186913
 21
101.8356243289
  0
LINE
  5
260
100
AcDbEntity
  8
1
100
AcDbLine
 62
7
  6
BYLAYER
 10
131.0812673313
 20
90.5472018087
 11
134.0511034476
 21
92.261827255
  0
LINE
  5
261
100
AcDbEntity
  8
1
100
AcDbLine
 62
7
  6
BYLAYER
 10
148.1931801919
 20
97.9772847313
 11
148.1931801919
 21
98.5085099596
  0
LINE
  5
262
100
AcDbEntity
  8
1
100
AcDbLine
 62
7
  6
BYLAYER
 10
148.1931801919
 20
103.8157234008
 11
148.1931801919
 21
124.1053620794
  0
LINE
  5
263
100
AcDbEntity
  8
1
100
AcDbLine
 62
7
  6
BYLAYER
 10
119.9090267033
 20
81.6474369262
 11
136.9855928433
 21
91.5065874294
  0
LINE
  5
264
100
AcDbEntity
  8
1
100
AcDbLine
 62
7
  6
BYLAYER
 10
142.4303186913
 20
94.650098317
 11
148.1931801919
 21
97.9772847313
  0
LINE
  5
265
100
AcDbEntity
  8
2
100
AcDbLine
 62
7
  6
BYLAYER
 10
140.6625590983
 20
88.9756766257
 11
142.4303186913
 21
89.9962870104
  0
LINE
  5
266
100
AcDbEntity
  8
2
100
AcDbLine
 62
7
  6
BYLAYER
 10
154.8047536012
 20
94.6914026265
 11
154.8047536012
 21
80.8108615353
  0
LINE
  5
267
100
AcDbEntity
  8
2
100
AcDbLine
 62
7
  6
BYLAYER
 10
156.7139498591
 20
81.7498675409
 11
156.7139498591
 21
91.5478965465
  0
LINE
  5
268
100
AcDbEntity
  8
2
100
AcDbLine
 62
7
  6
BYLAYER
 10
162.1586832598
 20
95.7529188502
 11
160.3909236667
 21
94.7323084655
  0
LINE
  5
269
100
AcDbEntity
  8
2
100
AcDbLine
 62
7
  6
BYLAYER
 10
159.330259079
 20
91.6704087202
 11
162.1586832598
 21
93.3034115988
  0
LINE
  5
26A
100
AcDbEntity
  8
2
100
AcDbLine
 62
7
  6
BYLAYER
 10
158.4817094521
 20
82.7704779256
 11
158.4817094521
 21
90.5273031585
  0
LINE
  5
26B
100
AcDbEntity
  8
2
100
AcDbLine
 62
7
  6
BYLAYER
 10
159.330259079
 20
78.6063700462
 11
159.330259079
 21
80.2393748804
  0
LINE
  5
26C
100
AcDbEntity
  8
2
100
AcDbLine
 62
7
  6
BYLAYER
 10
159.330259079
 20
90.037403886
 11
159.330259079
 21
91.6704087202
  0
LINE
  5
26D
100
AcDbEntity
  8
2
100
AcDbLine
 62
7
  6
BYLAYER
 10
160.3909236667
 20
74.3197480373
 11
160.3909236667
 21
76.7692552887
  0
LINE
  5
26E
100
AcDbEntity
  8
2
100
AcDbLine
 62
7
  6
BYLAYER
 10
160.3909236667
 20
92.2828012142
 11
160.3909236667
 21
94.7323084655
  0
LINE
  5
26F
100
AcDbEntity
  8
2
100
AcDbLine
 62
7
  6
BYLAYER
 10
161.0980186721
 20
79.6269804308
 11
161.0980186721
 21
81.2599852651
  0
LINE
  5
270
100
AcDbEntity
  8
2
100
AcDbLine
 62
7
  6
BYLAYER
 10
161.0980186721
 20
91.0580142707
 11
161.0980186721
 21
92.6910191049
  0
LINE
  5
271
100
AcDbEntity
  8
2
100
AcDbLine
 62
7
  6
BYLAYER
 10
162.1586832598
 20
75.340358422
 11
162.1586832598
 21
77.7898656734
  0
LINE
  5
272
100
AcDbEntity
  8
2
100
AcDbLine
 62
7
  6
BYLAYER
 10
162.1586832598
 20
93.3034115988
 11
162.1586832598
 21
95.7529188502
  0
LINE
  5
273
100
AcDbEntity
  8
2
100
AcDbLine
 62
7
  6
BYLAYER
 10
161.0980186721
 20
91.0580142707
 11
159.330259079
 21
90.037403886
  0
LINE
  5
274
100
AcDbEntity
  8
2
100
AcDbLine
 62
7
  6
BYLAYER
 10
158.4817094521
 20
82.7704779256
 11
156.7139498591
 21
81.7498675409
  0
LINE
  5
275
100
AcDbEntity
  8
2
100
AcDbLine
 62
7
  6
BYLAYER
 10
161.0980186721
 20
81.2599852651
 11
159.330259079
 21
80.2393748804
  0
LINE
  5
276
100
AcDbEntity
  8
2
100
AcDbLine
 62
7
  6
BYLAYER
 10
161.0980186721
 20
79.6269804308
 11
159.330259079
 21
78.6063700462
  0
LINE
  5
277
100
AcDbEntity
  8
2
100
AcDbLine
 62
7
  6
BYLAYER
 10
162.1586832598
 20
77.7898656734
 11
160.3909236667
 21
76.7692552887
  0
LINE
  5
278
100
AcDbEntity
  8
2
100
AcDbLine
 62
7
  6
BYLAYER
 10
162.1586832598
 20
75.340358422
 11
160.3909236667
 21
74.3197480373
  0
CIRCLE
  5
279
100
AcDbEntity
  8
2
100
AcDbCircle
 62
7
  6
BYLAYER
 10
61.7759617591
 20
97.8905840727
 40
20.0
  0
SPLINE
  5
27A
100
AcDbEntity
  8
1
100
AcDbSpline
 62
7
  6
BYLAYER
 70
0
 71
3
 72
11
 73
7
 74
0
 42
0.0000001
 43
0.0000001
 44
0.0000000001
 40
0.0
 40
0.0
 40
0.0
 40
0.0
 40
0.217774924
 40
0.4509311967
 40
0.710224778
 40
1.0
 40
1.0
 40
1.0
 40
1.0
 10
49.9836353403
 20
138.2574590956
 30
0.0
 10
50.1650510286
 20
138.3621988733
 30
0.0
 10
50.5819007699
 20
138.5135391565
 30
0.0
 10
51.2742116529
 20
138.531000153
 30
0.0
 10
52.0121646266
 20
138.3529578384
 30
0.0
 10
52.4922068352
 20
138.1244774545
 30
0.0
 10
52.7336028143
 20
137.9851105739
 30
0.0
  0
SPLINE
  5
27B
100
AcDbEntity
  8
1
100
AcDbSpline
 62
7
  6
BYLAYER
 70
0
 71
3
 72
11
 73
7
 74
0
 42
0.0000001
 43
0.0000001
 44
0.0000000001
 40
0.0
 40
0.0
 40
0.0
 40
0.0
 40
0.2897762172
 40
0.5490701576
 40
0.7822260326
 40
1.0
 40
1.0
 40
1.0
 40
1.0
 10
91.97819256
 20
110.8369854038
 30
0.0
 10
91.97819256
 20
110.558238504
 30
0.0
 10
91.9360450873
 20
110.0282536522
 30
0.0
 10
91.7212577013
 20
109.3001242557
 30
0.0
 10
91.3599743847
 20
108.7092788273
 30
0.0
 10
91.020476287
 20
108.4239398554
 30
0.0
 10
90.8390565457
 20
108.3191977377
 30
0.0
  0
SPLINE
  5
27C
100
AcDbEntity
  8
1
100
AcDbSpline
 62
7
  6
BYLAYER
 70
0
 71
3
 72
15
 73
11
 74
0
 42
0.0000001
 43
0.0000001
 44
0.0000000001
 40
0.0
 40
0.0
 40
0.0
 40
0.0
 40
0.1141465952
 40
0.2373352439
 40
0.366975646
 40
0.4999989181
 40
0.6330223406
 40
0.7626631822
 40
0.8858525235
 40
1.0
 40
1.0
 40
1.0
 40
1.0
 10
88.0890890717
 20
117.5730728479
 30
0.0
 10
88.3553100097
 20
117.4193735948
 30
0.0
 10
88.8811799836
 20
117.0507057466
 30
0.0
 10
89.6047922915
 20
116.373796954
 30
0.0
 10
90.2715568203
 20
115.5735245291
 30
0.0
 10
90.8565172866
 20
114.6801299586
 30
0.0
 10
91.3377444985
 20
113.7268432806
 30
0.0
 10
91.6974248026
 20
112.7492707204
 30
0.0
 10
91.9218462047
 20
111.7841458638
 30
0.0
 10
91.97819256
 20
111.1443914991
 30
0.0
 10
91.97819256
 20
110.8369854038
 30
0.0
  0
SPLINE
  5
27D
100
AcDbEntity
  8
1
100
AcDbSpline
 62
7
  6
BYLAYER
 70
0
 71
3
 72
14
 73
10
 74
0
 42
0.0000001
 43
0.0000001
 44
0.0000000001
 40
0.0
 40
0.0
 40
0.0
 40
0.0
 40
0.0923834002
 40
0.1921030501
 40
0.301990574
 40
0.4232506722
 40
0.555534164
 40
0.697363886
 40
1.0
 40
1.0
 40
1.0
 40
1.0
 10
38.7681109935
 20
162.5818949131
 30
0.0
 10
38.7458280096
 20
162.4358334709
 30
0.0
 10
38.6519290989
 20
162.1380540537
 30
0.0
 10
38.3869577164
 20
161.7288327084
 30
0.0
 10
38.0063057193
 20
161.3561321657
 30
0.0
 10
37.5228269682
 20
161.0289716453
 30
0.0
 10
36.9503893977
 20
160.755503083
 30
0.0
 10
36.0726810767
 20
160.4663428568
 30
0.0
 10
35.3624297266
 20
160.3611355252
 30
0.0
 10
34.8790398888
 20
160.3365520668
 30
0.0
  0
SPLINE
  5
27E
100
AcDbEntity
  8
1
100
AcDbSpline
 62
7
  6
BYLAYER
 70
0
 71
3
 72
14
 73
10
 74
0
 42
0.0000001
 43
0.0000001
 44
0.0000000001
 40
0.0
 40
0.0
 40
0.0
 40
0.0
 40
0.0923834002
 40
0.1921030501
 40
0.301990574
 40
0.4232506722
 40
0.555534164
 40
0.697363886
 40
1.0
 40
1.0
 40
1.0
 40
1.0
 10
120.0857921091
 20
115.6341719305
 30
0.0
 10
120.0635091253
 20
115.4881104883
 30
0.0
 10
119.9696102145
 20
115.1903310711
 30
0.0
 10
119.704638832
 20
114.7811097258
 30
0.0
 10
119.323986835
 20
114.4084091832
 30
0.0
 10
118.8405080838
 20
114.0812486627
 30
0.0
 10
118.2680705133
 20
113.8077801004
 30
0.0
 10
117.3903621924
 20
113.5186198742
 30
0.0
 10
116.6801108423
 20
113.4134125426
 30
0.0
 10
116.1967210044
 20
113.3888290842
 30
0.0
  0
SPLINE
  5
27F
100
AcDbEntity
  8
1
100
AcDbSpline
 62
7
  6
BYLAYER
 70
0
 71
3
 72
14
 73
10
 74
0
 42
0.0000001
 43
0.0000001
 44
0.0000000001
 40
0.0
 40
0.0
 40
0.0
 40
0.0
 40
0.0923834002
 40
0.1921030501
 40
0.301990574
 40
0.4232506722
 40
0.555534164
 40
0.697363886
 40
1.0
 40
1.0
 40
1.0
 40
1.0
 10
138.4704638367
 20
126.2485853926
 30
0.0
 10
138.4481808528
 20
126.1025239504
 30
0.0
 10
138.3542819421
 20
125.8047445332
 30
0.0
 10
138.0893105596
 20
125.3955231879
 30
0.0
 10
137.7086585625
 20
125.0228226453
 30
0.0
 10
137.2251798114
 20
124.6956621248
 30
0.0
 10
136.6527422409
 20
124.4221935625
 30
0.0
 10
135.7750339199
 20
124.1330333363
 30
0.0
 10
135.0647825698
 20
124.0278260047
 30
0.0
 10
134.581392732
 20
124.0032425463
 30
0.0
  0
SPLINE
  5
280
100
AcDbEntity
  8
1
100
AcDbSpline
 62
7
  6
BYLAYER
 70
0
 71
3
 72
14
 73
10
 74
0
 42
0.0000001
 43
0.0000001
 44
0.0000000001
 40
0.0
 40
0.0
 40
0.0
 40
0.0
 40
0.0923834002
 40
0.1921030501
 40
0.301990574
 40
0.4232506722
 40
0.555534164
 40
0.697363886
 40
1.0
 40
1.0
 40
1.0
 40
1.0
 10
57.152782721
 20
173.1963083752
 30
0.0
 10
57.1304997372
 20
173.050246933
 30
0.0
 10
57.0366008264
 20
172.7524675158
 30
0.0
 10
56.7716294439
 20
172.3432461705
 30
0.0
 10
56.3909774469
 20
171.9705456278
 30
0.0
 10
55.9074986957
 20
171.6433851074
 30
0.0
 10
55.3350611252
 20
171.3699165451
 30
0.0
 10
54.4573528043
 20
171.0807563189
 30
0.0
 10
53.7471014542
 20
170.9755489873
 30
0.0
 10
53.2637116164
 20
170.9509655289
 30
0.0
  0
SPLINE
  5
281
100
AcDbEntity
  8
1
100
AcDbSpline
 62
7
  6
BYLAYER
 70
0
 71
3
 72
9
 73
5
 74
0
 42
0.0000001
 43
0.0000001
 44
0.0000000001
 40
0.0
 40
0.0
 40
0.0
 40
0.0
 40
0.484549833
 40
1.0
 40
1.0
 40
1.0
 40
1.0
 10
90.8390565457
 20
108.3191977377
 30
0.0
 10
90.66758733
 20
108.2202005248
 30
0.0
 10
90.2774746618
 20
108.074041676
 30
0.0
 10
89.8634338402
 20
108.0529938972
 30
0.0
 10
89.6533272677
 20
108.0677156811
 30
0.0
  0
SPLINE
  5
282
100
AcDbEntity
  8
1
100
AcDbSpline
 62
7
  6
BYLAYER
 70
0
 71
3
 72
11
 73
7
 74
0
 42
0.0000001
 43
0.0000001
 44
0.0000000001
 40
0.0
 40
0.0
 40
0.0
 40
0.0
 40
0.2897762172
 40
0.5490701576
 40
0.7822260326
 40
1.0
 40
1.0
 40
1.0
 40
1.0
 10
48.844499326
 20
135.7396714295
 30
0.0
 10
48.844499326
 20
136.0184183293
 30
0.0
 10
48.8866467987
 20
136.5484031811
 30
0.0
 10
49.1014341847
 20
137.2765325777
 30
0.0
 10
49.4627175014
 20
137.867378006
 30
0.0
 10
49.8022155991
 20
138.1527169779
 30
0.0
 10
49.9836353403
 20
138.2574590956
 30
0.0
  0
SPLINE
  5
283
100
AcDbEntity
  8
1
100
AcDbSpline
 62
7
  6
BYLAYER
 70
0
 71
3
 72
15
 73
11
 74
0
 42
0.0000001
 43
0.0000001
 44
0.0000000001
 40
0.0
 40
0.0
 40
0.0
 40
0.0
 40
0.1141465952
 40
0.2373352439
 40
0.366975646
 40
0.4999989181
 40
0.6330223406
 40
0.7626631822
 40
0.8858525235
 40
1.0
 40
1.0
 40
1.0
 40
1.0
 10
52.7336028143
 20
129.0035839855
 30
0.0
 10
52.4673818763
 20
129.1572832385
 30
0.0
 10
51.9415119024
 20
129.5259510867
 30
0.0
 10
51.2178995945
 20
130.2028598793
 30
0.0
 10
50.5511350658
 20
131.0031323042
 30
0.0
 10
49.9661745994
 20
131.8965268748
 30
0.0
 10
49.4849473875
 20
132.8498135527
 30
0.0
 10
49.1252670834
 20
133.8273861129
 30
0.0
 10
48.9008456813
 20
134.7925109695
 30
0.0
 10
48.844499326
 20
135.4322653343
 30
0.0
 10
48.844499326
 20
135.7396714295
 30
0.0
  0
SPLINE
  5
284
100
AcDbEntity
  8
1
100
AcDbSpline
 62
7
  6
BYLAYER
 70
0
 71
3
 72
14
 73
10
 74
0
 42
0.0000001
 43
0.0000001
 44
0.0000000001
 40
0.0
 40
0.0
 40
0.0
 40
0.0
 40
0.0923834002
 40
0.1921030501
 40
0.301990574
 40
0.4232506722
 40
0.555534164
 40
0.697363886
 40
1.0
 40
1.0
 40
1.0
 40
1.0
 10
30.6363815379
 20
162.7859965939
 30
0.0
 10
30.6586645218
 20
162.9320580362
 30
0.0
 10
30.7525634325
 20
163.2298374534
 30
0.0
 10
31.017534815
 20
163.6390587986
 30
0.0
 10
31.3981868121
 20
164.0117593413
 30
0.0
 10
31.8816655632
 20
164.3389198618
 30
0.0
 10
32.4541031337
 20
164.6123884241
 30
0.0
 10
33.3318114546
 20
164.9015486503
 30
0.0
 10
34.0420628048
 20
165.0067559819
 30
0.0
 10
34.5254526426
 20
165.0313394402
 30
0.0
  0
SPLINE
  5
285
100
AcDbEntity
  8
1
100
AcDbSpline
 62
7
  6
BYLAYER
 70
0
 71
3
 72
14
 73
10
 74
0
 42
0.0000001
 43
0.0000001
 44
0.0000000001
 40
0.0
 40
0.0
 40
0.0
 40
0.0
 40
0.0923834002
 40
0.1921030501
 40
0.301990574
 40
0.4232506722
 40
0.555534164
 40
0.697363886
 40
1.0
 40
1.0
 40
1.0
 40
1.0
 10
111.9540626536
 20
115.8382736114
 30
0.0
 10
111.9763456374
 20
115.9843350536
 30
0.0
 10
112.0702445482
 20
116.2821144708
 30
0.0
 10
112.3352159307
 20
116.6913358161
 30
0.0
 10
112.7158679277
 20
117.0640363587
 30
0.0
 10
113.1993466788
 20
117.3911968792
 30
0.0
 10
113.7717842494
 20
117.6646654415
 30
0.0
 10
114.6494925703
 20
117.9538256677
 30
0.0
 10
115.3597439204
 20
118.0590329993
 30
0.0
 10
115.8431337582
 20
118.0836164577
 30
0.0
  0
SPLINE
  5
286
100
AcDbEntity
  8
1
100
AcDbSpline
 62
7
  6
BYLAYER
 70
0
 71
3
 72
14
 73
10
 74
0
 42
0.0000001
 43
0.0000001
 44
0.0000000001
 40
0.0
 40
0.0
 40
0.0
 40
0.0
 40
0.0923834002
 40
0.1921030501
 40
0.301990574
 40
0.4232506722
 40
0.555534164
 40
0.697363886
 40
1.0
 40
1.0
 40
1.0
 40
1.0
 10
130.3387343811
 20
126.4526870735
 30
0.0
 10
130.361017365
 20
126.5987485157
 30
0.0
 10
130.4549162757
 20
126.8965279329
 30
0.0
 10
130.7198876582
 20
127.3057492781
 30
0.0
 10
131.1005396553
 20
127.6784498208
 30
0.0
 10
131.5840184064
 20
128.0056103413
 30
0.0
 10
132.1564559769
 20
128.2790789036
 30
0.0
 10
133.0341642979
 20
128.5682391298
 30
0.0
 10
133.744415648
 20
128.6734464614
 30
0.0
 10
134.2278054858
 20
128.6980299197
 30
0.0
  0
SPLINE
  5
287
100
AcDbEntity
  8
1
100
AcDbSpline
 62
7
  6
BYLAYER
 70
0
 71
3
 72
14
 73
10
 74
0
 42
0.0000001
 43
0.0000001
 44
0.0000000001
 40
0.0
 40
0.0
 40
0.0
 40
0.0
 40
0.0923834002
 40
0.1921030501
 40
0.301990574
 40
0.4232506722
 40
0.555534164
 40
0.697363886
 40
1.0
 40
1.0
 40
1.0
 40
1.0
 10
49.0210532655
 20
173.400410056
 30
0.0
 10
49.0433362493
 20
173.5464714983
 30
0.0
 10
49.1372351601
 20
173.8442509155
 30
0.0
 10
49.4022065426
 20
174.2534722607
 30
0.0
 10
49.7828585396
 20
174.6261728034
 30
0.0
 10
50.2663372908
 20
174.9533333239
 30
0.0
 10
50.8387748613
 20
175.2268018862
 30
0.0
 10
51.7164831822
 20
175.5159621124
 30
0.0
 10
52.4267345323
 20
175.621169444
 30
0.0
 10
52.9101243701
 20
175.6457529023
 30
0.0
  0
ENDSEC
  0
SECTION
  2
OBJECTS
  0
DICTIONARY
  5
C
100
AcDbDictionary
280
0
281
1
  3
ACAD_GROUP
350
D
  3
ACAD_MLINESTYLE
350
17
  3
ACAD_LAYOUT
350
1A
  3
ACAD_PLOTSETTINGS
350
19
  3
ACAD_PLOTSTYLENAME
350
E
  0
DICTIONARY
  5
D
102
{ACAD_REACTORS
330
C
102
}
100
AcDbDictionary
280
0
281
1
  0
ACDBDICTIONARYWDFLT
  5
E
102
{ACAD_REACTORS
330
C
102
}
100
AcDbDictionary
281
1
  3
Normal
350
F
100
AcDbDictionaryWithDefault
340
F
  0
DICTIONARY
  5
17
102
{ACAD_REACTORS
330
C
102
}
100
AcDbDictionary
280
0
281
1
  3
Standard
350
18
  0
DICTIONARY
  5
19
102
{ACAD_REACTORS
330
C
102
}
100
AcDbDictionary
281
1
  0
DICTIONARY
  5
1A
102
{ACAD_REACTORS
330
C
102
}
100
AcDbDictionary
281
1
  3
Model
350
288
  3
Layout1
350
289
  0
ACDBPLACEHOLDER
  5
F
102
{ACAD_REACTORS
330
E
102
}
  0
MLINESTYLE
  5
18
102
{ACAD_REACTORS
330
17
102
}
100
AcDbMlineStyle
  2
STANDARD
 70
0
  3

 62
256
 51
90.0
 52
90.0
 71
2
 49
0.5
 62
256
  6
BYLAYER
 49
-0.5
 62
256
  6
BYLAYER
  0
LAYOUT
  5
288
102
{ACAD_REACTORS
330
1A
102
}
100
AcDbPlotSettings
  1

  2
none_device
  4

  6

 40
0.0
 41
0.0
 42
0.0
 43
0.0
 44
210.0
 45
297.0
 46
0.0
 47
0.0
 48
0.0
 49
0.0
140
0.0
141
0.0
142
1.0
143
1.0
 70
1024
 72
1
 73
0
 74
0
  7

 75
0
147
1.0
148
0.0
149
0.0
100
AcDbLayout
  1
Model
 70
0
 71
0
 10
0.0
 20
0.0
 11
210.0
 21
297.0
 12
0.0
 22
0.0
 32
0.0
 14
0.0
 24
0.0
 34
0.0
 15
0.0
 25
0.0
 35
0.0
146
0.0
 13
0.0
 23
0.0
 33
0.0
 16
1.0
 26
0.0
 36
0.0
 17
0.0
 27
1.0
 37
0.0
 76
0
330
212
345
0
346
0
  0
LAYOUT
  5
289
102
{ACAD_REACTORS
330
1A
102
}
100
AcDbPlotSettings
  1

  2
none_device
  4

  6

 40
0.0
 41
0.0
 42
0.0
 43
0.0
 44
210.0
 45
297.0
 46
0.0
 47
0.0
 48
0.0
 49
0.0
140
0.0
141
0.0
142
1.0
143
1.0
 70
0
 72
1
 73
0
 74
0
  7

 75
0
147
1.0
148
0.0
149
0.0
100
AcDbLayout
  1
Layout1
 70
0
 71
1
 10
0.0
 20
0.0
 11
210.0
 21
297.0
 12
0.0
 22
0.0
 32
0.0
 14
0.0
 24
0.0
 34
0.0
 15
0.0
 25
0.0
 35
0.0
146
0.0
 13
0.0
 23
0.0
 33
0.0
 16
1.0
 26
0.0
 36
0.0
 17
0.0
 27
1.0
 37
0.0
 76
0
330
213
345
0
346
0
  0
ENDSEC
  0
EOF
