999
DXF file: C:\Users\sesa63760\Dev\_Creo\CAD\MCADID0004773_3D-CAD\drw0001_7.dxf
999
Pro/ENGINEER 2019471 by Parametric Technology Corporation
  0
SECTION
  2
HEADER
  9
$ACADVER
  1
AC1024
  9
$DWGCODEPAGE
  3
ANSI_1252
  9
$EXTMAX
 10
117.5984848485
 20
166.3178571429
 30
0.0
  9
$EXTMIN
 10
0.0
 20
0.0
 30
0.0
  9
$LIMMIN
 10
0.0
 20
0.0
  9
$LIMMAX
 10
117.5984848485
 20
166.3178571429
  9
$VIEWCTR
 10
58.7992424242
 20
83.1589285714
  9
$VIEWSIZE
 40
166.3178571429
  9
$CLAYER
  8
0
  9
$LTSCALE
 40
10.8414603175
  9
$CELTYPE
  6
BYLAYER
  9
$DIMSCALE
 40
1.0
  9
$DIMASZ
 40
1.3999819625
  9
$DIMEXO
 40
1.0
  9
$DIMDLI
 40
7.4904634921
  9
$DIMEXE
 40
1.0
  9
$DIMCEN
 40
1.7740571429
  9
$DIMLFAC
 40
1.0
  9
$DIMBLK
  1
_FILLED
  9
$DIMALT
 70
0
  9
$DIMALTF
 40
0.0393700787
  9
$DIMTXT
 40
1.9599747475
  9
$DIMTOL
 70
1
  9
$DIMLIM
 70
0
  9
$DIMTFAC
 40
1.0
  9
$DIMTP
 40
0.01
  9
$DIMTM
 40
0.01
  9
$DIMGAP
 40
0.625
  9
$DIMDSEP
 70
46
  9
$AUNITS
 70
0
  9
$PDMODE
 70
3
  9
$PDSIZE
 40
0.3125
  9
$HANDSEED
  5
282
  9
$TILEMODE
 70
1
  9
$MEASUREMENT
 70
1
  9
$INSUNITS
 70
4
  0
ENDSEC
  0
SECTION
  2
CLASSES
  0
CLASS
  1
ACDBDICTIONARYWDFLT
  2
AcDbDictionaryWithDefault
  3
AutoCAD 2000
 90
0
 91
1
280
0
281
0
  0
CLASS
  1
ACDBPLACEHOLDER
  2
AcDbPlaceHolder
  3
AutoCAD 2000
 90
0
 91
1
280
0
281
0
  0
CLASS
  1
LAYOUT
  2
AcDbLayout
  3
AutoCAD 2000
 90
0
 91
0
280
0
281
0
  0
ENDSEC
  0
SECTION
  2
TABLES
  0
TABLE
  2
VPORT
  5
8
100
AcDbSymbolTable
 70
2
  0
VPORT
  5
1F4
100
AcDbSymbolTableRecord
100
AcDbViewportTableRecord
  2
*ACTIVE
 70
0
 10
0.0
 20
0.0
 11
1.0
 21
1.0
 12
58.7992424242
 22
83.1589285714
 13
0.0
 23
0.0
 14
1.0
 24
1.0
 15
0.0
 25
0.0
 16
0.0
 26
0.0
 36
1.0
 17
0.0
 27
0.0
 37
0.0
 40
166.3178571429
 41
0.7070707071
 42
50.0
 43
0.0
 44
0.0
 50
0.0
 51
0.0
 71
0
 72
100
 73
1
 74
1
 75
0
 76
0
 77
0
 78
0
  0
ENDTAB
  0
TABLE
  2
LTYPE
  5
5
100
AcDbSymbolTable
 70
6
  0
LTYPE
  5
14
100
AcDbSymbolTableRecord
100
AcDbLinetypeTableRecord
  2
BYBLOCK
 70
0
  3

 72
65
 73
0
 40
0.0
  0
LTYPE
  5
15
100
AcDbSymbolTableRecord
100
AcDbLinetypeTableRecord
  2
BYLAYER
 70
0
  3

 72
65
 73
0
 40
0.0
  0
LTYPE
  5
16
100
AcDbSymbolTableRecord
100
AcDbLinetypeTableRecord
  2
CONTINUOUS
 70
64
  3
Solid line
 72
65
 73
0
 40
0.0
  0
LTYPE
  5
1F5
100
AcDbSymbolTableRecord
100
AcDbLinetypeTableRecord
  2
CENTER
 70
64
  3
____ _ ____ _ ____ _ ____ _ ____ _ ____ _ ____
 72
65
 73
4
 40
0.6
 49
0.375
 74
0
 49
-0.075
 74
0
 49
0.075
 74
0
 49
-0.075
 74
0
  0
LTYPE
  5
1F6
100
AcDbSymbolTableRecord
100
AcDbLinetypeTableRecord
  2
HIDDEN
 70
64
  3
- - - - - - - - - - - - - - - - - - - -
 72
65
 73
2
 40
0.2
 49
0.1
 74
0
 49
-0.1
 74
0
  0
LTYPE
  5
1F7
100
AcDbSymbolTableRecord
100
AcDbLinetypeTableRecord
  2
PHANTOM
 70
64
  3
_____ _ _ _____ _ _ _____ _ _ _____
 72
65
 73
6
 40
0.8
 49
0.45
 74
0
 49
-0.05
 74
0
 49
0.1
 74
0
 49
-0.05
 74
0
 49
0.1
 74
0
 49
-0.05
 74
0
  0
LTYPE
  5
1F8
100
AcDbSymbolTableRecord
100
AcDbLinetypeTableRecord
  2
DOT
 70
64
  3
. . . . . . . . . . . . . . . . . . . .
 72
65
 73
2
 40
0.2
 49
0.1
 74
0
 49
-0.1
 74
0
  0
LTYPE
  5
1F9
100
AcDbSymbolTableRecord
100
AcDbLinetypeTableRecord
  2
DASHED
 70
64
  3
- - - - - - - - - - - - - - - - - - - -
 72
65
 73
2
 40
0.2
 49
0.1
 74
0
 49
-0.1
 74
0
  0
ENDTAB
  0
TABLE
  2
LAYER
  5
2
100
AcDbSymbolTable
 70
36
  0
LAYER
  5
10
100
AcDbSymbolTableRecord
100
AcDbLayerTableRecord
  2
0
 70
0
 62
7
  6
CONTINUOUS
370
-3
390
F
  0
LAYER
  5
1FA
100
AcDbSymbolTableRecord
100
AcDbLayerTableRecord
  2
DEFAULT_1
 70
0
 62
7
  6
CENTER
370
-3
390
F
  0
LAYER
  5
1FB
100
AcDbSymbolTableRecord
100
AcDbLayerTableRecord
  2
DEFAULT_2
 70
0
 62
7
  6
HIDDEN
370
-3
390
F
  0
LAYER
  5
1FC
100
AcDbSymbolTableRecord
100
AcDbLayerTableRecord
  2
DEFAULT_3
 70
0
 62
7
  6
PHANTOM
370
-3
390
F
  0
LAYER
  5
1FD
100
AcDbSymbolTableRecord
100
AcDbLayerTableRecord
  2
00_COMPONENTS
 70
0
 62
7
  6
CONTINUOUS
370
-3
390
F
  0
LAYER
  5
1FE
100
AcDbSymbolTableRecord
100
AcDbLayerTableRecord
  2
01_1_DEFAULT_DATUMS
 70
0
 62
7
  6
CONTINUOUS
370
-3
390
F
  0
LAYER
  5
1FF
100
AcDbSymbolTableRecord
100
AcDbLayerTableRecord
  2
01_PLANES
 70
0
 62
7
  6
CONTINUOUS
370
-3
390
F
  0
LAYER
  5
200
100
AcDbSymbolTableRecord
100
AcDbLayerTableRecord
  2
02_COORD_SYS
 70
0
 62
7
  6
CONTINUOUS
370
-3
390
F
  0
LAYER
  5
201
100
AcDbSymbolTableRecord
100
AcDbLayerTableRecord
  2
03_AXES
 70
0
 62
7
  6
CONTINUOUS
370
-3
390
F
  0
LAYER
  5
202
100
AcDbSymbolTableRecord
100
AcDbLayerTableRecord
  2
04_POINTS
 70
0
 62
7
  6
CONTINUOUS
370
-3
390
F
  0
LAYER
  5
203
100
AcDbSymbolTableRecord
100
AcDbLayerTableRecord
  2
05_CURVES
 70
0
 62
7
  6
CONTINUOUS
370
-3
390
F
  0
LAYER
  5
204
100
AcDbSymbolTableRecord
100
AcDbLayerTableRecord
  2
06_SURFS
 70
0
 62
7
  6
CONTINUOUS
370
-3
390
F
  0
LAYER
  5
205
100
AcDbSymbolTableRecord
100
AcDbLayerTableRecord
  2
07_COSMETICS
 70
0
 62
7
  6
CONTINUOUS
370
-3
390
F
  0
LAYER
  5
206
100
AcDbSymbolTableRecord
100
AcDbLayerTableRecord
  2
10_NOTES
 70
0
 62
7
  6
CONTINUOUS
370
-3
390
F
  0
LAYER
  5
207
100
AcDbSymbolTableRecord
100
AcDbLayerTableRecord
  2
11_NOTES_PUB
 70
0
 62
7
  6
CONTINUOUS
370
-3
390
F
  0
LAYER
  5
208
100
AcDbSymbolTableRecord
100
AcDbLayerTableRecord
  2
13_REF_GTOL
 70
0
 62
7
  6
CONTINUOUS
370
-3
390
F
  0
LAYER
  5
209
100
AcDbSymbolTableRecord
100
AcDbLayerTableRecord
  2
16_MISC
 70
0
 62
7
  6
CONTINUOUS
370
-3
390
F
  0
LAYER
  5
20A
100
AcDbSymbolTableRecord
100
AcDbLayerTableRecord
  2
17_NO_PRINT
 70
0
 62
7
  6
CONTINUOUS
370
-3
390
F
  0
LAYER
  5
20B
100
AcDbSymbolTableRecord
100
AcDbLayerTableRecord
  2
18_DATUM_CAMS_JOINTS
 70
0
 62
7
  6
CONTINUOUS
370
-3
390
F
  0
LAYER
  5
20C
100
AcDbSymbolTableRecord
100
AcDbLayerTableRecord
  2
19_DATUM_FUNCTIONAL
 70
0
 62
7
  6
CONTINUOUS
370
-3
390
F
  0
LAYER
  5
20D
100
AcDbSymbolTableRecord
100
AcDbLayerTableRecord
  2
20_DATUM_KINEMATIC_SCHEME
 70
0
 62
7
  6
CONTINUOUS
370
-3
390
F
  0
ENDTAB
  0
TABLE
  2
STYLE
  5
3
100
AcDbSymbolTable
 70
1
  0
STYLE
  5
11
100
AcDbSymbolTableRecord
100
AcDbTextStyleTableRecord
  2
STANDARD
 70
0
 40
0.0
 41
1.0
 50
0.0
 71
0
 42
0.2
  3
ARIAL.TTF
  4

  0
STYLE
  5
20E
100
AcDbSymbolTableRecord
100
AcDbTextStyleTableRecord
  2
TEXTSTYLE_1
 70
0
 40
0.0
 41
0.8
 50
0.0
 71
0
 42
0.2
  3
gdt
  4

  0
ENDTAB
  0
TABLE
  2
VIEW
  5
6
100
AcDbSymbolTable
 70
0
  0
ENDTAB
  0
TABLE
  2
UCS
  5
7
100
AcDbSymbolTable
 70
0
  0
ENDTAB
  0
TABLE
  2
APPID
  5
9
100
AcDbSymbolTable
 70
1
  0
APPID
  5
20F
100
AcDbSymbolTableRecord
100
AcDbRegAppTableRecord
  2
ACAD
 70
0
  0
ENDTAB
  0
TABLE
  2
BLOCK_RECORD
  5
1
100
AcDbSymbolTable
 70
0
  0
BLOCK_RECORD
  5
210
100
AcDbSymbolTableRecord
100
AcDbBlockTableRecord
  2
*Model_Space
  0
BLOCK_RECORD
  5
211
100
AcDbSymbolTableRecord
100
AcDbBlockTableRecord
  2
*Paper_Space
  0
BLOCK_RECORD
  5
212
100
AcDbSymbolTableRecord
100
AcDbBlockTableRecord
  2
_FILLED
  0
ENDTAB
  0
TABLE
  2
DIMSTYLE
  5
A
100
AcDbSymbolTable
 70
1
100
AcDbDimStyleTable
 71
0
  0
DIMSTYLE
105
213
100
AcDbSymbolTableRecord
100
AcDbDimStyleTableRecord
  2
STANDARD
 70
0
  3

  4

 40
1.0
 41
1.3999819625
 42
1.0
 43
0.38
 44
1.0
 45
0.0
 46
0.0
 47
0.01
 48
0.01
140
1.9599747475
141
0.09
142
0.0
143
25.4
144
1.0
145
0.0
146
1.0
147
0.625
 71
1
 72
0
 73
0
 74
0
 75
0
 76
0
 77
1
 78
8
 79
2
170
0
171
1
172
0
173
0
174
0
175
0
176
0
177
0
178
0
270
2
179
2
271
2
272
2
273
2
274
2
275
0
280
0
281
0
282
0
283
1
284
8
285
0
286
0
287
3
288
0
340
11
278
46
341
212
342
212
343
212
344
212
  0
ENDTAB
  0
ENDSEC
  0
SECTION
  2
BLOCKS
  0
BLOCK
  5
20
100
AcDbEntity
  8
0
100
AcDbBlockBegin
  2
*Model_Space
 70
0
 10
0.0
 20
0.0
 30
0.0
  3
*Model_Space
  1

  0
ENDBLK
  5
21
100
AcDbEntity
  8
0
100
AcDbBlockEnd
  0
BLOCK
  5
1C
100
AcDbEntity
  8
0
100
AcDbBlockBegin
  2
*Paper_Space
 70
0
 10
0.0
 20
0.0
 30
0.0
  3
*Paper_Space
  1

  0
ENDBLK
  5
1D
100
AcDbEntity
  8
0
100
AcDbBlockEnd
  0
BLOCK
  5
214
100
AcDbEntity
  8
0
100
AcDbBlockBegin
  2
_FILLED
 70
64
 10
0.0
 20
0.0
  3
_FILLED
  1

  0
SOLID
  5
215
100
AcDbEntity
  8
0
  6
BYBLOCK
 62
0
100
AcDbTrace
 10
0.0
 20
0.0
 11
-1.0
 21
0.25
 12
-1.0
 22
-0.25
 13
-1.0
 23
-0.25
  0
ENDBLK
  5
216
100
AcDbEntity
  8
0
  6
BYBLOCK
 62
0
100
AcDbBlockEnd
  0
ENDSEC
  0
SECTION
  2
ENTITIES
  0
LINE
  5
217
100
AcDbEntity
  8
0
100
AcDbLine
 62
7
  6
BYLAYER
 10
66.0028138528
 20
12.3160714286
 11
52.0028138528
 21
12.3160714286
  0
LINE
  5
218
100
AcDbEntity
  8
0
100
AcDbLine
 62
7
  6
BYLAYER
 10
72.7528138528
 20
21.6160714286
 11
45.2528138528
 21
21.6160714286
  0
LINE
  5
219
100
AcDbEntity
  8
0
100
AcDbLine
 62
7
  6
BYLAYER
 10
72.6028138528
 20
21.8160714286
 11
69.4028138528
 21
21.8160714286
  0
LINE
  5
21A
100
AcDbEntity
  8
0
100
AcDbLine
 62
7
  6
BYLAYER
 10
48.6028138528
 20
21.8160714286
 11
45.4028138528
 21
21.8160714286
  0
LINE
  5
21B
100
AcDbEntity
  8
0
100
AcDbLine
 62
7
  6
BYLAYER
 10
73.0028138528
 20
22.2160714286
 11
69.0028138528
 21
22.2160714286
  0
LINE
  5
21C
100
AcDbEntity
  8
0
100
AcDbLine
 62
7
  6
BYLAYER
 10
49.0028138528
 20
22.2160714286
 11
45.0028138528
 21
22.2160714286
  0
LINE
  5
21D
100
AcDbEntity
  8
0
100
AcDbLine
 62
7
  6
BYLAYER
 10
50.9203809663
 20
22.4160714286
 11
67.0852513656
 21
22.4160714286
  0
LINE
  5
21E
100
AcDbEntity
  8
0
100
AcDbLine
 62
7
  6
BYLAYER
 10
75.3028138528
 20
22.6160714286
 11
73.0028138528
 21
22.6160714286
  0
LINE
  5
21F
100
AcDbEntity
  8
0
100
AcDbLine
 62
7
  6
BYLAYER
 10
45.0028138528
 20
22.6160714286
 11
42.7028138725
 21
22.6160714286
  0
LINE
  5
220
100
AcDbEntity
  8
0
100
AcDbLine
 62
7
  6
BYLAYER
 10
50.8028138528
 20
22.6160714286
 11
67.2028136331
 21
22.6160714286
  0
LINE
  5
221
100
AcDbEntity
  8
0
100
AcDbLine
 62
7
  6
BYLAYER
 10
75.5028138528
 20
22.8160714286
 11
73.0028138528
 21
22.8160562389
  0
LINE
  5
222
100
AcDbEntity
  8
0
100
AcDbLine
 62
7
  6
BYLAYER
 10
45.0028138528
 20
22.816071649
 11
42.5028138528
 21
22.8160714286
  0
LINE
  5
223
100
AcDbEntity
  8
0
100
AcDbLine
 62
7
  6
BYLAYER
 10
50.5261113551
 20
22.8160475103
 11
67.4795163589
 21
22.816071487
  0
LINE
  5
224
100
AcDbEntity
  8
0
100
AcDbLine
 62
7
  6
BYLAYER
 10
75.302814356
 20
27.0160714541
 11
73.0028138528
 21
27.0160714495
  0
LINE
  5
225
100
AcDbEntity
  8
0
100
AcDbLine
 62
7
  6
BYLAYER
 10
42.7028082391
 20
27.0160714288
 11
45.0028138528
 21
27.0160714287
  0
LINE
  5
226
100
AcDbEntity
  8
0
100
AcDbLine
 62
7
  6
BYLAYER
 10
49.0028138528
 20
27.0160714286
 11
50.6028138528
 21
27.0160714286
  0
LINE
  5
227
100
AcDbEntity
  8
0
100
AcDbLine
 62
7
  6
BYLAYER
 10
67.4028138528
 20
27.0160714286
 11
69.0028138528
 21
27.0160714286
  0
LINE
  5
228
100
AcDbEntity
  8
0
100
AcDbLine
 62
7
  6
BYLAYER
 10
75.3028138527
 20
27.2160714286
 11
67.6028139055
 21
27.2160714286
  0
LINE
  5
229
100
AcDbEntity
  8
0
100
AcDbLine
 62
7
  6
BYLAYER
 10
50.4028172171
 20
27.2160714286
 11
42.7028109939
 21
27.2160714286
  0
LINE
  5
22A
100
AcDbEntity
  8
0
100
AcDbLine
 62
7
  6
BYLAYER
 10
75.5028138528
 20
27.4160714286
 11
67.6028139637
 21
27.4160714285
  0
LINE
  5
22B
100
AcDbEntity
  8
0
100
AcDbLine
 62
7
  6
BYLAYER
 10
42.5028138528
 20
27.4160714286
 11
50.4028143745
 21
27.4160714908
  0
LINE
  5
22C
100
AcDbEntity
  8
0
100
AcDbLine
 62
7
  6
BYLAYER
 10
45.4028138528
 20
21.8160714286
 11
45.0028138528
 21
22.2160714286
  0
LINE
  5
22D
100
AcDbEntity
  8
0
100
AcDbLine
 62
7
  6
BYLAYER
 10
42.5028138528
 20
41.6160714286
 11
75.5028138528
 21
41.6160714286
  0
LINE
  5
22E
100
AcDbEntity
  8
0
100
AcDbLine
 62
7
  6
BYLAYER
 10
42.5028138528
 20
41.8160714286
 11
75.5028138528
 21
41.8160714286
  0
LINE
  5
22F
100
AcDbEntity
  8
0
100
AcDbLine
 62
7
  6
BYLAYER
 10
58.5028138528
 20
42.2160714286
 11
59.5028138528
 21
42.2160714286
  0
LINE
  5
230
100
AcDbEntity
  8
0
100
AcDbLine
 62
7
  6
BYLAYER
 10
58.5028138528
 20
42.8160714286
 11
59.5028138528
 21
42.8160714286
  0
LINE
  5
231
100
AcDbEntity
  8
0
100
AcDbLine
 62
7
  6
BYLAYER
 10
42.5028138528
 20
47.3160714286
 11
75.5028138528
 21
47.3160714286
  0
LINE
  5
232
100
AcDbEntity
  8
0
100
AcDbLine
 62
7
  6
BYLAYER
 10
43.0028139779
 20
47.8160714286
 11
75.0028137335
 21
47.8160714286
  0
LINE
  5
233
100
AcDbEntity
  8
0
100
AcDbLine
 62
7
  6
BYLAYER
 10
65.3817039485
 20
48.2853378183
 11
52.6239237572
 21
48.2853378183
  0
LINE
  5
234
100
AcDbEntity
  8
0
100
AcDbLine
 62
7
  6
BYLAYER
 10
69.4028138528
 20
21.8160714286
 11
69.0028138528
 21
22.2160714286
  0
LINE
  5
235
100
AcDbEntity
  8
0
100
AcDbLine
 62
7
  6
BYLAYER
 10
52.8510731575
 20
50.8816673446
 11
65.1545545481
 21
50.8816673446
  0
LINE
  5
236
100
AcDbEntity
  8
0
100
AcDbLine
 62
7
  6
BYLAYER
 10
54.7438431515
 20
52.6160714286
 11
63.2617845541
 21
52.6160714286
  0
LINE
  5
237
100
AcDbEntity
  8
0
100
AcDbLine
 62
7
  6
BYLAYER
 10
62.406366959
 20
52.7625183224
 11
55.5992607466
 21
52.7625183224
  0
LINE
  5
238
100
AcDbEntity
  8
0
100
AcDbLine
 62
7
  6
BYLAYER
 10
62.1198627084
 20
53.8160714286
 11
55.9198627084
 21
53.8160714286
  0
LINE
  5
239
100
AcDbEntity
  8
0
100
AcDbLine
 62
7
  6
BYLAYER
 10
61.3528138528
 20
53.8160714286
 11
62.406366959
 21
52.7625183224
  0
LINE
  5
23A
100
AcDbEntity
  8
0
100
AcDbLine
 62
7
  6
BYLAYER
 10
42.5028138528
 20
47.3160714286
 11
42.5028138528
 21
41.8160714286
  0
LINE
  5
23B
100
AcDbEntity
  8
0
100
AcDbLine
 62
7
  6
BYLAYER
 10
42.5028138528
 20
22.8160714482
 11
42.5028138528
 21
41.6160714286
  0
LINE
  5
23C
100
AcDbEntity
  8
0
100
AcDbLine
 62
7
  6
BYLAYER
 10
42.7028138528
 20
22.6160714286
 11
42.7028078028
 21
27.2160714286
  0
LINE
  5
23D
100
AcDbEntity
  8
0
100
AcDbLine
 62
7
  6
BYLAYER
 10
44.0028138528
 20
27.2160714286
 11
44.0028138528
 21
47.8160714286
  0
LINE
  5
23E
100
AcDbEntity
  8
0
100
AcDbLine
 62
7
  6
BYLAYER
 10
45.0028138528
 20
27.2160714286
 11
45.0028138528
 21
22.2160714286
  0
LINE
  5
23F
100
AcDbEntity
  8
0
100
AcDbLine
 62
7
  6
BYLAYER
 10
45.2528138528
 20
21.6160714286
 11
45.2528138528
 21
21.9660714286
  0
LINE
  5
240
100
AcDbEntity
  8
0
100
AcDbLine
 62
7
  6
BYLAYER
 10
49.0028138528
 20
27.2160714286
 11
49.0028138528
 21
22.2160714286
  0
LINE
  5
241
100
AcDbEntity
  8
0
100
AcDbLine
 62
7
  6
BYLAYER
 10
50.4028142188
 20
27.4160714597
 11
50.4028142188
 21
27.2160714286
  0
LINE
  5
242
100
AcDbEntity
  8
0
100
AcDbLine
 62
7
  6
BYLAYER
 10
50.5261113551
 20
22.8160714476
 11
50.5261113551
 21
27.0160714286
  0
LINE
  5
243
100
AcDbEntity
  8
0
100
AcDbLine
 62
7
  6
BYLAYER
 10
50.6028138528
 20
22.8160632852
 11
50.6028138528
 21
27.0160714529
  0
LINE
  5
244
100
AcDbEntity
  8
0
100
AcDbLine
 62
7
  6
BYLAYER
 10
50.8028138528
 20
22.6160714286
 11
50.8028138528
 21
27.0152913982
  0
LINE
  5
245
100
AcDbEntity
  8
0
100
AcDbLine
 62
7
  6
BYLAYER
 10
52.0028138528
 20
21.6160714286
 11
52.0028138528
 21
12.3160714286
  0
LINE
  5
246
100
AcDbEntity
  8
0
100
AcDbLine
 62
7
  6
BYLAYER
 10
55.9198627084
 20
154.8160714286
 11
55.9198627084
 21
53.8160714286
  0
LINE
  5
247
100
AcDbEntity
  8
0
100
AcDbLine
 62
7
  6
BYLAYER
 10
58.5028138528
 20
41.8160714286
 11
58.5028138528
 21
42.8160714286
  0
LINE
  5
248
100
AcDbEntity
  8
0
100
AcDbLine
 62
7
  6
BYLAYER
 10
59.5028138528
 20
42.8160714286
 11
59.5028138528
 21
41.8160714286
  0
LINE
  5
249
100
AcDbEntity
  8
0
100
AcDbLine
 62
7
  6
BYLAYER
 10
52.8510731575
 20
50.8816673446
 11
52.6239237572
 21
48.2853378183
  0
LINE
  5
24A
100
AcDbEntity
  8
0
100
AcDbLine
 62
7
  6
BYLAYER
 10
65.1545545481
 20
50.8816673446
 11
65.3817039485
 21
48.2853378183
  0
LINE
  5
24B
100
AcDbEntity
  8
0
100
AcDbLine
 62
7
  6
BYLAYER
 10
62.1198627084
 20
154.8160714286
 11
62.1198627084
 21
53.8160714286
  0
LINE
  5
24C
100
AcDbEntity
  8
0
100
AcDbLine
 62
7
  6
BYLAYER
 10
66.0028138528
 20
21.6160714286
 11
66.0028138528
 21
12.3160714286
  0
LINE
  5
24D
100
AcDbEntity
  8
0
100
AcDbLine
 62
7
  6
BYLAYER
 10
67.2028138528
 20
22.6160714286
 11
67.2028140786
 21
27.0160699921
  0
LINE
  5
24E
100
AcDbEntity
  8
0
100
AcDbLine
 62
7
  6
BYLAYER
 10
67.4028138528
 20
27.0160714288
 11
67.4028138528
 21
22.8160714286
  0
LINE
  5
24F
100
AcDbEntity
  8
0
100
AcDbLine
 62
7
  6
BYLAYER
 10
67.4795163589
 20
27.0160714286
 11
67.4795163589
 21
22.8160715371
  0
LINE
  5
250
100
AcDbEntity
  8
0
100
AcDbLine
 62
7
  6
BYLAYER
 10
67.6028138398
 20
27.2160714286
 11
67.6028138398
 21
27.4160714286
  0
LINE
  5
251
100
AcDbEntity
  8
0
100
AcDbLine
 62
7
  6
BYLAYER
 10
69.0028138528
 20
27.2160714286
 11
69.0028138528
 21
22.2160714286
  0
LINE
  5
252
100
AcDbEntity
  8
0
100
AcDbLine
 62
7
  6
BYLAYER
 10
72.7528138528
 20
21.6160714286
 11
72.7528138528
 21
21.9660714286
  0
LINE
  5
253
100
AcDbEntity
  8
0
100
AcDbLine
 62
7
  6
BYLAYER
 10
73.0028138528
 20
27.2160714286
 11
73.0028138528
 21
22.2160714286
  0
LINE
  5
254
100
AcDbEntity
  8
0
100
AcDbLine
 62
7
  6
BYLAYER
 10
74.0028138528
 20
47.8160714286
 11
74.0028138521
 21
27.2160714286
  0
LINE
  5
255
100
AcDbEntity
  8
0
100
AcDbLine
 62
7
  6
BYLAYER
 10
75.3028138528
 20
22.6160714286
 11
75.3028137348
 21
27.2160714286
  0
LINE
  5
256
100
AcDbEntity
  8
0
100
AcDbLine
 62
7
  6
BYLAYER
 10
75.5028138528
 20
47.3160714286
 11
75.5028138528
 21
41.8160714286
  0
LINE
  5
257
100
AcDbEntity
  8
0
100
AcDbLine
 62
7
  6
BYLAYER
 10
75.5028138528
 20
22.8160714286
 11
75.5028138528
 21
41.6160715131
  0
LINE
  5
258
100
AcDbEntity
  8
0
100
AcDbLine
 62
7
  6
BYLAYER
 10
56.6528138528
 20
53.8160714286
 11
55.5992607466
 21
52.7625183224
  0
LINE
  5
259
100
AcDbEntity
  8
0
100
AcDbLine
 62
7
  6
BYLAYER
 10
48.6028138528
 20
21.8160714286
 11
49.0028138528
 21
22.2160714286
  0
LINE
  5
25A
100
AcDbEntity
  8
0
100
AcDbLine
 62
7
  6
BYLAYER
 10
72.6028138528
 20
21.8160714286
 11
73.0028138528
 21
22.2160714286
  0
LINE
  5
25B
100
AcDbEntity
  8
0
100
AcDbLine
 62
7
  6
BYLAYER
 10
55.9198627084
 20
154.8160714286
 11
62.1198627084
 21
154.8160714286
  0
ARC
  5
25C
100
AcDbEntity
  8
0
100
AcDbCircle
 62
7
  6
BYLAYER
 10
54.7438430834
 20
50.7160714286
 40
1.9
100
AcDbArc
 50
89.9999991732
 51
174.9999998541
  0
ARC
  5
25D
100
AcDbEntity
  8
0
100
AcDbCircle
 62
7
  6
BYLAYER
 10
63.2617846222
 20
50.7160714286
 40
1.9
100
AcDbArc
 50
5.0000001459
 51
90.0000008268
  0
ARC
  5
25E
100
AcDbEntity
  8
0
100
AcDbCircle
 62
7
  6
BYLAYER
 10
66.8759959959
 20
48.4160714286
 40
1.5
100
AcDbArc
 50
184.9999998513
 51
206.8760219249
  0
ARC
  5
25F
100
AcDbEntity
  8
0
100
AcDbCircle
 62
7
  6
BYLAYER
 10
51.1296317097
 20
48.4160714286
 40
1.5
100
AcDbArc
 50
333.1239780751
 51
355.0000001487
  0
ARC
  5
260
100
AcDbEntity
  8
0
100
AcDbCircle
 62
7
  6
BYLAYER
 10
43.0028138528
 20
47.3160714286
 40
0.5
100
AcDbArc
 50
89.9999824137
 51
180.0
  0
ARC
  5
261
100
AcDbEntity
  8
0
100
AcDbCircle
 62
7
  6
BYLAYER
 10
75.0028138528
 20
47.3160714286
 40
0.5
100
AcDbArc
 50
0.0
 51
90.0
  0
ARC
  5
262
100
AcDbEntity
  8
0
100
AcDbCircle
 62
7
  6
BYLAYER
 10
62.759920634
 20
53.1160714286
 40
0.5
100
AcDbArc
 50
224.9999539104
 51
269.9999268757
  0
ARC
  5
263
100
AcDbEntity
  8
0
100
AcDbCircle
 62
7
  6
BYLAYER
 10
55.2457070716
 20
53.1160714286
 40
0.5
100
AcDbArc
 50
270.0000731243
 51
315.0000460896
  0
ARC
  5
264
100
AcDbEntity
  8
0
100
AcDbCircle
 62
7
  6
BYLAYER
 10
50.9229317558
 20
22.8112771072
 40
0.3956562296
100
AcDbArc
 50
205.3578099614
 51
212.9276931454
  0
ARC
  5
265
100
AcDbEntity
  8
0
100
AcDbCircle
 62
7
  6
BYLAYER
 10
50.8906879909
 20
22.812925568
 40
0.3645902082
100
AcDbArc
 50
179.5056151868
 51
182.8457136044
  0
ARC
  5
266
100
AcDbEntity
  8
0
100
AcDbCircle
 62
7
  6
BYLAYER
 10
67.2048377396
 20
22.805001297
 40
0.274901608
100
AcDbArc
 50
358.0004446872
 51
2.3079151801
  0
ARC
  5
267
100
AcDbEntity
  8
0
100
AcDbCircle
 62
7
  6
BYLAYER
 10
42.7028138528
 20
22.8160714286
 40
0.2
100
AcDbArc
 50
179.9999971868
 51
270.0000028133
  0
ARC
  5
268
100
AcDbEntity
  8
0
100
AcDbCircle
 62
7
  6
BYLAYER
 10
42.7028138528
 20
27.4160714286
 40
0.2
100
AcDbArc
 50
180.0000000051
 51
269.9992865553
  0
ARC
  5
269
100
AcDbEntity
  8
0
100
AcDbCircle
 62
7
  6
BYLAYER
 10
67.2028138528
 20
22.8160714286
 40
0.2
100
AcDbArc
 50
270.0
 51
0.0000022486
  0
ARC
  5
26A
100
AcDbEntity
  8
0
100
AcDbCircle
 62
7
  6
BYLAYER
 10
42.7028138528
 20
41.6160714286
 40
0.2
100
AcDbArc
 50
89.9998852278
 51
179.9999999999
  0
ARC
  5
26B
100
AcDbEntity
  8
0
100
AcDbCircle
 62
7
  6
BYLAYER
 10
75.3028138528
 20
41.6160714286
 40
0.2
100
AcDbArc
 50
0.0000121105
 51
90.0
  0
ARC
  5
26C
100
AcDbEntity
  8
0
100
AcDbCircle
 62
7
  6
BYLAYER
 10
50.8028138528
 20
22.8160714286
 40
0.2
100
AcDbArc
 50
180.0046659911
 51
270.000115831
  0
ARC
  5
26D
100
AcDbEntity
  8
0
100
AcDbCircle
 62
7
  6
BYLAYER
 10
75.3028138528
 20
27.4160714286
 40
0.2
100
AcDbArc
 50
270.0
 51
0.0000089173
  0
ARC
  5
26E
100
AcDbEntity
  8
0
100
AcDbCircle
 62
7
  6
BYLAYER
 10
75.3028138528
 20
22.8160714286
 40
0.2
100
AcDbArc
 50
270.0
 51
360.0
  0
ARC
  5
26F
100
AcDbEntity
  8
0
100
AcDbCircle
 62
7
  6
BYLAYER
 10
50.4028132579
 20
27.0160706244
 40
0.1999976281
100
AcDbArc
 50
0.0002355855
 51
89.998967519
  0
ARC
  5
270
100
AcDbEntity
  8
0
100
AcDbCircle
 62
7
  6
BYLAYER
 10
67.6028147886
 20
27.0160716339
 40
0.199997233
100
AcDbArc
 50
90.0002680895
 51
180.000058801
  0
SPLINE
  5
271
100
AcDbEntity
  8
0
100
AcDbSpline
 62
7
  6
BYLAYER
 70
0
 71
3
 72
11
 73
7
 74
0
 42
0.0000001
 43
0.0000001
 44
0.0000000001
 40
0.0
 40
0.0
 40
0.0
 40
0.0
 40
0.250043313
 40
0.5000243716
 40
0.7499475347
 40
1.0
 40
1.0
 40
1.0
 40
1.0
 10
50.4028143745
 20
27.4160714908
 30
0.0
 10
50.454933475
 20
27.416071269
 30
0.0
 10
50.5605427702
 20
27.3960928659
 30
0.0
 10
50.6931892578
 20
27.305922049
 30
0.0
 10
50.7823003699
 20
27.1728695126
 30
0.0
 10
50.8029153377
 20
27.0674123076
 30
0.0
 10
50.8028138528
 20
27.0152913982
 30
0.0
  0
SPLINE
  5
272
100
AcDbEntity
  8
0
100
AcDbSpline
 62
7
  6
BYLAYER
 70
0
 71
3
 72
17
 73
13
 74
0
 42
0.0000001
 43
0.0000001
 44
0.0000000001
 40
0.0
 40
0.0
 40
0.0
 40
0.0
 40
0.1943287367
 40
0.3819775016
 40
0.5545644275
 40
0.7056538753
 40
0.8297938272
 40
0.9222898333
 40
0.9552576315
 40
0.9790467177
 40
0.9936968998
 40
1.0
 40
1.0
 40
1.0
 40
1.0
 10
42.7028093764
 20
27.0160714291
 30
0.0
 10
42.6898272549
 20
27.0161129123
 30
0.0
 10
42.6643101526
 20
27.0162297312
 30
0.0
 10
42.6272586664
 20
27.0161757217
 30
0.0
 10
42.5931123538
 20
27.0154877707
 30
0.0
 10
42.5631765755
 20
27.0151635213
 30
0.0
 10
42.5386600684
 20
27.0163328677
 30
0.0
 10
42.5219619931
 20
27.0175706648
 30
0.0
 10
42.512083194
 20
27.0178203481
 30
0.0
 10
42.5071542342
 20
27.0175270855
 30
0.0
 10
42.5044851459
 20
27.0172321547
 30
0.0
 10
42.5028138528
 20
27.016491075
 30
0.0
 10
42.5028138528
 20
27.0160699945
 30
0.0
  0
SPLINE
  5
273
100
AcDbEntity
  8
0
100
AcDbSpline
 62
7
  6
BYLAYER
 70
0
 71
3
 72
10
 73
6
 74
0
 42
0.0000001
 43
0.0000001
 44
0.0000000001
 40
0.0
 40
0.0
 40
0.0
 40
0.0
 40
0.4914038475
 40
0.7417808852
 40
1.0
 40
1.0
 40
1.0
 40
1.0
 10
50.9203809663
 20
22.4160714286
 30
0.0
 10
50.8765191482
 20
22.4188012605
 30
0.0
 10
50.8095887218
 20
22.4275686477
 30
0.0
 10
50.7274434658
 20
22.4643944458
 30
0.0
 10
50.6899347957
 20
22.490600003
 30
0.0
 10
50.6721361967
 20
22.5053134562
 30
0.0
  0
SPLINE
  5
274
100
AcDbEntity
  8
0
100
AcDbSpline
 62
7
  6
BYLAYER
 70
0
 71
3
 72
9
 73
5
 74
0
 42
0.0000001
 43
0.0000001
 44
0.0000000001
 40
0.0
 40
0.0
 40
0.0
 40
0.0
 40
0.244673474
 40
1.0
 40
1.0
 40
1.0
 40
1.0
 10
50.6721361967
 20
22.5053134562
 30
0.0
 10
50.6644542276
 20
22.51166386
 30
0.0
 10
50.6339843623
 20
22.5387125635
 30
0.0
 10
50.6075675413
 20
22.5703849884
 30
0.0
 10
50.5908348387
 20
22.5962062126
 30
0.0
  0
SPLINE
  5
275
100
AcDbEntity
  8
0
100
AcDbSpline
 62
7
  6
BYLAYER
 70
0
 71
3
 72
9
 73
5
 74
0
 42
0.0000001
 43
0.0000001
 44
0.0000000001
 40
0.0
 40
0.0
 40
0.0
 40
0.0
 40
0.2449016136
 40
1.0
 40
1.0
 40
1.0
 40
1.0
 10
50.5653966492
 20
22.6418294764
 30
0.0
 10
50.5598502661
 20
22.6535107473
 30
0.0
 10
50.5395011158
 20
22.7022544305
 30
0.0
 10
50.5285176086
 20
22.7550033584
 30
0.0
 10
50.5265473791
 20
22.7948248838
 30
0.0
  0
SPLINE
  5
276
100
AcDbEntity
  8
0
100
AcDbSpline
 62
7
  6
BYLAYER
 70
0
 71
3
 72
11
 73
7
 74
0
 42
0.0000001
 43
0.0000001
 44
0.0000000001
 40
0.0
 40
0.0
 40
0.0
 40
0.0
 40
0.2642705358
 40
0.5204972525
 40
0.765168873
 40
1.0
 40
1.0
 40
1.0
 40
1.0
 10
67.4795719595
 20
22.7954095015
 30
0.0
 10
67.4785816567
 20
22.7665175328
 30
0.0
 10
67.4682106442
 20
22.7098928809
 30
0.0
 10
67.4380875176
 20
22.631348191
 30
0.0
 10
67.39426022
 20
22.5631347851
 30
0.0
 10
67.3572875834
 20
22.5254022718
 30
0.0
 10
67.3377110999
 20
22.5087691376
 30
0.0
  0
SPLINE
  5
277
100
AcDbEntity
  8
0
100
AcDbSpline
 62
7
  6
BYLAYER
 70
0
 71
3
 72
9
 73
5
 74
0
 42
0.0000001
 43
0.0000001
 44
0.0000000001
 40
0.0
 40
0.0
 40
0.0
 40
0.0
 40
0.508043373
 40
1.0
 40
1.0
 40
1.0
 40
1.0
 10
67.3377110999
 20
22.5087691376
 30
0.0
 10
67.3024622449
 20
22.4788199928
 30
0.0
 10
67.2217513532
 20
22.4309651036
 30
0.0
 10
67.1299839262
 20
22.418327438
 30
0.0
 10
67.0852513656
 20
22.4160714286
 30
0.0
  0
SPLINE
  5
278
100
AcDbEntity
  8
0
100
AcDbSpline
 62
7
  6
BYLAYER
 70
0
 71
3
 72
21
 73
17
 74
0
 42
0.0000001
 43
0.0000001
 44
0.0000000001
 40
0.0
 40
0.0
 40
0.0
 40
0.0
 40
0.1946847328
 40
0.3826789785
 40
0.555632715
 40
0.707099045
 40
0.7729426182
 40
0.831380116
 40
0.8818700949
 40
0.9238711196
 40
0.9569017419
 40
0.9807204369
 40
0.9891186305
 40
0.9951458969
 40
0.9987798468
 40
1.0
 40
1.0
 40
1.0
 40
1.0
 10
50.8028138528
 20
27.0152913795
 30
0.0
 10
50.7898347056
 20
27.0153182992
 30
0.0
 10
50.7643224605
 20
27.0153734494
 30
0.0
 10
50.7272798119
 20
27.0154646333
 30
0.0
 10
50.6931185885
 20
27.0155657831
 30
0.0
 10
50.6671005455
 20
27.0156571463
 30
0.0
 10
50.6487176794
 20
27.0157329832
 30
0.0
 10
50.637065215
 20
27.0157853246
 30
0.0
 10
50.6270063367
 20
27.0158396481
 30
0.0
 10
50.6186296481
 20
27.0158818812
 30
0.0
 10
50.6120621087
 20
27.0159475646
 30
0.0
 10
50.6076653751
 20
27.0159469762
 30
0.0
 10
50.6051796371
 20
27.0160328129
 30
0.0
 10
50.6038701733
 20
27.0159640674
 30
0.0
 10
50.6033326242
 20
27.0161399117
 30
0.0
 10
50.6028138528
 20
27.0159901085
 30
0.0
 10
50.6028138528
 20
27.0160714533
 30
0.0
  0
SPLINE
  5
279
100
AcDbEntity
  8
0
100
AcDbSpline
 62
7
  6
BYLAYER
 70
0
 71
3
 72
13
 73
9
 74
0
 42
0.0000001
 43
0.0000001
 44
0.0000000001
 40
0.0
 40
0.0
 40
0.0
 40
0.0
 40
0.0857034508
 40
0.1819205813
 40
0.2930518971
 40
0.4196583422
 40
0.70705816
 40
1.0
 40
1.0
 40
1.0
 40
1.0
 10
50.8028047827
 20
22.6160627177
 30
0.0
 10
50.8100293533
 20
22.6160637352
 30
0.0
 10
50.8254486181
 20
22.6135587254
 30
0.0
 10
50.8478185019
 20
22.602301702
 30
0.0
 10
50.8688192281
 20
22.5831257135
 30
0.0
 10
50.8946137523
 20
22.5468274394
 30
0.0
 10
50.9151191614
 20
22.489781153
 30
0.0
 10
50.9203762254
 20
22.4407656388
 30
0.0
 10
50.9203774879
 20
22.4160714286
 30
0.0
  0
SPLINE
  5
27A
100
AcDbEntity
  8
0
100
AcDbSpline
 62
7
  6
BYLAYER
 70
0
 71
3
 72
13
 73
9
 74
0
 42
0.0000001
 43
0.0000001
 44
0.0000000001
 40
0.0
 40
0.0
 40
0.0
 40
0.0
 40
0.0857036307
 40
0.1819208314
 40
0.2930521451
 40
0.4196584763
 40
0.7070581199
 40
1.0
 40
1.0
 40
1.0
 40
1.0
 10
67.2028237781
 20
22.6160625387
 30
0.0
 10
67.1955991937
 20
22.6160635577
 30
0.0
 10
67.1801799061
 20
22.6135585855
 30
0.0
 10
67.1578099912
 20
22.6023015809
 30
0.0
 10
67.1368092405
 20
22.5831256343
 30
0.0
 10
67.1110147051
 20
22.5468274047
 30
0.0
 10
67.0905093166
 20
22.4897811385
 30
0.0
 10
67.0852523063
 20
22.4407656376
 30
0.0
 10
67.0852510711
 20
22.4160714286
 30
0.0
  0
SPLINE
  5
27B
100
AcDbEntity
  8
0
100
AcDbSpline
 62
7
  6
BYLAYER
 70
0
 71
3
 72
13
 73
9
 74
0
 42
0.0000001
 43
0.0000001
 44
0.0000000001
 40
0.0
 40
0.0
 40
0.0
 40
0.0
 40
0.300336389
 40
0.5736728769
 40
0.694779917
 40
0.8047533795
 40
0.9053195792
 40
1.0
 40
1.0
 40
1.0
 40
1.0
 10
67.4795163618
 20
27.0160714286
 30
0.0
 10
67.4795163618
 20
27.0417741452
 30
0.0
 10
67.48524668
 20
27.0910390918
 30
0.0
 10
67.5071280939
 20
27.1473858571
 30
0.0
 10
67.5328860249
 20
27.1823303112
 30
0.0
 10
67.5542964957
 20
27.2013635332
 30
0.0
 10
67.5779105281
 20
27.213271648
 30
0.0
 10
67.5947161797
 20
27.216080242
 30
0.0
 10
67.6028189027
 20
27.2160714285
 30
0.0
  0
SPLINE
  5
27C
100
AcDbEntity
  8
0
100
AcDbSpline
 62
7
  6
BYLAYER
 70
0
 71
3
 72
21
 73
17
 74
0
 42
0.0000001
 43
0.0000001
 44
0.0000000001
 40
0.0
 40
0.0
 40
0.0
 40
0.0
 40
0.0012305667
 40
0.0048730732
 40
0.0109084676
 40
0.019313547
 40
0.0431389916
 40
0.0761644868
 40
0.1181544511
 40
0.1686273191
 40
0.227038989
 40
0.2928700096
 40
0.444437462
 40
0.6174493141
 40
0.8053674316
 40
1.0
 40
1.0
 40
1.0
 40
1.0
 10
67.4028138528
 20
27.0160714291
 30
0.0
 10
67.4028132545
 20
27.0161534957
 30
0.0
 10
67.402297037
 20
27.0160333161
 30
0.0
 10
67.4017539037
 20
27.016202897
 30
0.0
 10
67.4004449057
 20
27.0161529394
 30
0.0
 10
67.3979552251
 20
27.0162285841
 30
0.0
 10
67.393557082
 20
27.0161737265
 30
0.0
 10
67.3869881427
 20
27.0160585128
 30
0.0
 10
67.3786154406
 20
27.0157681861
 30
0.0
 10
67.3685604165
 20
27.01547851
 30
0.0
 10
67.3569078918
 20
27.0153092826
 30
0.0
 10
67.3385121756
 20
27.0154664893
 30
0.0
 10
67.3124996852
 20
27.0166715887
 30
0.0
 10
67.2783390525
 20
27.0179251494
 30
0.0
 10
67.2412771406
 20
27.0176300316
 30
0.0
 10
67.2157801239
 20
27.0166782813
 30
0.0
 10
67.2028139657
 20
27.0160699897
 30
0.0
  0
SPLINE
  5
27D
100
AcDbEntity
  8
0
100
AcDbSpline
 62
7
  6
BYLAYER
 70
0
 71
3
 72
11
 73
7
 74
0
 42
0.0000001
 43
0.0000001
 44
0.0000000001
 40
0.0
 40
0.0
 40
0.0
 40
0.0
 40
0.2500434838
 40
0.5000252791
 40
0.7499478667
 40
1.0
 40
1.0
 40
1.0
 40
1.0
 10
67.2028140786
 20
27.0160699921
 30
0.0
 10
67.2028138514
 20
27.0681252948
 30
0.0
 10
67.2227485908
 20
27.1736008333
 30
0.0
 10
67.3126996912
 20
27.3061444242
 30
0.0
 10
67.4454710637
 20
27.3953082617
 30
0.0
 10
67.5507568602
 20
27.4160712441
 30
0.0
 10
67.6028139637
 20
27.4160714285
 30
0.0
  0
SPLINE
  5
27E
100
AcDbEntity
  8
0
100
AcDbSpline
 62
7
  6
BYLAYER
 70
0
 71
3
 72
13
 73
9
 74
0
 42
0.0000001
 43
0.0000001
 44
0.0000000001
 40
0.0
 40
0.0
 40
0.0
 40
0.0
 40
0.0946758532
 40
0.1952353017
 40
0.3052081198
 40
0.4263172572
 40
0.6996587448
 40
1.0
 40
1.0
 40
1.0
 40
1.0
 10
50.4028138057
 20
27.2160714286
 30
0.0
 10
50.4109159853
 20
27.2160801401
 30
0.0
 10
50.4277204198
 20
27.2132716041
 30
0.0
 10
50.4513322238
 20
27.2013624352
 30
0.0
 10
50.4727414932
 20
27.1823296037
 30
0.0
 10
50.4984999063
 20
27.1473858092
 30
0.0
 10
50.5203808941
 20
27.0910388689
 30
0.0
 10
50.5261113438
 20
27.0417740848
 30
0.0
 10
50.5261113439
 20
27.0160714359
 30
0.0
  0
SPLINE
  5
27F
100
AcDbEntity
  8
0
100
AcDbSpline
 62
7
  6
BYLAYER
 70
0
 71
3
 72
21
 73
17
 74
0
 42
0.0000001
 43
0.0000001
 44
0.0000000001
 40
0.0
 40
0.0
 40
0.0
 40
0.0
 40
0.0012201621
 40
0.004854113
 40
0.010881378
 40
0.0192795686
 40
0.0430982545
 40
0.0761288656
 40
0.1181298764
 40
0.1686198384
 40
0.2270573184
 40
0.2929008751
 40
0.4443671795
 40
0.617320916
 40
0.8053151979
 40
1.0
 40
1.0
 40
1.0
 40
1.0
 10
75.5028138528
 20
27.0152913793
 30
0.0
 10
75.5028138528
 20
27.0153727246
 30
0.0
 10
75.5022950854
 20
27.0152229746
 30
0.0
 10
75.5017575329
 20
27.0153988007
 30
0.0
 10
75.5004480736
 20
27.0153300945
 30
0.0
 10
75.4979623385
 20
27.0154159459
 30
0.0
 10
75.4935656132
 20
27.0154153939
 30
0.0
 10
75.4869980839
 20
27.0154810992
 30
0.0
 10
75.4786214088
 20
27.0155233547
 30
0.0
 10
75.4685625463
 20
27.015577693
 30
0.0
 10
75.4569100997
 20
27.015630044
 30
0.0
 10
75.4385272604
 20
27.0157058851
 30
0.0
 10
75.4125092524
 20
27.0157972353
 30
0.0
 10
75.3783480706
 20
27.0158983469
 30
0.0
 10
75.3413054609
 20
27.0159894707
 30
0.0
 10
75.3157932402
 20
27.0160445665
 30
0.0
 10
75.3028141044
 20
27.0160714547
 30
0.0
  0
ENDSEC
  0
SECTION
  2
OBJECTS
  0
DICTIONARY
  5
C
100
AcDbDictionary
280
0
281
1
  3
ACAD_GROUP
350
D
  3
ACAD_MLINESTYLE
350
17
  3
ACAD_LAYOUT
350
1A
  3
ACAD_PLOTSETTINGS
350
19
  3
ACAD_PLOTSTYLENAME
350
E
  0
DICTIONARY
  5
D
102
{ACAD_REACTORS
330
C
102
}
100
AcDbDictionary
280
0
281
1
  0
ACDBDICTIONARYWDFLT
  5
E
102
{ACAD_REACTORS
330
C
102
}
100
AcDbDictionary
281
1
  3
Normal
350
F
100
AcDbDictionaryWithDefault
340
F
  0
DICTIONARY
  5
17
102
{ACAD_REACTORS
330
C
102
}
100
AcDbDictionary
280
0
281
1
  3
Standard
350
18
  0
DICTIONARY
  5
19
102
{ACAD_REACTORS
330
C
102
}
100
AcDbDictionary
281
1
  0
DICTIONARY
  5
1A
102
{ACAD_REACTORS
330
C
102
}
100
AcDbDictionary
281
1
  3
Model
350
280
  3
Layout1
350
281
  0
ACDBPLACEHOLDER
  5
F
102
{ACAD_REACTORS
330
E
102
}
  0
MLINESTYLE
  5
18
102
{ACAD_REACTORS
330
17
102
}
100
AcDbMlineStyle
  2
STANDARD
 70
0
  3

 62
256
 51
90.0
 52
90.0
 71
2
 49
0.5
 62
256
  6
BYLAYER
 49
-0.5
 62
256
  6
BYLAYER
  0
LAYOUT
  5
280
102
{ACAD_REACTORS
330
1A
102
}
100
AcDbPlotSettings
  1

  2
none_device
  4

  6

 40
0.0
 41
0.0
 42
0.0
 43
0.0
 44
210.0
 45
297.0
 46
0.0
 47
0.0
 48
0.0
 49
0.0
140
0.0
141
0.0
142
1.0
143
1.0
 70
1024
 72
1
 73
0
 74
0
  7

 75
0
147
1.0
148
0.0
149
0.0
100
AcDbLayout
  1
Model
 70
0
 71
0
 10
0.0
 20
0.0
 11
210.0
 21
297.0
 12
0.0
 22
0.0
 32
0.0
 14
0.0
 24
0.0
 34
0.0
 15
0.0
 25
0.0
 35
0.0
146
0.0
 13
0.0
 23
0.0
 33
0.0
 16
1.0
 26
0.0
 36
0.0
 17
0.0
 27
1.0
 37
0.0
 76
0
330
210
345
0
346
0
  0
LAYOUT
  5
281
102
{ACAD_REACTORS
330
1A
102
}
100
AcDbPlotSettings
  1

  2
none_device
  4

  6

 40
0.0
 41
0.0
 42
0.0
 43
0.0
 44
210.0
 45
297.0
 46
0.0
 47
0.0
 48
0.0
 49
0.0
140
0.0
141
0.0
142
1.0
143
1.0
 70
0
 72
1
 73
0
 74
0
  7

 75
0
147
1.0
148
0.0
149
0.0
100
AcDbLayout
  1
Layout1
 70
0
 71
1
 10
0.0
 20
0.0
 11
210.0
 21
297.0
 12
0.0
 22
0.0
 32
0.0
 14
0.0
 24
0.0
 34
0.0
 15
0.0
 25
0.0
 35
0.0
146
0.0
 13
0.0
 23
0.0
 33
0.0
 16
1.0
 26
0.0
 36
0.0
 17
0.0
 27
1.0
 37
0.0
 76
0
330
211
345
0
346
0
  0
ENDSEC
  0
EOF
