999
DXF file: C:\Users\sesa63760\Dev\_Creo\CAD\MCADID0004773_3D-CAD\drw0001_3.dxf
999
Pro/ENGINEER 2019471 by Parametric Technology Corporation
  0
SECTION
  2
HEADER
  9
$ACADVER
  1
AC1024
  9
$DWGCODEPAGE
  3
ANSI_1252
  9
$EXTMAX
 10
119.3028107159
 20
168.7282608696
 30
0.0
  9
$EXTMIN
 10
0.0
 20
0.0
 30
0.0
  9
$LIMMIN
 10
0.0
 20
0.0
  9
$LIMMAX
 10
119.3028107159
 20
168.7282608696
  9
$VIEWCTR
 10
59.6514053579
 20
84.3641304348
  9
$VIEWSIZE
 40
168.7282608696
  9
$CLAYER
  8
0
  9
$LTSCALE
 40
10.9985829308
  9
$CELTYPE
  6
BYLAYER
  9
$DIMSCALE
 40
1.0
  9
$DIMASZ
 40
1.4202715561
  9
$DIMEXO
 40
1.0
  9
$DIMDLI
 40
7.599020934
  9
$DIMEXE
 40
1.0
  9
$DIMCEN
 40
1.7997681159
  9
$DIMLFAC
 40
1.0
  9
$DIMBLK
  1
_FILLED
  9
$DIMALT
 70
0
  9
$DIMALTF
 40
0.0393700787
  9
$DIMTXT
 40
1.9883801786
  9
$DIMTOL
 70
1
  9
$DIMLIM
 70
0
  9
$DIMTFAC
 40
1.0
  9
$DIMTP
 40
0.01
  9
$DIMTM
 40
0.01
  9
$DIMGAP
 40
0.625
  9
$DIMDSEP
 70
46
  9
$AUNITS
 70
0
  9
$PDMODE
 70
3
  9
$PDSIZE
 40
0.3125
  9
$HANDSEED
  5
282
  9
$TILEMODE
 70
1
  9
$MEASUREMENT
 70
1
  9
$INSUNITS
 70
4
  0
ENDSEC
  0
SECTION
  2
CLASSES
  0
CLASS
  1
ACDBDICTIONARYWDFLT
  2
AcDbDictionaryWithDefault
  3
AutoCAD 2000
 90
0
 91
1
280
0
281
0
  0
CLASS
  1
ACDBPLACEHOLDER
  2
AcDbPlaceHolder
  3
AutoCAD 2000
 90
0
 91
1
280
0
281
0
  0
CLASS
  1
LAYOUT
  2
AcDbLayout
  3
AutoCAD 2000
 90
0
 91
0
280
0
281
0
  0
ENDSEC
  0
SECTION
  2
TABLES
  0
TABLE
  2
VPORT
  5
8
100
AcDbSymbolTable
 70
2
  0
VPORT
  5
1F4
100
AcDbSymbolTableRecord
100
AcDbViewportTableRecord
  2
*ACTIVE
 70
0
 10
0.0
 20
0.0
 11
1.0
 21
1.0
 12
59.6514053579
 22
84.3641304348
 13
0.0
 23
0.0
 14
1.0
 24
1.0
 15
0.0
 25
0.0
 16
0.0
 26
0.0
 36
1.0
 17
0.0
 27
0.0
 37
0.0
 40
168.7282608696
 41
0.7070707071
 42
50.0
 43
0.0
 44
0.0
 50
0.0
 51
0.0
 71
0
 72
100
 73
1
 74
1
 75
0
 76
0
 77
0
 78
0
  0
ENDTAB
  0
TABLE
  2
LTYPE
  5
5
100
AcDbSymbolTable
 70
6
  0
LTYPE
  5
14
100
AcDbSymbolTableRecord
100
AcDbLinetypeTableRecord
  2
BYBLOCK
 70
0
  3

 72
65
 73
0
 40
0.0
  0
LTYPE
  5
15
100
AcDbSymbolTableRecord
100
AcDbLinetypeTableRecord
  2
BYLAYER
 70
0
  3

 72
65
 73
0
 40
0.0
  0
LTYPE
  5
16
100
AcDbSymbolTableRecord
100
AcDbLinetypeTableRecord
  2
CONTINUOUS
 70
64
  3
Solid line
 72
65
 73
0
 40
0.0
  0
LTYPE
  5
1F5
100
AcDbSymbolTableRecord
100
AcDbLinetypeTableRecord
  2
CENTER
 70
64
  3
____ _ ____ _ ____ _ ____ _ ____ _ ____ _ ____
 72
65
 73
4
 40
0.6
 49
0.375
 74
0
 49
-0.075
 74
0
 49
0.075
 74
0
 49
-0.075
 74
0
  0
LTYPE
  5
1F6
100
AcDbSymbolTableRecord
100
AcDbLinetypeTableRecord
  2
HIDDEN
 70
64
  3
- - - - - - - - - - - - - - - - - - - -
 72
65
 73
2
 40
0.2
 49
0.1
 74
0
 49
-0.1
 74
0
  0
LTYPE
  5
1F7
100
AcDbSymbolTableRecord
100
AcDbLinetypeTableRecord
  2
PHANTOM
 70
64
  3
_____ _ _ _____ _ _ _____ _ _ _____
 72
65
 73
6
 40
0.8
 49
0.45
 74
0
 49
-0.05
 74
0
 49
0.1
 74
0
 49
-0.05
 74
0
 49
0.1
 74
0
 49
-0.05
 74
0
  0
LTYPE
  5
1F8
100
AcDbSymbolTableRecord
100
AcDbLinetypeTableRecord
  2
DOT
 70
64
  3
. . . . . . . . . . . . . . . . . . . .
 72
65
 73
2
 40
0.2
 49
0.1
 74
0
 49
-0.1
 74
0
  0
LTYPE
  5
1F9
100
AcDbSymbolTableRecord
100
AcDbLinetypeTableRecord
  2
DASHED
 70
64
  3
- - - - - - - - - - - - - - - - - - - -
 72
65
 73
2
 40
0.2
 49
0.1
 74
0
 49
-0.1
 74
0
  0
ENDTAB
  0
TABLE
  2
LAYER
  5
2
100
AcDbSymbolTable
 70
36
  0
LAYER
  5
10
100
AcDbSymbolTableRecord
100
AcDbLayerTableRecord
  2
0
 70
0
 62
7
  6
CONTINUOUS
370
-3
390
F
  0
LAYER
  5
1FA
100
AcDbSymbolTableRecord
100
AcDbLayerTableRecord
  2
DEFAULT_1
 70
0
 62
7
  6
CENTER
370
-3
390
F
  0
LAYER
  5
1FB
100
AcDbSymbolTableRecord
100
AcDbLayerTableRecord
  2
DEFAULT_2
 70
0
 62
7
  6
HIDDEN
370
-3
390
F
  0
LAYER
  5
1FC
100
AcDbSymbolTableRecord
100
AcDbLayerTableRecord
  2
DEFAULT_3
 70
0
 62
7
  6
PHANTOM
370
-3
390
F
  0
LAYER
  5
1FD
100
AcDbSymbolTableRecord
100
AcDbLayerTableRecord
  2
00_COMPONENTS
 70
0
 62
7
  6
CONTINUOUS
370
-3
390
F
  0
LAYER
  5
1FE
100
AcDbSymbolTableRecord
100
AcDbLayerTableRecord
  2
01_1_DEFAULT_DATUMS
 70
0
 62
7
  6
CONTINUOUS
370
-3
390
F
  0
LAYER
  5
1FF
100
AcDbSymbolTableRecord
100
AcDbLayerTableRecord
  2
01_PLANES
 70
0
 62
7
  6
CONTINUOUS
370
-3
390
F
  0
LAYER
  5
200
100
AcDbSymbolTableRecord
100
AcDbLayerTableRecord
  2
02_COORD_SYS
 70
0
 62
7
  6
CONTINUOUS
370
-3
390
F
  0
LAYER
  5
201
100
AcDbSymbolTableRecord
100
AcDbLayerTableRecord
  2
03_AXES
 70
0
 62
7
  6
CONTINUOUS
370
-3
390
F
  0
LAYER
  5
202
100
AcDbSymbolTableRecord
100
AcDbLayerTableRecord
  2
04_POINTS
 70
0
 62
7
  6
CONTINUOUS
370
-3
390
F
  0
LAYER
  5
203
100
AcDbSymbolTableRecord
100
AcDbLayerTableRecord
  2
05_CURVES
 70
0
 62
7
  6
CONTINUOUS
370
-3
390
F
  0
LAYER
  5
204
100
AcDbSymbolTableRecord
100
AcDbLayerTableRecord
  2
06_SURFS
 70
0
 62
7
  6
CONTINUOUS
370
-3
390
F
  0
LAYER
  5
205
100
AcDbSymbolTableRecord
100
AcDbLayerTableRecord
  2
07_COSMETICS
 70
0
 62
7
  6
CONTINUOUS
370
-3
390
F
  0
LAYER
  5
206
100
AcDbSymbolTableRecord
100
AcDbLayerTableRecord
  2
10_NOTES
 70
0
 62
7
  6
CONTINUOUS
370
-3
390
F
  0
LAYER
  5
207
100
AcDbSymbolTableRecord
100
AcDbLayerTableRecord
  2
11_NOTES_PUB
 70
0
 62
7
  6
CONTINUOUS
370
-3
390
F
  0
LAYER
  5
208
100
AcDbSymbolTableRecord
100
AcDbLayerTableRecord
  2
13_REF_GTOL
 70
0
 62
7
  6
CONTINUOUS
370
-3
390
F
  0
LAYER
  5
209
100
AcDbSymbolTableRecord
100
AcDbLayerTableRecord
  2
16_MISC
 70
0
 62
7
  6
CONTINUOUS
370
-3
390
F
  0
LAYER
  5
20A
100
AcDbSymbolTableRecord
100
AcDbLayerTableRecord
  2
17_NO_PRINT
 70
0
 62
7
  6
CONTINUOUS
370
-3
390
F
  0
LAYER
  5
20B
100
AcDbSymbolTableRecord
100
AcDbLayerTableRecord
  2
18_DATUM_CAMS_JOINTS
 70
0
 62
7
  6
CONTINUOUS
370
-3
390
F
  0
LAYER
  5
20C
100
AcDbSymbolTableRecord
100
AcDbLayerTableRecord
  2
19_DATUM_FUNCTIONAL
 70
0
 62
7
  6
CONTINUOUS
370
-3
390
F
  0
LAYER
  5
20D
100
AcDbSymbolTableRecord
100
AcDbLayerTableRecord
  2
20_DATUM_KINEMATIC_SCHEME
 70
0
 62
7
  6
CONTINUOUS
370
-3
390
F
  0
ENDTAB
  0
TABLE
  2
STYLE
  5
3
100
AcDbSymbolTable
 70
1
  0
STYLE
  5
11
100
AcDbSymbolTableRecord
100
AcDbTextStyleTableRecord
  2
STANDARD
 70
0
 40
0.0
 41
1.0
 50
0.0
 71
0
 42
0.2
  3
ARIAL.TTF
  4

  0
STYLE
  5
20E
100
AcDbSymbolTableRecord
100
AcDbTextStyleTableRecord
  2
TEXTSTYLE_1
 70
0
 40
0.0
 41
0.8
 50
0.0
 71
0
 42
0.2
  3
gdt
  4

  0
ENDTAB
  0
TABLE
  2
VIEW
  5
6
100
AcDbSymbolTable
 70
0
  0
ENDTAB
  0
TABLE
  2
UCS
  5
7
100
AcDbSymbolTable
 70
0
  0
ENDTAB
  0
TABLE
  2
APPID
  5
9
100
AcDbSymbolTable
 70
1
  0
APPID
  5
20F
100
AcDbSymbolTableRecord
100
AcDbRegAppTableRecord
  2
ACAD
 70
0
  0
ENDTAB
  0
TABLE
  2
BLOCK_RECORD
  5
1
100
AcDbSymbolTable
 70
0
  0
BLOCK_RECORD
  5
210
100
AcDbSymbolTableRecord
100
AcDbBlockTableRecord
  2
*Model_Space
  0
BLOCK_RECORD
  5
211
100
AcDbSymbolTableRecord
100
AcDbBlockTableRecord
  2
*Paper_Space
  0
BLOCK_RECORD
  5
212
100
AcDbSymbolTableRecord
100
AcDbBlockTableRecord
  2
_FILLED
  0
ENDTAB
  0
TABLE
  2
DIMSTYLE
  5
A
100
AcDbSymbolTable
 70
1
100
AcDbDimStyleTable
 71
0
  0
DIMSTYLE
105
213
100
AcDbSymbolTableRecord
100
AcDbDimStyleTableRecord
  2
STANDARD
 70
0
  3

  4

 40
1.0
 41
1.4202715561
 42
1.0
 43
0.38
 44
1.0
 45
0.0
 46
0.0
 47
0.01
 48
0.01
140
1.9883801786
141
0.09
142
0.0
143
25.4
144
1.0
145
0.0
146
1.0
147
0.625
 71
1
 72
0
 73
0
 74
0
 75
0
 76
0
 77
1
 78
8
 79
2
170
0
171
1
172
0
173
0
174
0
175
0
176
0
177
0
178
0
270
2
179
2
271
2
272
2
273
2
274
2
275
0
280
0
281
0
282
0
283
1
284
8
285
0
286
0
287
3
288
0
340
11
278
46
341
212
342
212
343
212
344
212
  0
ENDTAB
  0
ENDSEC
  0
SECTION
  2
BLOCKS
  0
BLOCK
  5
20
100
AcDbEntity
  8
0
100
AcDbBlockBegin
  2
*Model_Space
 70
0
 10
0.0
 20
0.0
 30
0.0
  3
*Model_Space
  1

  0
ENDBLK
  5
21
100
AcDbEntity
  8
0
100
AcDbBlockEnd
  0
BLOCK
  5
1C
100
AcDbEntity
  8
0
100
AcDbBlockBegin
  2
*Paper_Space
 70
0
 10
0.0
 20
0.0
 30
0.0
  3
*Paper_Space
  1

  0
ENDBLK
  5
1D
100
AcDbEntity
  8
0
100
AcDbBlockEnd
  0
BLOCK
  5
214
100
AcDbEntity
  8
0
100
AcDbBlockBegin
  2
_FILLED
 70
64
 10
0.0
 20
0.0
  3
_FILLED
  1

  0
SOLID
  5
215
100
AcDbEntity
  8
0
  6
BYBLOCK
 62
0
100
AcDbTrace
 10
0.0
 20
0.0
 11
-1.0
 21
0.25
 12
-1.0
 22
-0.25
 13
-1.0
 23
-0.25
  0
ENDBLK
  5
216
100
AcDbEntity
  8
0
  6
BYBLOCK
 62
0
100
AcDbBlockEnd
  0
ENDSEC
  0
SECTION
  2
ENTITIES
  0
LINE
  5
217
100
AcDbEntity
  8
0
100
AcDbLine
 62
7
  6
BYLAYER
 10
64.4206281265
 20
13.527173913
 11
58.2206281265
 21
13.527173913
  0
LINE
  5
218
100
AcDbEntity
  8
0
100
AcDbLine
 62
7
  6
BYLAYER
 10
47.703579271
 20
146.527173913
 11
47.303579271
 21
146.127173913
  0
LINE
  5
219
100
AcDbEntity
  8
0
100
AcDbLine
 62
7
  6
BYLAYER
 10
71.703579271
 20
146.527173913
 11
71.303579271
 21
146.127173913
  0
LINE
  5
21A
100
AcDbEntity
  8
0
100
AcDbLine
 62
7
  6
BYLAYER
 10
63.653579271
 20
114.527173913
 11
64.7071323772
 21
115.5807270192
  0
LINE
  5
21B
100
AcDbEntity
  8
0
100
AcDbLine
 62
7
  6
BYLAYER
 10
44.803579271
 20
126.527173913
 11
44.803579271
 21
121.027173913
  0
LINE
  5
21C
100
AcDbEntity
  8
0
100
AcDbLine
 62
7
  6
BYLAYER
 10
44.803579271
 20
126.727173913
 11
44.803579271
 21
145.527173913
  0
LINE
  5
21D
100
AcDbEntity
  8
0
100
AcDbLine
 62
7
  6
BYLAYER
 10
45.0035794121
 20
141.1271739131
 11
45.003579271
 21
145.727173913
  0
LINE
  5
21E
100
AcDbEntity
  8
0
100
AcDbLine
 62
7
  6
BYLAYER
 10
46.303579271
 20
120.527173913
 11
46.3035792717
 21
141.127173913
  0
LINE
  5
21F
100
AcDbEntity
  8
0
100
AcDbLine
 62
7
  6
BYLAYER
 10
47.303579271
 20
141.127173913
 11
47.303579271
 21
146.127173913
  0
LINE
  5
220
100
AcDbEntity
  8
0
100
AcDbLine
 62
7
  6
BYLAYER
 10
47.553579271
 20
146.727173913
 11
47.553579271
 21
146.377173913
  0
LINE
  5
221
100
AcDbEntity
  8
0
100
AcDbLine
 62
7
  6
BYLAYER
 10
51.303579271
 20
141.127173913
 11
51.303579271
 21
146.127173913
  0
LINE
  5
222
100
AcDbEntity
  8
0
100
AcDbLine
 62
7
  6
BYLAYER
 10
52.7035792775
 20
141.127173913
 11
52.7035792775
 21
140.9271739131
  0
LINE
  5
223
100
AcDbEntity
  8
0
100
AcDbLine
 62
7
  6
BYLAYER
 10
52.8268769598
 20
141.327173913
 11
52.8268769598
 21
145.5271753166
  0
LINE
  5
224
100
AcDbEntity
  8
0
100
AcDbLine
 62
7
  6
BYLAYER
 10
52.903579271
 20
141.3271739122
 11
52.903579271
 21
145.527173913
  0
LINE
  5
225
100
AcDbEntity
  8
0
100
AcDbLine
 62
7
  6
BYLAYER
 10
53.1035790452
 20
141.3271753491
 11
53.103579271
 21
145.727173913
  0
LINE
  5
226
100
AcDbEntity
  8
0
100
AcDbLine
 62
7
  6
BYLAYER
 10
54.303579271
 20
146.727173913
 11
54.303579271
 21
156.027173913
  0
LINE
  5
227
100
AcDbEntity
  8
0
100
AcDbLine
 62
7
  6
BYLAYER
 10
55.1518385756
 20
117.461577997
 11
54.9246891753
 21
120.0579075233
  0
LINE
  5
228
100
AcDbEntity
  8
0
100
AcDbLine
 62
7
  6
BYLAYER
 10
58.2206281265
 20
13.527173913
 11
58.2206281265
 21
114.527173913
  0
LINE
  5
229
100
AcDbEntity
  8
0
100
AcDbLine
 62
7
  6
BYLAYER
 10
60.803579271
 20
125.527173913
 11
60.803579271
 21
126.527173913
  0
LINE
  5
22A
100
AcDbEntity
  8
0
100
AcDbLine
 62
7
  6
BYLAYER
 10
61.803579271
 20
126.527173913
 11
61.803579271
 21
125.527173913
  0
LINE
  5
22B
100
AcDbEntity
  8
0
100
AcDbLine
 62
7
  6
BYLAYER
 10
64.4206281265
 20
13.527173913
 11
64.4206281265
 21
114.527173913
  0
LINE
  5
22C
100
AcDbEntity
  8
0
100
AcDbLine
 62
7
  6
BYLAYER
 10
67.4553199663
 20
117.461577997
 11
67.6824693666
 21
120.0579075233
  0
LINE
  5
22D
100
AcDbEntity
  8
0
100
AcDbLine
 62
7
  6
BYLAYER
 10
68.303579271
 20
146.727173913
 11
68.303579271
 21
156.027173913
  0
LINE
  5
22E
100
AcDbEntity
  8
0
100
AcDbLine
 62
7
  6
BYLAYER
 10
69.503579271
 20
145.727173913
 11
69.503579271
 21
141.3279539435
  0
LINE
  5
22F
100
AcDbEntity
  8
0
100
AcDbLine
 62
7
  6
BYLAYER
 10
69.703579271
 20
145.5271820567
 11
69.703579271
 21
141.3271738876
  0
LINE
  5
230
100
AcDbEntity
  8
0
100
AcDbLine
 62
7
  6
BYLAYER
 10
69.7802817687
 20
145.527173894
 11
69.7802817687
 21
141.327173913
  0
LINE
  5
231
100
AcDbEntity
  8
0
100
AcDbLine
 62
7
  6
BYLAYER
 10
69.9035789084
 20
140.9271738819
 11
69.9035789084
 21
141.127173913
  0
LINE
  5
232
100
AcDbEntity
  8
0
100
AcDbLine
 62
7
  6
BYLAYER
 10
71.303579271
 20
141.127173913
 11
71.303579271
 21
146.127173913
  0
LINE
  5
233
100
AcDbEntity
  8
0
100
AcDbLine
 62
7
  6
BYLAYER
 10
75.053579271
 20
146.727173913
 11
75.053579271
 21
146.377173913
  0
LINE
  5
234
100
AcDbEntity
  8
0
100
AcDbLine
 62
7
  6
BYLAYER
 10
75.303579271
 20
141.127173913
 11
75.303579271
 21
146.127173913
  0
LINE
  5
235
100
AcDbEntity
  8
0
100
AcDbLine
 62
7
  6
BYLAYER
 10
76.303579271
 20
141.127173913
 11
76.303579271
 21
120.527173913
  0
LINE
  5
236
100
AcDbEntity
  8
0
100
AcDbLine
 62
7
  6
BYLAYER
 10
77.6035822983
 20
141.127173913
 11
77.603579271
 21
145.727173913
  0
LINE
  5
237
100
AcDbEntity
  8
0
100
AcDbLine
 62
7
  6
BYLAYER
 10
77.803579271
 20
145.527173913
 11
77.803579271
 21
126.727173913
  0
LINE
  5
238
100
AcDbEntity
  8
0
100
AcDbLine
 62
7
  6
BYLAYER
 10
77.803579271
 20
126.527173913
 11
77.803579271
 21
121.027173913
  0
LINE
  5
239
100
AcDbEntity
  8
0
100
AcDbLine
 62
7
  6
BYLAYER
 10
58.953579271
 20
114.527173913
 11
57.9000261648
 21
115.5807270192
  0
LINE
  5
23A
100
AcDbEntity
  8
0
100
AcDbLine
 62
7
  6
BYLAYER
 10
58.2206281265
 20
114.527173913
 11
64.4206281265
 21
114.527173913
  0
LINE
  5
23B
100
AcDbEntity
  8
0
100
AcDbLine
 62
7
  6
BYLAYER
 10
57.9000261648
 20
115.5807270192
 11
64.7071323772
 21
115.5807270192
  0
LINE
  5
23C
100
AcDbEntity
  8
0
100
AcDbLine
 62
7
  6
BYLAYER
 10
65.5623535996
 20
115.727173913
 11
57.0446085697
 21
115.727173913
  0
LINE
  5
23D
100
AcDbEntity
  8
0
100
AcDbLine
 62
7
  6
BYLAYER
 10
67.4553199663
 20
117.461577997
 11
55.1518385756
 21
117.461577997
  0
LINE
  5
23E
100
AcDbEntity
  8
0
100
AcDbLine
 62
7
  6
BYLAYER
 10
54.9246891753
 20
120.0579075233
 11
67.6824693666
 21
120.0579075233
  0
LINE
  5
23F
100
AcDbEntity
  8
0
100
AcDbLine
 62
7
  6
BYLAYER
 10
77.3035792084
 20
120.527173913
 11
45.3035794528
 21
120.527173913
  0
LINE
  5
240
100
AcDbEntity
  8
0
100
AcDbLine
 62
7
  6
BYLAYER
 10
77.803579271
 20
121.027173913
 11
44.803579271
 21
121.027173913
  0
LINE
  5
241
100
AcDbEntity
  8
0
100
AcDbLine
 62
7
  6
BYLAYER
 10
50.903579271
 20
146.527173913
 11
51.303579271
 21
146.127173913
  0
LINE
  5
242
100
AcDbEntity
  8
0
100
AcDbLine
 62
7
  6
BYLAYER
 10
61.803579271
 20
125.527173913
 11
60.803579271
 21
125.527173913
  0
LINE
  5
243
100
AcDbEntity
  8
0
100
AcDbLine
 62
7
  6
BYLAYER
 10
61.803579271
 20
126.127173913
 11
60.803579271
 21
126.127173913
  0
LINE
  5
244
100
AcDbEntity
  8
0
100
AcDbLine
 62
7
  6
BYLAYER
 10
44.803579271
 20
126.527173913
 11
77.803579271
 21
126.527173913
  0
LINE
  5
245
100
AcDbEntity
  8
0
100
AcDbLine
 62
7
  6
BYLAYER
 10
44.803579271
 20
126.727173913
 11
77.803579271
 21
126.727173913
  0
LINE
  5
246
100
AcDbEntity
  8
0
100
AcDbLine
 62
7
  6
BYLAYER
 10
74.903579271
 20
146.527173913
 11
75.303579271
 21
146.127173913
  0
LINE
  5
247
100
AcDbEntity
  8
0
100
AcDbLine
 62
7
  6
BYLAYER
 10
44.803579271
 20
140.927173913
 11
52.7035791586
 21
140.9271739131
  0
LINE
  5
248
100
AcDbEntity
  8
0
100
AcDbLine
 62
7
  6
BYLAYER
 10
69.9035787508
 20
140.9271738508
 11
77.803579271
 21
140.927173913
  0
LINE
  5
249
100
AcDbEntity
  8
0
100
AcDbLine
 62
7
  6
BYLAYER
 10
45.003579271
 20
141.127173913
 11
52.70357918
 21
141.127173913
  0
LINE
  5
24A
100
AcDbEntity
  8
0
100
AcDbLine
 62
7
  6
BYLAYER
 10
69.9035772238
 20
141.127173913
 11
77.6035822781
 21
141.127173913
  0
LINE
  5
24B
100
AcDbEntity
  8
0
100
AcDbLine
 62
7
  6
BYLAYER
 10
77.6035826465
 20
141.327173913
 11
75.303579271
 21
141.327173913
  0
LINE
  5
24C
100
AcDbEntity
  8
0
100
AcDbLine
 62
7
  6
BYLAYER
 10
71.303579271
 20
141.327173913
 11
69.703579271
 21
141.327173913
  0
LINE
  5
24D
100
AcDbEntity
  8
0
100
AcDbLine
 62
7
  6
BYLAYER
 10
45.0035787771
 20
141.3271738875
 11
47.303579271
 21
141.3271738921
  0
LINE
  5
24E
100
AcDbEntity
  8
0
100
AcDbLine
 62
7
  6
BYLAYER
 10
51.303579271
 20
141.327173913
 11
52.903579271
 21
141.327173913
  0
LINE
  5
24F
100
AcDbEntity
  8
0
100
AcDbLine
 62
7
  6
BYLAYER
 10
75.303579271
 20
145.5271740097
 11
77.803579271
 21
145.527173913
  0
LINE
  5
250
100
AcDbEntity
  8
0
100
AcDbLine
 62
7
  6
BYLAYER
 10
52.8268769598
 20
145.5271738523
 11
69.7802817687
 21
145.5271978325
  0
LINE
  5
251
100
AcDbEntity
  8
0
100
AcDbLine
 62
7
  6
BYLAYER
 10
47.303579271
 20
145.5271891046
 11
44.803579271
 21
145.527173913
  0
LINE
  5
252
100
AcDbEntity
  8
0
100
AcDbLine
 62
7
  6
BYLAYER
 10
69.503579271
 20
145.727173913
 11
53.1035797104
 21
145.727173913
  0
LINE
  5
253
100
AcDbEntity
  8
0
100
AcDbLine
 62
7
  6
BYLAYER
 10
45.003579271
 20
145.727173913
 11
47.303579271
 21
145.727173913
  0
LINE
  5
254
100
AcDbEntity
  8
0
100
AcDbLine
 62
7
  6
BYLAYER
 10
75.303579271
 20
145.727173913
 11
77.603579271
 21
145.727173913
  0
LINE
  5
255
100
AcDbEntity
  8
0
100
AcDbLine
 62
7
  6
BYLAYER
 10
69.3860121776
 20
145.927173913
 11
53.221141767
 21
145.927173913
  0
LINE
  5
256
100
AcDbEntity
  8
0
100
AcDbLine
 62
7
  6
BYLAYER
 10
47.303579271
 20
146.127173913
 11
51.303579271
 21
146.127173913
  0
LINE
  5
257
100
AcDbEntity
  8
0
100
AcDbLine
 62
7
  6
BYLAYER
 10
71.303579271
 20
146.127173913
 11
75.303579271
 21
146.127173913
  0
LINE
  5
258
100
AcDbEntity
  8
0
100
AcDbLine
 62
7
  6
BYLAYER
 10
47.703579271
 20
146.527173913
 11
50.903579271
 21
146.527173913
  0
LINE
  5
259
100
AcDbEntity
  8
0
100
AcDbLine
 62
7
  6
BYLAYER
 10
71.703579271
 20
146.527173913
 11
74.903579271
 21
146.527173913
  0
LINE
  5
25A
100
AcDbEntity
  8
0
100
AcDbLine
 62
7
  6
BYLAYER
 10
47.553579271
 20
146.727173913
 11
75.053579271
 21
146.727173913
  0
LINE
  5
25B
100
AcDbEntity
  8
0
100
AcDbLine
 62
7
  6
BYLAYER
 10
54.303579271
 20
156.027173913
 11
68.303579271
 21
156.027173913
  0
ARC
  5
25C
100
AcDbEntity
  8
0
100
AcDbCircle
 62
7
  6
BYLAYER
 10
57.0446085016
 20
117.627173913
 40
1.9
100
AcDbArc
 50
185.0000001459
 51
270.0000008268
  0
ARC
  5
25D
100
AcDbEntity
  8
0
100
AcDbCircle
 62
7
  6
BYLAYER
 10
65.5625500403
 20
117.627173913
 40
1.9
100
AcDbArc
 50
269.9999991732
 51
354.9999998541
  0
ARC
  5
25E
100
AcDbEntity
  8
0
100
AcDbCircle
 62
7
  6
BYLAYER
 10
69.1767614141
 20
119.927173913
 40
1.5
100
AcDbArc
 50
153.1239780751
 51
175.0000001487
  0
ARC
  5
25F
100
AcDbEntity
  8
0
100
AcDbCircle
 62
7
  6
BYLAYER
 10
53.4303971278
 20
119.927173913
 40
1.5
100
AcDbArc
 50
4.9999998513
 51
26.8760219249
  0
ARC
  5
260
100
AcDbEntity
  8
0
100
AcDbCircle
 62
7
  6
BYLAYER
 10
77.303579271
 20
121.027173913
 40
0.5
100
AcDbArc
 50
270.0
 51
360.0
  0
ARC
  5
261
100
AcDbEntity
  8
0
100
AcDbCircle
 62
7
  6
BYLAYER
 10
45.303579271
 20
121.027173913
 40
0.5
100
AcDbArc
 50
180.0
 51
270.0000175863
  0
ARC
  5
262
100
AcDbEntity
  8
0
100
AcDbCircle
 62
7
  6
BYLAYER
 10
65.0606860522
 20
115.227173913
 40
0.5
100
AcDbArc
 50
90.0000731243
 51
135.0000460896
  0
ARC
  5
263
100
AcDbEntity
  8
0
100
AcDbCircle
 62
7
  6
BYLAYER
 10
57.5464724898
 20
115.227173913
 40
0.5
100
AcDbArc
 50
44.9999539104
 51
89.9999268757
  0
ARC
  5
264
100
AcDbEntity
  8
0
100
AcDbCircle
 62
7
  6
BYLAYER
 10
53.2296941145
 20
145.5296126793
 40
0.40193764
100
AcDbArc
 50
148.0653429676
 51
154.8634289453
  0
ARC
  5
265
100
AcDbEntity
  8
0
100
AcDbCircle
 62
7
  6
BYLAYER
 10
69.415705163
 20
145.5303197764
 40
0.3645901781
100
AcDbArc
 50
359.5056147206
 51
2.8457133452
  0
ARC
  5
266
100
AcDbEntity
  8
0
100
AcDbCircle
 62
7
  6
BYLAYER
 10
53.1015418996
 20
145.5382460691
 40
0.2748879603
100
AcDbArc
 50
178.0007546085
 51
182.308136704
  0
ARC
  5
267
100
AcDbEntity
  8
0
100
AcDbCircle
 62
7
  6
BYLAYER
 10
45.003579271
 20
140.927173913
 40
0.2
100
AcDbArc
 50
90.0001299739
 51
180.0000089173
  0
ARC
  5
268
100
AcDbEntity
  8
0
100
AcDbCircle
 62
7
  6
BYLAYER
 10
45.003579271
 20
145.527173913
 40
0.2
100
AcDbArc
 50
89.9999971867
 51
180.0000028132
  0
ARC
  5
269
100
AcDbEntity
  8
0
100
AcDbCircle
 62
7
  6
BYLAYER
 10
69.503579271
 20
145.527173913
 40
0.2
100
AcDbArc
 50
0.0046661466
 51
90.0
  0
ARC
  5
26A
100
AcDbEntity
  8
0
100
AcDbCircle
 62
7
  6
BYLAYER
 10
53.103579271
 20
145.527173913
 40
0.2
100
AcDbArc
 50
90.0002064474
 51
180.0000026478
  0
ARC
  5
26B
100
AcDbEntity
  8
0
100
AcDbCircle
 62
7
  6
BYLAYER
 10
77.603579271
 20
126.727173913
 40
0.2
100
AcDbArc
 50
270.0
 51
359.9999878895
  0
ARC
  5
26C
100
AcDbEntity
  8
0
100
AcDbCircle
 62
7
  6
BYLAYER
 10
45.003579271
 20
126.727173913
 40
0.2
100
AcDbArc
 50
180.0000000001
 51
270.0001147722
  0
ARC
  5
26D
100
AcDbEntity
  8
0
100
AcDbCircle
 62
7
  6
BYLAYER
 10
77.603579271
 20
140.927173913
 40
0.2
100
AcDbArc
 50
0.0000000052
 51
90.0
  0
ARC
  5
26E
100
AcDbEntity
  8
0
100
AcDbCircle
 62
7
  6
BYLAYER
 10
77.603579271
 20
145.527173913
 40
0.2
100
AcDbArc
 50
0.0
 51
90.0
  0
ARC
  5
26F
100
AcDbEntity
  8
0
100
AcDbCircle
 62
7
  6
BYLAYER
 10
69.903579854
 20
141.3271747111
 40
0.1999976156
100
AcDbArc
 50
180.0002339914
 51
269.9998329746
  0
ARC
  5
270
100
AcDbEntity
  8
0
100
AcDbCircle
 62
7
  6
BYLAYER
 10
52.7035783352
 20
141.3271737077
 40
0.199997233
100
AcDbArc
 50
270.0005854041
 51
0.0000587056
  0
SPLINE
  5
271
100
AcDbEntity
  8
0
100
AcDbSpline
 62
7
  6
BYLAYER
 70
0
 71
3
 72
21
 73
17
 74
0
 42
0.0000001
 43
0.0000001
 44
0.0000000001
 40
0.0
 40
0.0
 40
0.0
 40
0.0
 40
0.0012201621
 40
0.0048541131
 40
0.0108813781
 40
0.0192795687
 40
0.0430982548
 40
0.0761288661
 40
0.1181298771
 40
0.1686198394
 40
0.2270573196
 40
0.2929008766
 40
0.4443671814
 40
0.617320918
 40
0.8053151992
 40
1.0
 40
1.0
 40
1.0
 40
1.0
 10
44.803579271
 20
141.3279539623
 30
0.0
 10
44.803579271
 20
141.327872617
 30
0.0
 10
44.8040980384
 20
141.3280223671
 30
0.0
 10
44.8046355909
 20
141.3278465409
 30
0.0
 10
44.8059450502
 20
141.3279152471
 30
0.0
 10
44.8084307854
 20
141.3278293957
 30
0.0
 10
44.8128275108
 20
141.3278299478
 30
0.0
 10
44.8193950404
 20
141.3277642424
 30
0.0
 10
44.8277717157
 20
141.3277219869
 30
0.0
 10
44.8378305785
 20
141.3276676486
 30
0.0
 10
44.8494830254
 20
141.3276152976
 30
0.0
 10
44.8678658652
 20
141.3275394565
 30
0.0
 10
44.8938838738
 20
141.3274481063
 30
0.0
 10
44.9280450564
 20
141.3273469947
 30
0.0
 10
44.9650876669
 20
141.3272558709
 30
0.0
 10
44.990599888
 20
141.3272007751
 30
0.0
 10
45.0035790241
 20
141.327173887
 30
0.0
  0
SPLINE
  5
272
100
AcDbEntity
  8
0
100
AcDbSpline
 62
7
  6
BYLAYER
 70
0
 71
3
 72
21
 73
17
 74
0
 42
0.0000001
 43
0.0000001
 44
0.0000000001
 40
0.0
 40
0.0
 40
0.0
 40
0.0
 40
0.0012294731
 40
0.0048709505
 40
0.0109053891
 40
0.0193095884
 40
0.0431335083
 40
0.076157806
 40
0.1181469103
 40
0.1686192444
 40
0.2270306914
 40
0.2928617856
 40
0.4444302
 40
0.6174439286
 40
0.8053645912
 40
1.0
 40
1.0
 40
1.0
 40
1.0
 10
52.903579271
 20
141.3271739108
 30
0.0
 10
52.903579271
 20
141.3270919149
 30
0.0
 10
52.9040966828
 20
141.3272119747
 30
0.0
 10
52.9046382671
 20
141.3270424708
 30
0.0
 10
52.9059478479
 20
141.3270924072
 30
0.0
 10
52.9084368323
 20
141.3270167791
 30
0.0
 10
52.9128350853
 20
141.3270716367
 30
0.0
 10
52.919403618
 20
141.3271868582
 30
0.0
 10
52.9277762116
 20
141.3274771864
 30
0.0
 10
52.9378311051
 20
141.3277668623
 30
0.0
 10
52.9494835919
 20
141.3279360875
 30
0.0
 10
52.9678793593
 20
141.3277788762
 30
0.0
 10
52.9938920455
 20
141.3265737641
 30
0.0
 10
53.028053037
 20
141.3253201997
 30
0.0
 10
53.0651154335
 20
141.3256153237
 30
0.0
 10
53.0906128098
 20
141.3265670675
 30
0.0
 10
53.1035791581
 20
141.3271753514
 30
0.0
  0
SPLINE
  5
273
100
AcDbEntity
  8
0
100
AcDbSpline
 62
7
  6
BYLAYER
 70
0
 71
3
 72
13
 73
9
 74
0
 42
0.0000001
 43
0.0000001
 44
0.0000000001
 40
0.0
 40
0.0
 40
0.0
 40
0.0
 40
0.0946800665
 40
0.1952508313
 40
0.3052338494
 40
0.4263453655
 40
0.6996767596
 40
1.0
 40
1.0
 40
1.0
 40
1.0
 10
52.703573441
 20
141.1271739131
 30
0.0
 10
52.7116758595
 20
141.1271650893
 30
0.0
 10
52.7284812517
 20
141.1299741842
 30
0.0
 10
52.7520954317
 20
141.141882011
 30
0.0
 10
52.7735090774
 20
141.1609124038
 30
0.0
 10
52.7992690256
 20
141.1958554872
 30
0.0
 10
52.8211354803
 20
141.2522040562
 30
0.0
 10
52.8268767563
 20
141.3014634546
 30
0.0
 10
52.8268767618
 20
141.327164176
 30
0.0
  0
SPLINE
  5
274
100
AcDbEntity
  8
0
100
AcDbSpline
 62
7
  6
BYLAYER
 70
0
 71
3
 72
11
 73
7
 74
0
 42
0.0000001
 43
0.0000001
 44
0.0000000001
 40
0.0
 40
0.0
 40
0.0
 40
0.0
 40
0.2500434838
 40
0.5000252791
 40
0.7499478667
 40
1.0
 40
1.0
 40
1.0
 40
1.0
 10
53.1035790452
 20
141.3271753491
 30
0.0
 10
53.1035792723
 20
141.2751200462
 30
0.0
 10
53.0836445326
 20
141.1696445076
 30
0.0
 10
52.9936934319
 20
141.0371009167
 30
0.0
 10
52.860922059
 20
140.9479370793
 30
0.0
 10
52.7556362622
 20
140.9271740975
 30
0.0
 10
52.7035791586
 20
140.9271739131
 30
0.0
  0
SPLINE
  5
275
100
AcDbEntity
  8
0
100
AcDbSpline
 62
7
  6
BYLAYER
 70
0
 71
3
 72
21
 73
17
 74
0
 42
0.0000001
 43
0.0000001
 44
0.0000000001
 40
0.0
 40
0.0
 40
0.0
 40
0.0
 40
0.1946845813
 40
0.3826786906
 40
0.5556323259
 40
0.707098604
 40
0.7729421733
 40
0.8313796833
 40
0.8818696912
 40
0.923870762
 40
0.9569014484
 40
0.9807202253
 40
0.9891184661
 40
0.9951457837
 40
0.9987797886
 40
1.0
 40
1.0
 40
1.0
 40
1.0
 10
69.503579271
 20
141.3279539624
 30
0.0
 10
69.5165584081
 20
141.3279270415
 30
0.0
 10
69.542070634
 20
141.3278718892
 30
0.0
 10
69.5791132565
 20
141.3277807031
 30
0.0
 10
69.6132744606
 20
141.3276795516
 30
0.0
 10
69.639292493
 20
141.3275881879
 30
0.0
 10
69.6576753565
 20
141.3275123509
 30
0.0
 10
69.6693278228
 20
141.3274600098
 30
0.0
 10
69.6793867087
 20
141.3274056867
 30
0.0
 10
69.6877634013
 20
141.3273634543
 30
0.0
 10
69.6943309673
 20
141.3272977715
 30
0.0
 10
69.698727685
 20
141.3272983612
 30
0.0
 10
69.7012134739
 20
141.3272125247
 30
0.0
 10
69.7025228841
 20
141.3272812725
 30
0.0
 10
69.7030605556
 20
141.3271054241
 30
0.0
 10
69.7035792222
 20
141.3272552356
 30
0.0
 10
69.703579271
 20
141.327173887
 30
0.0
  0
SPLINE
  5
276
100
AcDbEntity
  8
0
100
AcDbSpline
 62
7
  6
BYLAYER
 70
0
 71
3
 72
11
 73
7
 74
0
 42
0.0000001
 43
0.0000001
 44
0.0000000001
 40
0.0
 40
0.0
 40
0.0
 40
0.0
 40
0.2500433131
 40
0.5000243715
 40
0.7499475346
 40
1.0
 40
1.0
 40
1.0
 40
1.0
 10
69.9035787508
 20
140.9271738508
 30
0.0
 10
69.8514596501
 20
140.927174069
 30
0.0
 10
69.7458503548
 20
140.9471524774
 30
0.0
 10
69.6132038661
 20
141.0373232914
 30
0.0
 10
69.5240927548
 20
141.1703758289
 30
0.0
 10
69.5034777849
 20
141.2758330339
 30
0.0
 10
69.503579271
 20
141.3279539435
 30
0.0
  0
SPLINE
  5
277
100
AcDbEntity
  8
0
100
AcDbSpline
 62
7
  6
BYLAYER
 70
0
 71
3
 72
13
 73
9
 74
0
 42
0.0000001
 43
0.0000001
 44
0.0000000001
 40
0.0
 40
0.0
 40
0.0
 40
0.0
 40
0.0946758466
 40
0.195235301
 40
0.3052081233
 40
0.4263172584
 40
0.6996587461
 40
1.0
 40
1.0
 40
1.0
 40
1.0
 10
69.9035793119
 20
141.127173913
 30
0.0
 10
69.8954771327
 20
141.1271651962
 30
0.0
 10
69.8786726963
 20
141.1299737327
 30
0.0
 10
69.8550608968
 20
141.1418829107
 30
0.0
 10
69.8336516276
 20
141.160915743
 30
0.0
 10
69.8078932138
 20
141.1958595379
 30
0.0
 10
69.7860122281
 20
141.2522064795
 30
0.0
 10
69.7802817799
 20
141.3014712641
 30
0.0
 10
69.7802817799
 20
141.327173913
 30
0.0
  0
SPLINE
  5
278
100
AcDbEntity
  8
0
100
AcDbSpline
 62
7
  6
BYLAYER
 70
0
 71
3
 72
17
 73
13
 74
0
 42
0.0000001
 43
0.0000001
 44
0.0000000001
 40
0.0
 40
0.0
 40
0.0
 40
0.0
 40
0.1943281543
 40
0.3819766266
 40
0.5545635213
 40
0.7056531281
 40
0.8297933278
 40
0.9222895866
 40
0.9552575006
 40
0.9790466934
 40
0.9936969492
 40
1.0
 40
1.0
 40
1.0
 40
1.0
 10
77.6035817925
 20
141.3271739127
 30
0.0
 10
77.6165639999
 20
141.3271324267
 30
0.0
 10
77.6420812894
 20
141.3270156053
 30
0.0
 10
77.6791330717
 20
141.3270696307
 30
0.0
 10
77.7132797015
 20
141.3277575999
 30
0.0
 10
77.7432157944
 20
141.3280818228
 30
0.0
 10
77.767732578
 20
141.3269124671
 30
0.0
 10
77.7844308639
 20
141.3256746913
 30
0.0
 10
77.7943097825
 20
141.3254250366
 30
0.0
 10
77.7992388224
 20
141.3257182912
 30
0.0
 10
77.8019079218
 20
141.3260132345
 30
0.0
 10
77.8035792659
 20
141.3267542708
 30
0.0
 10
77.803579271
 20
141.327175352
 30
0.0
  0
SPLINE
  5
279
100
AcDbEntity
  8
0
100
AcDbSpline
 62
7
  6
BYLAYER
 70
0
 71
3
 72
13
 73
9
 74
0
 42
0.0000001
 43
0.0000001
 44
0.0000000001
 40
0.0
 40
0.0
 40
0.0
 40
0.0
 40
0.0857036301
 40
0.1819208313
 40
0.2930521451
 40
0.4196584788
 40
0.7070581233
 40
1.0
 40
1.0
 40
1.0
 40
1.0
 10
53.103569361
 20
145.7271828029
 30
0.0
 10
53.1107939456
 20
145.7271817831
 30
0.0
 10
53.1262132338
 20
145.7296867551
 30
0.0
 10
53.1485831502
 20
145.7409437581
 30
0.0
 10
53.1695839027
 20
145.7601197048
 30
0.0
 10
53.1953784408
 20
145.7964179345
 30
0.0
 10
53.2158838327
 20
145.8534642016
 30
0.0
 10
53.2211408458
 20
145.9024797035
 30
0.0
 10
53.2211420822
 20
145.927173913
 30
0.0
  0
SPLINE
  5
27A
100
AcDbEntity
  8
0
100
AcDbSpline
 62
7
  6
BYLAYER
 70
0
 71
3
 72
13
 73
9
 74
0
 42
0.0000001
 43
0.0000001
 44
0.0000000001
 40
0.0
 40
0.0
 40
0.0
 40
0.0
 40
0.0857034491
 40
0.1819205729
 40
0.2930518836
 40
0.4196583188
 40
0.7070581392
 40
1.0
 40
1.0
 40
1.0
 40
1.0
 10
69.5035883993
 20
145.7271826239
 30
0.0
 10
69.496363829
 20
145.7271816068
 30
0.0
 10
69.4809445647
 20
145.7296866132
 30
0.0
 10
69.4585746824
 20
145.7409436369
 30
0.0
 10
69.4375739573
 20
145.7601196229
 30
0.0
 10
69.4117794354
 20
145.7964178967
 30
0.0
 10
69.3912740313
 20
145.8534641853
 30
0.0
 10
69.3860169734
 20
145.9024797015
 30
0.0
 10
69.3860157141
 20
145.9271739131
 30
0.0
  0
SPLINE
  5
27B
100
AcDbEntity
  8
0
100
AcDbSpline
 62
7
  6
BYLAYER
 70
0
 71
3
 72
10
 73
6
 74
0
 42
0.0000001
 43
0.0000001
 44
0.0000000001
 40
0.0
 40
0.0
 40
0.0
 40
0.0
 40
0.491403846
 40
0.7417808845
 40
1.0
 40
1.0
 40
1.0
 40
1.0
 10
69.3860121776
 20
145.927173913
 30
0.0
 10
69.4298739947
 20
145.9244440804
 30
0.0
 10
69.4968044195
 20
145.9156766891
 30
0.0
 10
69.5789496719
 20
145.8788508875
 30
0.0
 10
69.6164583404
 20
145.8526453293
 30
0.0
 10
69.6342569387
 20
145.8379318758
 30
0.0
  0
SPLINE
  5
27C
100
AcDbEntity
  8
0
100
AcDbSpline
 62
7
  6
BYLAYER
 70
0
 71
3
 72
10
 73
6
 74
0
 42
0.0000001
 43
0.0000001
 44
0.0000000001
 40
0.0
 40
0.0
 40
0.0
 40
0.0
 40
0.2351471559
 40
0.4806012495
 40
1.0
 40
1.0
 40
1.0
 40
1.0
 10
69.6342569387
 20
145.8379318758
 30
0.0
 10
69.6543122154
 20
145.8213529082
 30
0.0
 10
69.6923056047
 20
145.7835252223
 30
0.0
 10
69.7535549111
 20
145.6907736266
 30
0.0
 10
69.7770055512
 20
145.6058253705
 30
0.0
 10
69.7798457448
 20
145.5484204573
 30
0.0
  0
SPLINE
  5
27D
100
AcDbEntity
  8
0
100
AcDbSpline
 62
7
  6
BYLAYER
 70
0
 71
3
 72
9
 73
5
 74
0
 42
0.0000001
 43
0.0000001
 44
0.0000000001
 40
0.0
 40
0.0
 40
0.0
 40
0.0
 40
0.506643663
 40
1.0
 40
1.0
 40
1.0
 40
1.0
 10
52.8268212673
 20
145.5478359024
 30
0.0
 10
52.8277360771
 20
145.5745295803
 30
0.0
 10
52.836787695
 20
145.6269782543
 30
0.0
 10
52.854763696
 20
145.676805214
 30
0.0
 10
52.8658208314
 20
145.7003466839
 30
0.0
  0
SPLINE
  5
27E
100
AcDbEntity
  8
0
100
AcDbSpline
 62
7
  6
BYLAYER
 70
0
 71
3
 72
9
 73
5
 74
0
 42
0.0000001
 43
0.0000001
 44
0.0000000001
 40
0.0
 40
0.0
 40
0.0
 40
0.0
 40
0.256342718
 40
1.0
 40
1.0
 40
1.0
 40
1.0
 10
52.8885889762
 20
145.7422183028
 30
0.0
 10
52.8941347616
 20
145.751091185
 30
0.0
 10
52.9171792969
 20
145.7848118446
 30
0.0
 10
52.9455495363
 20
145.8148217164
 30
0.0
 10
52.9686820275
 20
145.834476207
 30
0.0
  0
SPLINE
  5
27F
100
AcDbEntity
  8
0
100
AcDbSpline
 62
7
  6
BYLAYER
 70
0
 71
3
 72
9
 73
5
 74
0
 42
0.0000001
 43
0.0000001
 44
0.0000000001
 40
0.0
 40
0.0
 40
0.0
 40
0.0
 40
0.5080433718
 40
1.0
 40
1.0
 40
1.0
 40
1.0
 10
52.9686820275
 20
145.834476207
 30
0.0
 10
53.0039308839
 20
145.8644253512
 30
0.0
 10
53.0846417765
 20
145.9122802414
 30
0.0
 10
53.1764092056
 20
145.9249179039
 30
0.0
 10
53.221141767
 20
145.927173913
 30
0.0
  0
ENDSEC
  0
SECTION
  2
OBJECTS
  0
DICTIONARY
  5
C
100
AcDbDictionary
280
0
281
1
  3
ACAD_GROUP
350
D
  3
ACAD_MLINESTYLE
350
17
  3
ACAD_LAYOUT
350
1A
  3
ACAD_PLOTSETTINGS
350
19
  3
ACAD_PLOTSTYLENAME
350
E
  0
DICTIONARY
  5
D
102
{ACAD_REACTORS
330
C
102
}
100
AcDbDictionary
280
0
281
1
  0
ACDBDICTIONARYWDFLT
  5
E
102
{ACAD_REACTORS
330
C
102
}
100
AcDbDictionary
281
1
  3
Normal
350
F
100
AcDbDictionaryWithDefault
340
F
  0
DICTIONARY
  5
17
102
{ACAD_REACTORS
330
C
102
}
100
AcDbDictionary
280
0
281
1
  3
Standard
350
18
  0
DICTIONARY
  5
19
102
{ACAD_REACTORS
330
C
102
}
100
AcDbDictionary
281
1
  0
DICTIONARY
  5
1A
102
{ACAD_REACTORS
330
C
102
}
100
AcDbDictionary
281
1
  3
Model
350
280
  3
Layout1
350
281
  0
ACDBPLACEHOLDER
  5
F
102
{ACAD_REACTORS
330
E
102
}
  0
MLINESTYLE
  5
18
102
{ACAD_REACTORS
330
17
102
}
100
AcDbMlineStyle
  2
STANDARD
 70
0
  3

 62
256
 51
90.0
 52
90.0
 71
2
 49
0.5
 62
256
  6
BYLAYER
 49
-0.5
 62
256
  6
BYLAYER
  0
LAYOUT
  5
280
102
{ACAD_REACTORS
330
1A
102
}
100
AcDbPlotSettings
  1

  2
none_device
  4

  6

 40
0.0
 41
0.0
 42
0.0
 43
0.0
 44
210.0
 45
297.0
 46
0.0
 47
0.0
 48
0.0
 49
0.0
140
0.0
141
0.0
142
1.0
143
1.0
 70
1024
 72
1
 73
0
 74
0
  7

 75
0
147
1.0
148
0.0
149
0.0
100
AcDbLayout
  1
Model
 70
0
 71
0
 10
0.0
 20
0.0
 11
210.0
 21
297.0
 12
0.0
 22
0.0
 32
0.0
 14
0.0
 24
0.0
 34
0.0
 15
0.0
 25
0.0
 35
0.0
146
0.0
 13
0.0
 23
0.0
 33
0.0
 16
1.0
 26
0.0
 36
0.0
 17
0.0
 27
1.0
 37
0.0
 76
0
330
210
345
0
346
0
  0
LAYOUT
  5
281
102
{ACAD_REACTORS
330
1A
102
}
100
AcDbPlotSettings
  1

  2
none_device
  4

  6

 40
0.0
 41
0.0
 42
0.0
 43
0.0
 44
210.0
 45
297.0
 46
0.0
 47
0.0
 48
0.0
 49
0.0
140
0.0
141
0.0
142
1.0
143
1.0
 70
0
 72
1
 73
0
 74
0
  7

 75
0
147
1.0
148
0.0
149
0.0
100
AcDbLayout
  1
Layout1
 70
0
 71
1
 10
0.0
 20
0.0
 11
210.0
 21
297.0
 12
0.0
 22
0.0
 32
0.0
 14
0.0
 24
0.0
 34
0.0
 15
0.0
 25
0.0
 35
0.0
146
0.0
 13
0.0
 23
0.0
 33
0.0
 16
1.0
 26
0.0
 36
0.0
 17
0.0
 27
1.0
 37
0.0
 76
0
330
211
345
0
346
0
  0
ENDSEC
  0
EOF
