999
DXF file: C:\Users\sesa63760\Dev\_Creo\CAD\MCADID0004772_3D-CAD\drw0001_6.dxf
999
Pro/ENGINEER 2019471 by Parametric Technology Corporation
  0
SECTION
  2
HEADER
  9
$ACADVER
  1
AC1024
  9
$DWGCODEPAGE
  3
ANSI_1252
  9
$EXTMAX
 10
197.8258515129
 20
279.7822757112
 30
0.0
  9
$EXTMIN
 10
0.0
 20
0.0
 30
0.0
  9
$LIMMIN
 10
0.0
 20
0.0
  9
$LIMMAX
 10
197.8258515129
 20
279.7822757112
  9
$VIEWCTR
 10
98.9129257565
 20
139.8911378556
  9
$VIEWSIZE
 40
279.7822757112
  9
$CLAYER
  8
0
  9
$LTSCALE
 40
18.2376594538
  9
$CELTYPE
  6
BYLAYER
  9
$DIMSCALE
 40
1.0
  9
$DIMASZ
 40
2.3550696609
  9
$DIMEXO
 40
1.0
  9
$DIMDLI
 40
12.6005647135
  9
$DIMEXE
 40
1.0
  9
$DIMCEN
 40
2.9843442743
  9
$DIMLFAC
 40
1.0
  9
$DIMBLK
  1
_FILLED
  9
$DIMALT
 70
0
  9
$DIMALTF
 40
0.0393700787
  9
$DIMTXT
 40
3.2970975252
  9
$DIMTOL
 70
1
  9
$DIMLIM
 70
0
  9
$DIMTFAC
 40
1.0
  9
$DIMTP
 40
0.01
  9
$DIMTM
 40
0.01
  9
$DIMGAP
 40
0.625
  9
$DIMDSEP
 70
46
  9
$AUNITS
 70
0
  9
$PDMODE
 70
3
  9
$PDSIZE
 40
0.3125
  9
$HANDSEED
  5
287
  9
$TILEMODE
 70
1
  9
$MEASUREMENT
 70
1
  9
$INSUNITS
 70
4
  0
ENDSEC
  0
SECTION
  2
CLASSES
  0
CLASS
  1
ACDBDICTIONARYWDFLT
  2
AcDbDictionaryWithDefault
  3
AutoCAD 2000
 90
0
 91
1
280
0
281
0
  0
CLASS
  1
ACDBPLACEHOLDER
  2
AcDbPlaceHolder
  3
AutoCAD 2000
 90
0
 91
1
280
0
281
0
  0
CLASS
  1
LAYOUT
  2
AcDbLayout
  3
AutoCAD 2000
 90
0
 91
0
280
0
281
0
  0
ENDSEC
  0
SECTION
  2
TABLES
  0
TABLE
  2
VPORT
  5
8
100
AcDbSymbolTable
 70
2
  0
VPORT
  5
1F4
100
AcDbSymbolTableRecord
100
AcDbViewportTableRecord
  2
*ACTIVE
 70
0
 10
0.0
 20
0.0
 11
1.0
 21
1.0
 12
98.9129257565
 22
139.8911378556
 13
0.0
 23
0.0
 14
1.0
 24
1.0
 15
0.0
 25
0.0
 16
0.0
 26
0.0
 36
1.0
 17
0.0
 27
0.0
 37
0.0
 40
279.7822757112
 41
0.7070707071
 42
50.0
 43
0.0
 44
0.0
 50
0.0
 51
0.0
 71
0
 72
100
 73
1
 74
1
 75
0
 76
0
 77
0
 78
0
  0
ENDTAB
  0
TABLE
  2
LTYPE
  5
5
100
AcDbSymbolTable
 70
6
  0
LTYPE
  5
14
100
AcDbSymbolTableRecord
100
AcDbLinetypeTableRecord
  2
BYBLOCK
 70
0
  3

 72
65
 73
0
 40
0.0
  0
LTYPE
  5
15
100
AcDbSymbolTableRecord
100
AcDbLinetypeTableRecord
  2
BYLAYER
 70
0
  3

 72
65
 73
0
 40
0.0
  0
LTYPE
  5
16
100
AcDbSymbolTableRecord
100
AcDbLinetypeTableRecord
  2
CONTINUOUS
 70
64
  3
Solid line
 72
65
 73
0
 40
0.0
  0
LTYPE
  5
1F5
100
AcDbSymbolTableRecord
100
AcDbLinetypeTableRecord
  2
CENTER
 70
64
  3
____ _ ____ _ ____ _ ____ _ ____ _ ____ _ ____
 72
65
 73
4
 40
0.6
 49
0.375
 74
0
 49
-0.075
 74
0
 49
0.075
 74
0
 49
-0.075
 74
0
  0
LTYPE
  5
1F6
100
AcDbSymbolTableRecord
100
AcDbLinetypeTableRecord
  2
HIDDEN
 70
64
  3
- - - - - - - - - - - - - - - - - - - -
 72
65
 73
2
 40
0.2
 49
0.1
 74
0
 49
-0.1
 74
0
  0
LTYPE
  5
1F7
100
AcDbSymbolTableRecord
100
AcDbLinetypeTableRecord
  2
PHANTOM
 70
64
  3
_____ _ _ _____ _ _ _____ _ _ _____
 72
65
 73
6
 40
0.8
 49
0.45
 74
0
 49
-0.05
 74
0
 49
0.1
 74
0
 49
-0.05
 74
0
 49
0.1
 74
0
 49
-0.05
 74
0
  0
LTYPE
  5
1F8
100
AcDbSymbolTableRecord
100
AcDbLinetypeTableRecord
  2
DOT
 70
64
  3
. . . . . . . . . . . . . . . . . . . .
 72
65
 73
2
 40
0.2
 49
0.1
 74
0
 49
-0.1
 74
0
  0
LTYPE
  5
1F9
100
AcDbSymbolTableRecord
100
AcDbLinetypeTableRecord
  2
DASHED
 70
64
  3
- - - - - - - - - - - - - - - - - - - -
 72
65
 73
2
 40
0.2
 49
0.1
 74
0
 49
-0.1
 74
0
  0
ENDTAB
  0
TABLE
  2
LAYER
  5
2
100
AcDbSymbolTable
 70
36
  0
LAYER
  5
10
100
AcDbSymbolTableRecord
100
AcDbLayerTableRecord
  2
0
 70
0
 62
7
  6
CONTINUOUS
370
-3
390
F
  0
LAYER
  5
1FA
100
AcDbSymbolTableRecord
100
AcDbLayerTableRecord
  2
DEFAULT_1
 70
0
 62
7
  6
CENTER
370
-3
390
F
  0
LAYER
  5
1FB
100
AcDbSymbolTableRecord
100
AcDbLayerTableRecord
  2
DEFAULT_2
 70
0
 62
7
  6
HIDDEN
370
-3
390
F
  0
LAYER
  5
1FC
100
AcDbSymbolTableRecord
100
AcDbLayerTableRecord
  2
DEFAULT_3
 70
0
 62
7
  6
PHANTOM
370
-3
390
F
  0
LAYER
  5
1FD
100
AcDbSymbolTableRecord
100
AcDbLayerTableRecord
  2
00_COMPONENTS
 70
0
 62
7
  6
CONTINUOUS
370
-3
390
F
  0
LAYER
  5
1FE
100
AcDbSymbolTableRecord
100
AcDbLayerTableRecord
  2
01_1_DEFAULT_DATUMS
 70
0
 62
7
  6
CONTINUOUS
370
-3
390
F
  0
LAYER
  5
1FF
100
AcDbSymbolTableRecord
100
AcDbLayerTableRecord
  2
01_PLANES
 70
0
 62
7
  6
CONTINUOUS
370
-3
390
F
  0
LAYER
  5
200
100
AcDbSymbolTableRecord
100
AcDbLayerTableRecord
  2
02_COORD_SYS
 70
0
 62
7
  6
CONTINUOUS
370
-3
390
F
  0
LAYER
  5
201
100
AcDbSymbolTableRecord
100
AcDbLayerTableRecord
  2
03_AXES
 70
0
 62
7
  6
CONTINUOUS
370
-3
390
F
  0
LAYER
  5
202
100
AcDbSymbolTableRecord
100
AcDbLayerTableRecord
  2
04_POINTS
 70
0
 62
7
  6
CONTINUOUS
370
-3
390
F
  0
LAYER
  5
203
100
AcDbSymbolTableRecord
100
AcDbLayerTableRecord
  2
05_CURVES
 70
0
 62
7
  6
CONTINUOUS
370
-3
390
F
  0
LAYER
  5
204
100
AcDbSymbolTableRecord
100
AcDbLayerTableRecord
  2
06_SURFS
 70
0
 62
7
  6
CONTINUOUS
370
-3
390
F
  0
LAYER
  5
205
100
AcDbSymbolTableRecord
100
AcDbLayerTableRecord
  2
07_COSMETICS
 70
0
 62
7
  6
CONTINUOUS
370
-3
390
F
  0
LAYER
  5
206
100
AcDbSymbolTableRecord
100
AcDbLayerTableRecord
  2
10_NOTES
 70
0
 62
7
  6
CONTINUOUS
370
-3
390
F
  0
LAYER
  5
207
100
AcDbSymbolTableRecord
100
AcDbLayerTableRecord
  2
11_NOTES_PUB
 70
0
 62
7
  6
CONTINUOUS
370
-3
390
F
  0
LAYER
  5
208
100
AcDbSymbolTableRecord
100
AcDbLayerTableRecord
  2
13_REF_GTOL
 70
0
 62
7
  6
CONTINUOUS
370
-3
390
F
  0
LAYER
  5
209
100
AcDbSymbolTableRecord
100
AcDbLayerTableRecord
  2
16_MISC
 70
0
 62
7
  6
CONTINUOUS
370
-3
390
F
  0
LAYER
  5
20A
100
AcDbSymbolTableRecord
100
AcDbLayerTableRecord
  2
17_NO_PRINT
 70
0
 62
7
  6
CONTINUOUS
370
-3
390
F
  0
LAYER
  5
20B
100
AcDbSymbolTableRecord
100
AcDbLayerTableRecord
  2
18_DATUM_CAMS_JOINTS
 70
0
 62
7
  6
CONTINUOUS
370
-3
390
F
  0
LAYER
  5
20C
100
AcDbSymbolTableRecord
100
AcDbLayerTableRecord
  2
19_DATUM_FUNCTIONAL
 70
0
 62
7
  6
CONTINUOUS
370
-3
390
F
  0
LAYER
  5
20D
100
AcDbSymbolTableRecord
100
AcDbLayerTableRecord
  2
20_DATUM_KINEMATIC_SCHEME
 70
0
 62
7
  6
CONTINUOUS
370
-3
390
F
  0
ENDTAB
  0
TABLE
  2
STYLE
  5
3
100
AcDbSymbolTable
 70
1
  0
STYLE
  5
11
100
AcDbSymbolTableRecord
100
AcDbTextStyleTableRecord
  2
STANDARD
 70
0
 40
0.0
 41
1.0
 50
0.0
 71
0
 42
0.2
  3
ARIAL.TTF
  4

  0
STYLE
  5
20E
100
AcDbSymbolTableRecord
100
AcDbTextStyleTableRecord
  2
TEXTSTYLE_1
 70
0
 40
0.0
 41
0.8
 50
0.0
 71
0
 42
0.2
  3
gdt
  4

  0
ENDTAB
  0
TABLE
  2
VIEW
  5
6
100
AcDbSymbolTable
 70
0
  0
ENDTAB
  0
TABLE
  2
UCS
  5
7
100
AcDbSymbolTable
 70
0
  0
ENDTAB
  0
TABLE
  2
APPID
  5
9
100
AcDbSymbolTable
 70
1
  0
APPID
  5
20F
100
AcDbSymbolTableRecord
100
AcDbRegAppTableRecord
  2
ACAD
 70
0
  0
ENDTAB
  0
TABLE
  2
BLOCK_RECORD
  5
1
100
AcDbSymbolTable
 70
0
  0
BLOCK_RECORD
  5
210
100
AcDbSymbolTableRecord
100
AcDbBlockTableRecord
  2
*Model_Space
  0
BLOCK_RECORD
  5
211
100
AcDbSymbolTableRecord
100
AcDbBlockTableRecord
  2
*Paper_Space
  0
BLOCK_RECORD
  5
212
100
AcDbSymbolTableRecord
100
AcDbBlockTableRecord
  2
_FILLED
  0
ENDTAB
  0
TABLE
  2
DIMSTYLE
  5
A
100
AcDbSymbolTable
 70
1
100
AcDbDimStyleTable
 71
0
  0
DIMSTYLE
105
213
100
AcDbSymbolTableRecord
100
AcDbDimStyleTableRecord
  2
STANDARD
 70
0
  3

  4

 40
1.0
 41
2.3550696609
 42
1.0
 43
0.38
 44
1.0
 45
0.0
 46
0.0
 47
0.01
 48
0.01
140
3.2970975252
141
0.09
142
0.0
143
25.4
144
1.0
145
0.0
146
1.0
147
0.625
 71
1
 72
0
 73
0
 74
0
 75
0
 76
0
 77
1
 78
8
 79
2
170
0
171
1
172
0
173
0
174
0
175
0
176
0
177
0
178
0
270
2
179
2
271
2
272
2
273
2
274
2
275
0
280
0
281
0
282
0
283
1
284
8
285
0
286
0
287
3
288
0
340
11
278
46
341
212
342
212
343
212
344
212
  0
ENDTAB
  0
ENDSEC
  0
SECTION
  2
BLOCKS
  0
BLOCK
  5
20
100
AcDbEntity
  8
0
100
AcDbBlockBegin
  2
*Model_Space
 70
0
 10
0.0
 20
0.0
 30
0.0
  3
*Model_Space
  1

  0
ENDBLK
  5
21
100
AcDbEntity
  8
0
100
AcDbBlockEnd
  0
BLOCK
  5
1C
100
AcDbEntity
  8
0
100
AcDbBlockBegin
  2
*Paper_Space
 70
0
 10
0.0
 20
0.0
 30
0.0
  3
*Paper_Space
  1

  0
ENDBLK
  5
1D
100
AcDbEntity
  8
0
100
AcDbBlockEnd
  0
BLOCK
  5
214
100
AcDbEntity
  8
0
100
AcDbBlockBegin
  2
_FILLED
 70
64
 10
0.0
 20
0.0
  3
_FILLED
  1

  0
SOLID
  5
215
100
AcDbEntity
  8
0
  6
BYBLOCK
 62
0
100
AcDbTrace
 10
0.0
 20
0.0
 11
-1.0
 21
0.25
 12
-1.0
 22
-0.25
 13
-1.0
 23
-0.25
  0
ENDBLK
  5
216
100
AcDbEntity
  8
0
  6
BYBLOCK
 62
0
100
AcDbBlockEnd
  0
ENDSEC
  0
SECTION
  2
ENTITIES
  0
LINE
  5
217
100
AcDbEntity
  8
0
100
AcDbLine
 62
7
  6
BYLAYER
 10
22.3751795858
 20
132.8911378556
 11
22.3751795858
 21
146.8911378556
  0
LINE
  5
218
100
AcDbEntity
  8
0
100
AcDbLine
 62
7
  6
BYLAYER
 10
31.6751795858
 20
126.1413140362
 11
31.6751795858
 21
153.6409616749
  0
LINE
  5
219
100
AcDbEntity
  8
0
100
AcDbLine
 62
7
  6
BYLAYER
 10
31.8751795858
 20
126.2912003645
 11
31.8751795858
 21
129.4910753467
  0
LINE
  5
21A
100
AcDbEntity
  8
0
100
AcDbLine
 62
7
  6
BYLAYER
 10
31.8751795858
 20
150.2912003645
 11
31.8751795858
 21
153.4910753467
  0
LINE
  5
21B
100
AcDbEntity
  8
0
100
AcDbLine
 62
7
  6
BYLAYER
 10
32.2751795858
 20
125.8911378556
 11
32.2751795858
 21
129.8911378556
  0
LINE
  5
21C
100
AcDbEntity
  8
0
100
AcDbLine
 62
7
  6
BYLAYER
 10
32.2751795858
 20
149.8911378556
 11
32.2751795858
 21
153.8911378556
  0
LINE
  5
21D
100
AcDbEntity
  8
0
100
AcDbLine
 62
7
  6
BYLAYER
 10
32.4751795858
 20
147.9735746198
 11
32.4751795858
 21
131.8087005823
  0
LINE
  5
21E
100
AcDbEntity
  8
0
100
AcDbLine
 62
7
  6
BYLAYER
 10
32.6751795858
 20
148.0911378555
 11
32.6751795858
 21
131.6911378556
  0
LINE
  5
21F
100
AcDbEntity
  8
0
100
AcDbLine
 62
7
  6
BYLAYER
 10
32.6751795858
 20
123.5911378556
 11
32.6751795858
 21
125.8911378556
  0
LINE
  5
220
100
AcDbEntity
  8
0
100
AcDbLine
 62
7
  6
BYLAYER
 10
32.6751795858
 20
153.8911378556
 11
32.6751795858
 21
156.1911378556
  0
LINE
  5
221
100
AcDbEntity
  8
0
100
AcDbLine
 62
7
  6
BYLAYER
 10
32.8751795858
 20
123.3911378556
 11
32.8751643954
 21
125.8911378556
  0
LINE
  5
222
100
AcDbEntity
  8
0
100
AcDbLine
 62
7
  6
BYLAYER
 10
32.8751795858
 20
131.4911378556
 11
32.8751795858
 21
148.2911378556
  0
LINE
  5
223
100
AcDbEntity
  8
0
100
AcDbLine
 62
7
  6
BYLAYER
 10
32.8751795855
 20
153.8911378556
 11
32.8751795858
 21
156.3911378556
  0
LINE
  5
224
100
AcDbEntity
  8
0
100
AcDbLine
 62
7
  6
BYLAYER
 10
37.075179613
 20
123.5911328179
 11
37.0751785943
 21
125.8911378556
  0
LINE
  5
225
100
AcDbEntity
  8
0
100
AcDbLine
 62
7
  6
BYLAYER
 10
37.0751785773
 20
153.8911378556
 11
37.0751795871
 21
156.1911429961
  0
LINE
  5
226
100
AcDbEntity
  8
0
100
AcDbLine
 62
7
  6
BYLAYER
 10
37.0751795858
 20
129.8911378556
 11
37.0751676804
 21
131.4852980656
  0
LINE
  5
227
100
AcDbEntity
  8
0
100
AcDbLine
 62
7
  6
BYLAYER
 10
37.0751676673
 20
148.2969776573
 11
37.0751795858
 21
149.8911378556
  0
LINE
  5
228
100
AcDbEntity
  8
0
100
AcDbLine
 62
7
  6
BYLAYER
 10
37.2751795858
 20
123.5911381779
 11
37.2751795858
 21
131.2911377687
  0
LINE
  5
229
100
AcDbEntity
  8
0
100
AcDbLine
 62
7
  6
BYLAYER
 10
37.2751795858
 20
148.4911378555
 11
37.2751795858
 21
156.1911375332
  0
LINE
  5
22A
100
AcDbEntity
  8
0
100
AcDbLine
 62
7
  6
BYLAYER
 10
37.0751188652
 20
123.5828338008
 11
37.0751796503
 21
123.5911378556
  0
LINE
  5
22B
100
AcDbEntity
  8
0
100
AcDbLine
 62
7
  6
BYLAYER
 10
37.4751795858
 20
123.3911378556
 11
37.4751795852
 21
131.2910448606
  0
LINE
  5
22C
100
AcDbEntity
  8
0
100
AcDbLine
 62
7
  6
BYLAYER
 10
37.4751795853
 20
148.4912226599
 11
37.4751795858
 21
156.3911378556
  0
LINE
  5
22D
100
AcDbEntity
  8
0
100
AcDbLine
 62
7
  6
BYLAYER
 10
37.0751188652
 20
148.290965388
 11
37.0751796503
 21
148.2911378556
  0
LINE
  5
22E
100
AcDbEntity
  8
0
100
AcDbLine
 62
7
  6
BYLAYER
 10
31.8751795858
 20
153.4911378556
 11
32.2751795858
 21
153.8911378556
  0
LINE
  5
22F
100
AcDbEntity
  8
0
100
AcDbLine
 62
7
  6
BYLAYER
 10
31.8751795858
 20
126.2911378556
 11
32.2751795858
 21
125.8911378556
  0
LINE
  5
230
100
AcDbEntity
  8
0
100
AcDbLine
 62
7
  6
BYLAYER
 10
51.6751795858
 20
156.3911378556
 11
51.6751795858
 21
123.3911378556
  0
LINE
  5
231
100
AcDbEntity
  8
0
100
AcDbLine
 62
7
  6
BYLAYER
 10
51.8751795858
 20
123.3911378556
 11
51.8751795858
 21
156.3911378556
  0
LINE
  5
232
100
AcDbEntity
  8
0
100
AcDbLine
 62
7
  6
BYLAYER
 10
52.2751795858
 20
140.3911378556
 11
52.2751795858
 21
139.8911378556
  0
LINE
  5
233
100
AcDbEntity
  8
0
100
AcDbLine
 62
7
  6
BYLAYER
 10
52.8751795858
 20
140.3911378556
 11
52.8751795858
 21
139.3911378556
  0
LINE
  5
234
100
AcDbEntity
  8
0
100
AcDbLine
 62
7
  6
BYLAYER
 10
57.3751795858
 20
156.3911378556
 11
57.3751795858
 21
123.3911378556
  0
LINE
  5
235
100
AcDbEntity
  8
0
100
AcDbLine
 62
7
  6
BYLAYER
 10
57.8751795858
 20
123.8911379805
 11
57.8751795858
 21
155.8911377306
  0
LINE
  5
236
100
AcDbEntity
  8
0
100
AcDbLine
 62
7
  6
BYLAYER
 10
58.3444459755
 20
133.5122477599
 11
58.3444459755
 21
146.2700279512
  0
LINE
  5
237
100
AcDbEntity
  8
0
100
AcDbLine
 62
7
  6
BYLAYER
 10
60.9407755018
 20
146.0428785509
 11
60.9407755018
 21
133.7393971603
  0
LINE
  5
238
100
AcDbEntity
  8
0
100
AcDbLine
 62
7
  6
BYLAYER
 10
62.6751795858
 20
144.1500012977
 11
62.6751795858
 21
135.6322757745
  0
LINE
  5
239
100
AcDbEntity
  8
0
100
AcDbLine
 62
7
  6
BYLAYER
 10
62.8216264796
 20
136.4875847494
 11
62.8216264796
 21
143.2946909618
  0
LINE
  5
23A
100
AcDbEntity
  8
0
100
AcDbLine
 62
7
  6
BYLAYER
 10
63.8751795858
 20
136.7911378556
 11
63.8751795858
 21
142.9911378556
  0
LINE
  5
23B
100
AcDbEntity
  8
0
100
AcDbLine
 62
7
  6
BYLAYER
 10
31.8751795858
 20
129.4911378556
 11
32.2751795858
 21
129.8911378556
  0
LINE
  5
23C
100
AcDbEntity
  8
0
100
AcDbLine
 62
7
  6
BYLAYER
 10
31.8751795858
 20
150.2911378556
 11
32.2751795858
 21
149.8911378556
  0
LINE
  5
23D
100
AcDbEntity
  8
0
100
AcDbLine
 62
7
  6
BYLAYER
 10
78.8751795858
 20
142.9911378556
 11
78.8751795858
 21
136.7911378556
  0
LINE
  5
23E
100
AcDbEntity
  8
0
100
AcDbLine
 62
7
  6
BYLAYER
 10
63.8751795858
 20
137.5411378556
 11
62.8216264796
 21
136.4875847494
  0
LINE
  5
23F
100
AcDbEntity
  8
0
100
AcDbLine
 62
7
  6
BYLAYER
 10
63.8751795858
 20
142.2411378556
 11
62.8216264796
 21
143.2946909618
  0
LINE
  5
240
100
AcDbEntity
  8
0
100
AcDbLine
 62
7
  6
BYLAYER
 10
80.2751795858
 20
141.7911378556
 11
80.2751795858
 21
142.9911378556
  0
LINE
  5
241
100
AcDbEntity
  8
0
100
AcDbLine
 62
7
  6
BYLAYER
 10
32.8751795858
 20
123.3911378556
 11
51.6751795858
 21
123.3911378556
  0
LINE
  5
242
100
AcDbEntity
  8
0
100
AcDbLine
 62
7
  6
BYLAYER
 10
51.8751795858
 20
123.3911378556
 11
57.3751795858
 21
123.3911378556
  0
LINE
  5
243
100
AcDbEntity
  8
0
100
AcDbLine
 62
7
  6
BYLAYER
 10
37.2751795858
 20
123.5911216888
 11
32.6751795858
 21
123.5911378556
  0
LINE
  5
244
100
AcDbEntity
  8
0
100
AcDbLine
 62
7
  6
BYLAYER
 10
57.8751795858
 20
124.8911378556
 11
37.2751795858
 21
124.8911378556
  0
LINE
  5
245
100
AcDbEntity
  8
0
100
AcDbLine
 62
7
  6
BYLAYER
 10
37.2751795858
 20
125.8911378556
 11
32.2751795858
 21
125.8911378556
  0
LINE
  5
246
100
AcDbEntity
  8
0
100
AcDbLine
 62
7
  6
BYLAYER
 10
32.0251795858
 20
126.1411378556
 11
31.6751795858
 21
126.1411378556
  0
LINE
  5
247
100
AcDbEntity
  8
0
100
AcDbLine
 62
7
  6
BYLAYER
 10
37.2751795858
 20
129.8911378556
 11
32.2751795858
 21
129.8911378556
  0
LINE
  5
248
100
AcDbEntity
  8
0
100
AcDbLine
 62
7
  6
BYLAYER
 10
37.4751795855
 20
131.2911270421
 11
37.2751795858
 21
131.2911351841
  0
LINE
  5
249
100
AcDbEntity
  8
0
100
AcDbLine
 62
7
  6
BYLAYER
 10
32.8751796653
 20
131.4144353466
 11
37.0751644652
 21
131.4144353466
  0
LINE
  5
24A
100
AcDbEntity
  8
0
100
AcDbLine
 62
7
  6
BYLAYER
 10
37.0751795871
 20
131.4911378556
 11
32.8751795857
 21
131.4911378556
  0
LINE
  5
24B
100
AcDbEntity
  8
0
100
AcDbLine
 62
7
  6
BYLAYER
 10
37.075098565
 20
131.691137855
 11
32.6751795858
 21
131.6911378556
  0
LINE
  5
24C
100
AcDbEntity
  8
0
100
AcDbLine
 62
7
  6
BYLAYER
 10
22.3751795858
 20
132.8911378556
 11
31.6751795858
 21
132.8911378556
  0
LINE
  5
24D
100
AcDbEntity
  8
0
100
AcDbLine
 62
7
  6
BYLAYER
 10
60.940775497
 20
133.7393971598
 11
58.3444459755
 21
133.5122477599
  0
LINE
  5
24E
100
AcDbEntity
  8
0
100
AcDbLine
 62
7
  6
BYLAYER
 10
78.8751795858
 20
136.7911378556
 11
63.8751795858
 21
136.7911378556
  0
LINE
  5
24F
100
AcDbEntity
  8
0
100
AcDbLine
 62
7
  6
BYLAYER
 10
51.8751795858
 20
139.3911378556
 11
52.8751795858
 21
139.3911378556
  0
LINE
  5
250
100
AcDbEntity
  8
0
100
AcDbLine
 62
7
  6
BYLAYER
 10
51.8751795858
 20
140.3911378556
 11
52.8751795858
 21
140.3911378556
  0
LINE
  5
251
100
AcDbEntity
  8
0
100
AcDbLine
 62
7
  6
BYLAYER
 10
78.8751795858
 20
141.7911378556
 11
178.8751795858
 21
141.7911378556
  0
LINE
  5
252
100
AcDbEntity
  8
0
100
AcDbLine
 62
7
  6
BYLAYER
 10
63.8751795858
 20
142.9911378556
 11
178.8751795858
 21
142.9911378556
  0
LINE
  5
253
100
AcDbEntity
  8
0
100
AcDbLine
 62
7
  6
BYLAYER
 10
60.940775497
 20
146.0428785513
 11
58.3444459755
 21
146.2700279512
  0
LINE
  5
254
100
AcDbEntity
  8
0
100
AcDbLine
 62
7
  6
BYLAYER
 10
31.6751795858
 20
146.8911378556
 11
22.3751795858
 21
146.8911378556
  0
LINE
  5
255
100
AcDbEntity
  8
0
100
AcDbLine
 62
7
  6
BYLAYER
 10
37.0743094774
 20
148.0911387847
 11
32.6751795858
 21
148.0911378556
  0
LINE
  5
256
100
AcDbEntity
  8
0
100
AcDbLine
 62
7
  6
BYLAYER
 10
32.8751714425
 20
148.2911378556
 11
37.075179613
 21
148.2911378556
  0
LINE
  5
257
100
AcDbEntity
  8
0
100
AcDbLine
 62
7
  6
BYLAYER
 10
37.0751644486
 20
148.3678403645
 11
32.8751795747
 21
148.3678403645
  0
LINE
  5
258
100
AcDbEntity
  8
0
100
AcDbLine
 62
7
  6
BYLAYER
 10
37.2751795858
 20
148.4911401849
 11
37.4751795855
 21
148.4911477399
  0
LINE
  5
259
100
AcDbEntity
  8
0
100
AcDbLine
 62
7
  6
BYLAYER
 10
37.2751795858
 20
149.8911378556
 11
32.2751795858
 21
149.8911378556
  0
LINE
  5
25A
100
AcDbEntity
  8
0
100
AcDbLine
 62
7
  6
BYLAYER
 10
32.0251795858
 20
153.6411378556
 11
31.6751795858
 21
153.6411378556
  0
LINE
  5
25B
100
AcDbEntity
  8
0
100
AcDbLine
 62
7
  6
BYLAYER
 10
37.2751795858
 20
153.8911378556
 11
32.2751795858
 21
153.8911378556
  0
LINE
  5
25C
100
AcDbEntity
  8
0
100
AcDbLine
 62
7
  6
BYLAYER
 10
37.2751795858
 20
154.8911378556
 11
57.8751795858
 21
154.8911378556
  0
LINE
  5
25D
100
AcDbEntity
  8
0
100
AcDbLine
 62
7
  6
BYLAYER
 10
37.2751795858
 20
156.1911539043
 11
32.6751795858
 21
156.1911378556
  0
LINE
  5
25E
100
AcDbEntity
  8
0
100
AcDbLine
 62
7
  6
BYLAYER
 10
57.3751795858
 20
156.3911378556
 11
51.8751795858
 21
156.3911378556
  0
LINE
  5
25F
100
AcDbEntity
  8
0
100
AcDbLine
 62
7
  6
BYLAYER
 10
32.8751795858
 20
156.3911378556
 11
51.6751795858
 21
156.3911378556
  0
LINE
  5
260
100
AcDbEntity
  8
0
100
AcDbLine
 62
7
  6
BYLAYER
 10
178.8751795858
 20
142.991121353
 11
178.8751795858
 21
141.7911543582
  0
ARC
  5
261
100
AcDbEntity
  8
0
100
AcDbCircle
 62
7
  6
BYLAYER
 10
60.7751795858
 20
144.1501086249
 40
1.9
100
AcDbArc
 50
0.0
 51
84.9999998541
  0
ARC
  5
262
100
AcDbEntity
  8
0
100
AcDbCircle
 62
7
  6
BYLAYER
 10
60.7751795858
 20
135.6321670862
 40
1.9
100
AcDbArc
 50
275.0000001459
 51
360.0
  0
ARC
  5
263
100
AcDbEntity
  8
0
100
AcDbCircle
 62
7
  6
BYLAYER
 10
58.4751795858
 20
147.7643199987
 40
1.5
100
AcDbArc
 50
243.1239780751
 51
265.0
  0
ARC
  5
264
100
AcDbEntity
  8
0
100
AcDbCircle
 62
7
  6
BYLAYER
 10
58.4751795858
 20
132.0179557125
 40
1.5
100
AcDbArc
 50
95.0
 51
116.8760219249
  0
ARC
  5
265
100
AcDbEntity
  8
0
100
AcDbCircle
 62
7
  6
BYLAYER
 10
57.3751795858
 20
155.8911378556
 40
0.5
100
AcDbArc
 50
0.0
 51
90.0
  0
ARC
  5
266
100
AcDbEntity
  8
0
100
AcDbCircle
 62
7
  6
BYLAYER
 10
57.3751795858
 20
123.8911378556
 40
0.5
100
AcDbArc
 50
270.0
 51
360.0
  0
ARC
  5
267
100
AcDbEntity
  8
0
100
AcDbCircle
 62
7
  6
BYLAYER
 10
63.1751795858
 20
136.1340310744
 40
0.5
100
AcDbArc
 50
135.0
 51
179.9999268757
  0
ARC
  5
268
100
AcDbEntity
  8
0
100
AcDbCircle
 62
7
  6
BYLAYER
 10
63.1751795858
 20
143.6482446368
 40
0.5
100
AcDbArc
 50
180.0000731243
 51
225.0
  0
ARC
  5
269
100
AcDbEntity
  8
0
100
AcDbCircle
 62
7
  6
BYLAYER
 10
37.0752108683
 20
148.4911059462
 40
0.3999566573
100
AcDbArc
 50
269.8708748803
 51
0.016719313
  0
ARC
  5
26A
100
AcDbEntity
  8
0
100
AcDbCircle
 62
7
  6
BYLAYER
 10
37.0752096218
 20
131.2911712658
 40
0.3999561896
100
AcDbArc
 50
359.9818924201
 51
90.0159090407
  0
ARC
  5
26B
100
AcDbEntity
  8
0
100
AcDbCircle
 62
7
  6
BYLAYER
 10
32.8707928363
 20
148.0197184228
 40
0.3481495745
100
AcDbArc
 50
89.278040194
 51
92.7736987576
  0
ARC
  5
26C
100
AcDbEntity
  8
0
100
AcDbCircle
 62
7
  6
BYLAYER
 10
32.864903308
 20
131.6979445405
 40
0.2836953735
100
AcDbArc
 50
267.8549392792
 51
272.0758953793
  0
ARC
  5
26D
100
AcDbEntity
  8
0
100
AcDbCircle
 62
7
  6
BYLAYER
 10
37.0751795858
 20
148.4911378556
 40
0.2
100
AcDbArc
 50
270.0
 51
359.9993316377
  0
ARC
  5
26E
100
AcDbEntity
  8
0
100
AcDbCircle
 62
7
  6
BYLAYER
 10
37.4751795858
 20
156.1911378556
 40
0.2
100
AcDbArc
 50
90.0000000846
 51
180.0
  0
ARC
  5
26F
100
AcDbEntity
  8
0
100
AcDbCircle
 62
7
  6
BYLAYER
 10
32.8751795858
 20
156.1911378556
 40
0.2
100
AcDbArc
 50
90.0
 51
180.0
  0
ARC
  5
270
100
AcDbEntity
  8
0
100
AcDbCircle
 62
7
  6
BYLAYER
 10
32.8751795858
 20
123.5911378556
 40
0.2
100
AcDbArc
 50
180.0
 51
270.0
  0
ARC
  5
271
100
AcDbEntity
  8
0
100
AcDbCircle
 62
7
  6
BYLAYER
 10
37.0751795858
 20
131.2911378556
 40
0.2
100
AcDbArc
 50
0.0006551707
 51
90.0
  0
ARC
  5
272
100
AcDbEntity
  8
0
100
AcDbCircle
 62
7
  6
BYLAYER
 10
32.8751795858
 20
148.0911378556
 40
0.2
100
AcDbArc
 50
90.0046658498
 51
180.0
  0
ARC
  5
273
100
AcDbEntity
  8
0
100
AcDbCircle
 62
7
  6
BYLAYER
 10
32.8751795858
 20
131.6911378556
 40
0.2
100
AcDbArc
 50
180.0
 51
269.9999999063
  0
ARC
  5
274
100
AcDbEntity
  8
0
100
AcDbCircle
 62
7
  6
BYLAYER
 10
37.4751795858
 20
123.5911378556
 40
0.2
100
AcDbArc
 50
180.0
 51
269.9999999259
  0
ARC
  5
275
100
AcDbEntity
  8
0
100
AcDbCircle
 62
7
  6
BYLAYER
 10
51.6751795858
 20
123.5911378556
 40
0.2
100
AcDbArc
 50
270.0
 51
360.0
  0
ARC
  5
276
100
AcDbEntity
  8
0
100
AcDbCircle
 62
7
  6
BYLAYER
 10
51.6751795858
 20
156.1911378556
 40
0.2
100
AcDbArc
 50
0.0
 51
90.0
  0
SPLINE
  5
277
100
AcDbEntity
  8
0
100
AcDbSpline
 62
7
  6
BYLAYER
 70
0
 71
3
 72
16
 73
12
 74
0
 42
0.0000001
 43
0.0000001
 44
0.0000000001
 40
0.0
 40
0.0
 40
0.0
 40
0.0
 40
0.3819868261
 40
0.5546564807
 40
0.7058473815
 40
0.829967041
 40
0.9223676582
 40
0.9553230082
 40
0.9791375433
 40
0.993811119
 40
1.0
 40
1.0
 40
1.0
 40
1.0
 10
37.0751795884
 20
156.191141167
 30
0.0
 10
37.0752241705
 20
156.2166560327
 30
0.0
 10
37.0754449021
 20
156.253710526
 30
0.0
 10
37.0746402932
 20
156.3008431028
 30
0.0
 10
37.0743937116
 20
156.3307863727
 30
0.0
 10
37.0755366198
 20
156.35529396
 30
0.0
 10
37.0767331136
 20
156.3719934458
 30
0.0
 10
37.0769059637
 20
156.3818557838
 30
0.0
 10
37.0765992373
 20
156.3868034156
 30
0.0
 10
37.0762726515
 20
156.3894321953
 30
0.0
 10
37.0755878211
 20
156.3911378556
 30
0.0
 10
37.0751744332
 20
156.3911378556
 30
0.0
  0
SPLINE
  5
278
100
AcDbEntity
  8
0
100
AcDbSpline
 62
7
  6
BYLAYER
 70
0
 71
3
 72
11
 73
7
 74
0
 42
0.0000001
 43
0.0000001
 44
0.0000000001
 40
0.0
 40
0.0
 40
0.0
 40
0.0
 40
0.3013820435
 40
0.5756571639
 40
0.8062177889
 40
1.0
 40
1.0
 40
1.0
 40
1.0
 10
37.0751795858
 20
148.3678403645
 30
0.0
 10
37.1008817244
 20
148.3678397649
 30
0.0
 10
37.1502319957
 20
148.3735768059
 30
0.0
 10
37.2150402675
 20
148.398871539
 30
0.0
 10
37.2620160973
 20
148.4381699763
 30
0.0
 10
37.2751775563
 20
148.4746025982
 30
0.0
 10
37.2751795852
 20
148.4911285237
 30
0.0
  0
SPLINE
  5
279
100
AcDbEntity
  8
0
100
AcDbSpline
 62
7
  6
BYLAYER
 70
0
 71
3
 72
18
 73
14
 74
0
 42
0.0000001
 43
0.0000001
 44
0.0000000001
 40
0.0
 40
0.0
 40
0.0
 40
0.0
 40
0.0047978267
 40
0.0190640778
 40
0.0426318665
 40
0.0753315559
 40
0.1169372054
 40
0.1669961935
 40
0.290434355
 40
0.441309688
 40
0.6142423794
 40
0.80312788
 40
1.0
 40
1.0
 40
1.0
 40
1.0
 10
37.0743936494
 20
123.3911378556
 30
0.0
 10
37.0740870701
 20
123.3911381452
 30
0.0
 10
37.0747350289
 20
123.3930961004
 30
0.0
 10
37.0740737589
 20
123.3951110423
 30
0.0
 10
37.0744366092
 20
123.4000183262
 30
0.0
 10
37.0743005518
 20
123.4060975962
 30
0.0
 10
37.074411012
 20
123.4141109472
 30
0.0
 10
37.0744760546
 20
123.4278248235
 30
0.0
 10
37.0746074666
 20
123.4485712155
 30
0.0
 10
37.0746438844
 20
123.4771421341
 30
0.0
 10
37.0747092302
 20
123.5099056368
 30
0.0
 10
37.0748753032
 20
123.545604574
 30
0.0
 10
37.0750322934
 20
123.5702540428
 30
0.0
 10
37.0751188652
 20
123.5828338008
 30
0.0
  0
SPLINE
  5
27A
100
AcDbEntity
  8
0
100
AcDbSpline
 62
7
  6
BYLAYER
 70
0
 71
3
 72
9
 73
5
 74
0
 42
0.0000001
 43
0.0000001
 44
0.0000000001
 40
0.0
 40
0.0
 40
0.0
 40
0.0
 40
0.492431533
 40
1.0
 40
1.0
 40
1.0
 40
1.0
 10
32.4751795858
 20
147.9735746198
 30
0.0
 10
32.4778334172
 20
148.0174489895
 30
0.0
 10
32.489423137
 20
148.1073915712
 30
0.0
 10
32.5356057677
 20
148.1869498559
 30
0.0
 10
32.5645035318
 20
148.2218428958
 30
0.0
  0
SPLINE
  5
27B
100
AcDbEntity
  8
0
100
AcDbSpline
 62
7
  6
BYLAYER
 70
0
 71
3
 72
9
 73
5
 74
0
 42
0.0000001
 43
0.0000001
 44
0.0000000001
 40
0.0
 40
0.0
 40
0.0
 40
0.0
 40
0.4793680194
 40
1.0
 40
1.0
 40
1.0
 40
1.0
 10
32.5645035318
 20
148.2218428958
 30
0.0
 10
32.5982443947
 20
148.2625838081
 30
0.0
 10
32.686239463
 20
148.3342694317
 30
0.0
 10
32.7965597671
 20
148.3646967006
 30
0.0
 10
32.8539454365
 20
148.3674601249
 30
0.0
  0
SPLINE
  5
27C
100
AcDbEntity
  8
0
100
AcDbSpline
 62
7
  6
BYLAYER
 70
0
 71
3
 72
11
 73
7
 74
0
 42
0.0000001
 43
0.0000001
 44
0.0000000001
 40
0.0
 40
0.0
 40
0.0
 40
0.0
 40
0.3013812062
 40
0.5756579476
 40
0.8062193498
 40
1.0
 40
1.0
 40
1.0
 40
1.0
 10
37.0751644652
 20
131.4144353463
 30
0.0
 10
37.1008680328
 20
131.4144359453
 30
0.0
 10
37.1502215275
 20
131.4087022558
 30
0.0
 10
37.2150346053
 20
131.3834076697
 30
0.0
 10
37.262014613
 20
131.3441085883
 30
0.0
 10
37.2751775585
 20
131.3076739344
 30
0.0
 10
37.2751795852
 20
131.2911471773
 30
0.0
  0
SPLINE
  5
27D
100
AcDbEntity
  8
0
100
AcDbSpline
 62
7
  6
BYLAYER
 70
0
 71
3
 72
16
 73
12
 74
0
 42
0.0000001
 43
0.0000001
 44
0.0000000001
 40
0.0
 40
0.0
 40
0.0
 40
0.0
 40
0.0042175549
 40
0.0167942174
 40
0.0376583182
 40
0.0667335602
 40
0.1492042601
 40
0.2632450905
 40
0.4073809649
 40
0.5800145341
 40
1.0
 40
1.0
 40
1.0
 40
1.0
 10
32.8751795852
 20
131.4911378556
 30
0.0
 10
32.8750717498
 20
131.4911378555
 30
0.0
 10
32.8752848661
 20
131.4904484184
 30
0.0
 10
32.8750560009
 20
131.4897356374
 30
0.0
 10
32.8751734092
 20
131.4879964153
 30
0.0
 10
32.8751066976
 20
131.4846958428
 30
0.0
 10
32.8752131317
 20
131.4788655827
 30
0.0
 10
32.8752847534
 20
131.4701861095
 30
0.0
 10
32.8753740769
 20
131.4591599952
 30
0.0
 10
32.8753736952
 20
131.440327575
 30
0.0
 10
32.8752651294
 20
131.4251732982
 30
0.0
 10
32.8751796653
 20
131.4144353466
 30
0.0
  0
SPLINE
  5
27E
100
AcDbEntity
  8
0
100
AcDbSpline
 62
7
  6
BYLAYER
 70
0
 71
3
 72
12
 73
8
 74
0
 42
0.0000001
 43
0.0000001
 44
0.0000000001
 40
0.0
 40
0.0
 40
0.0
 40
0.0
 40
0.1802664541
 40
0.2916258727
 40
0.4184903002
 40
0.7064701595
 40
1.0
 40
1.0
 40
1.0
 40
1.0
 10
32.6751706967
 20
131.6911374621
 30
0.0
 10
32.6751707677
 20
131.7063021378
 30
0.0
 10
32.6662066286
 20
131.7311077454
 30
0.0
 10
32.6422282399
 20
131.7570950851
 30
0.0
 10
32.6059287114
 20
131.7829770769
 30
0.0
 10
32.5488856012
 20
131.8034290899
 30
0.0
 10
32.4998723933
 20
131.8086997691
 30
0.0
 10
32.4751795858
 20
131.8087010199
 30
0.0
  0
SPLINE
  5
27F
100
AcDbEntity
  8
0
100
AcDbSpline
 62
7
  6
BYLAYER
 70
0
 71
3
 72
12
 73
8
 74
0
 42
0.0000001
 43
0.0000001
 44
0.0000000001
 40
0.0
 40
0.0
 40
0.0
 40
0.0
 40
0.1802662469
 40
0.2916257287
 40
0.4184902727
 40
0.7064703162
 40
1.0
 40
1.0
 40
1.0
 40
1.0
 10
32.6751708759
 20
148.0911370137
 30
0.0
 10
32.675170929
 20
148.0759723487
 30
0.0
 10
32.6662067303
 20
148.0511667628
 30
0.0
 10
32.6422283047
 20
148.0251794453
 30
0.0
 10
32.6059287288
 20
147.9992974363
 30
0.0
 10
32.5488856108
 20
147.9788453578
 30
0.0
 10
32.4998723909
 20
147.9735745822
 30
0.0
 10
32.4751795858
 20
147.9735732808
 30
0.0
  0
SPLINE
  5
280
100
AcDbEntity
  8
0
100
AcDbSpline
 62
7
  6
BYLAYER
 70
0
 71
3
 72
11
 73
7
 74
0
 42
0.0000001
 43
0.0000001
 44
0.0000000001
 40
0.0
 40
0.0
 40
0.0
 40
0.0
 40
0.2644284201
 40
0.5207243226
 40
0.765302786
 40
1.0
 40
1.0
 40
1.0
 40
1.0
 10
32.854284696
 20
131.414447962
 30
0.0
 10
32.8251787851
 20
131.4155209254
 30
0.0
 10
32.768140233
 20
131.4259496078
 30
0.0
 10
32.6891220842
 20
131.4565632686
 30
0.0
 10
32.6206871728
 20
131.5010612271
 30
0.0
 10
32.5829649732
 20
131.538526906
 30
0.0
 10
32.5663425141
 20
131.5583249761
 30
0.0
  0
SPLINE
  5
281
100
AcDbEntity
  8
0
100
AcDbSpline
 62
7
  6
BYLAYER
 70
0
 71
3
 72
9
 73
5
 74
0
 42
0.0000001
 43
0.0000001
 44
0.0000000001
 40
0.0
 40
0.0
 40
0.0
 40
0.0
 40
0.5078777052
 40
1.0
 40
1.0
 40
1.0
 40
1.0
 10
32.5663425141
 20
131.5583249761
 30
0.0
 10
32.5368901126
 20
131.5934040645
 30
0.0
 10
32.4896475958
 20
131.6734452139
 30
0.0
 10
32.4775417329
 20
131.7643806321
 30
0.0
 10
32.4751795858
 20
131.8087005823
 30
0.0
  0
SPLINE
  5
282
100
AcDbEntity
  8
0
100
AcDbSpline
 62
7
  6
BYLAYER
 70
0
 71
3
 72
18
 73
14
 74
0
 42
0.0000001
 43
0.0000001
 44
0.0000000001
 40
0.0
 40
0.0
 40
0.0
 40
0.0
 40
0.0048519569
 40
0.0192730792
 40
0.0430894163
 40
0.076129406
 40
0.1181573414
 40
0.1686724065
 40
0.2929399222
 40
0.4444135094
 40
0.6173545703
 40
0.8053180956
 40
1.0
 40
1.0
 40
1.0
 40
1.0
 10
37.0751795884
 20
131.4911378556
 30
0.0
 10
37.0755031438
 20
131.4911409197
 30
0.0
 10
37.0748203969
 20
131.4932000223
 30
0.0
 10
37.075532897
 20
131.4953318385
 30
0.0
 10
37.0751213686
 20
131.500503737
 30
0.0
 10
37.0751713355
 20
131.50691461
 30
0.0
 10
37.0748619845
 20
131.5153557064
 30
0.0
 10
37.0745411732
 20
131.5297779721
 30
0.0
 10
37.0745007077
 20
131.5515632232
 30
0.0
 10
37.0758753904
 20
131.5814489307
 30
0.0
 10
37.0770518343
 20
131.6156057747
 30
0.0
 10
37.0766724058
 20
131.6526651432
 30
0.0
 10
37.0757419037
 20
131.678167212
 30
0.0
 10
37.0751744379
 20
131.6911378556
 30
0.0
  0
SPLINE
  5
283
100
AcDbEntity
  8
0
100
AcDbSpline
 62
7
  6
BYLAYER
 70
0
 71
3
 72
16
 73
12
 74
0
 42
0.0000001
 43
0.0000001
 44
0.0000000001
 40
0.0
 40
0.0
 40
0.0
 40
0.0
 40
0.4199782747
 40
0.5926032251
 40
0.7367397182
 40
0.8507886918
 40
0.9332626411
 40
0.9623378983
 40
0.9832017536
 40
0.9957786208
 40
1.0
 40
1.0
 40
1.0
 40
1.0
 10
32.8751795747
 20
148.3678403645
 30
0.0
 10
32.8753267595
 20
148.3571028231
 30
0.0
 10
32.8755137963
 20
148.3419488396
 30
0.0
 10
32.8755140249
 20
148.3231157961
 30
0.0
 10
32.8753732465
 20
148.3120895919
 30
0.0
 10
32.8752343479
 20
148.3034104533
 30
0.0
 10
32.8750909071
 20
148.297580128
 30
0.0
 10
32.8751425511
 20
148.2942793334
 30
0.0
 10
32.8750272127
 20
148.2925401008
 30
0.0
 10
32.8752490447
 20
148.2918270891
 30
0.0
 10
32.8750472184
 20
148.2911375761
 30
0.0
 10
32.8751551558
 20
148.2911378556
 30
0.0
  0
SPLINE
  5
284
100
AcDbEntity
  8
0
100
AcDbSpline
 62
7
  6
BYLAYER
 70
0
 71
3
 72
13
 73
9
 74
0
 42
0.0000001
 43
0.0000001
 44
0.0000000001
 40
0.0
 40
0.0
 40
0.0
 40
0.0
 40
0.3733843479
 40
0.6928547863
 40
0.8173785753
 40
0.9122755001
 40
0.9738296968
 40
1.0
 40
1.0
 40
1.0
 40
1.0
 10
37.0743936494
 20
148.0911383201
 30
0.0
 10
37.0743324978
 20
148.1160098907
 30
0.0
 10
37.074269178
 20
148.1621603102
 30
0.0
 10
37.0745254082
 20
148.2166123579
 30
0.0
 10
37.0746752352
 20
148.2524995459
 30
0.0
 10
37.0746016791
 20
148.2712323872
 30
0.0
 10
37.0749608655
 20
148.2833636438
 30
0.0
 10
37.0748340575
 20
148.2892455711
 30
0.0
 10
37.0751188652
 20
148.290965388
 30
0.0
  0
ENDSEC
  0
SECTION
  2
OBJECTS
  0
DICTIONARY
  5
C
100
AcDbDictionary
280
0
281
1
  3
ACAD_GROUP
350
D
  3
ACAD_MLINESTYLE
350
17
  3
ACAD_LAYOUT
350
1A
  3
ACAD_PLOTSETTINGS
350
19
  3
ACAD_PLOTSTYLENAME
350
E
  0
DICTIONARY
  5
D
102
{ACAD_REACTORS
330
C
102
}
100
AcDbDictionary
280
0
281
1
  0
ACDBDICTIONARYWDFLT
  5
E
102
{ACAD_REACTORS
330
C
102
}
100
AcDbDictionary
281
1
  3
Normal
350
F
100
AcDbDictionaryWithDefault
340
F
  0
DICTIONARY
  5
17
102
{ACAD_REACTORS
330
C
102
}
100
AcDbDictionary
280
0
281
1
  3
Standard
350
18
  0
DICTIONARY
  5
19
102
{ACAD_REACTORS
330
C
102
}
100
AcDbDictionary
281
1
  0
DICTIONARY
  5
1A
102
{ACAD_REACTORS
330
C
102
}
100
AcDbDictionary
281
1
  3
Model
350
285
  3
Layout1
350
286
  0
ACDBPLACEHOLDER
  5
F
102
{ACAD_REACTORS
330
E
102
}
  0
MLINESTYLE
  5
18
102
{ACAD_REACTORS
330
17
102
}
100
AcDbMlineStyle
  2
STANDARD
 70
0
  3

 62
256
 51
90.0
 52
90.0
 71
2
 49
0.5
 62
256
  6
BYLAYER
 49
-0.5
 62
256
  6
BYLAYER
  0
LAYOUT
  5
285
102
{ACAD_REACTORS
330
1A
102
}
100
AcDbPlotSettings
  1

  2
none_device
  4

  6

 40
0.0
 41
0.0
 42
0.0
 43
0.0
 44
210.0
 45
297.0
 46
0.0
 47
0.0
 48
0.0
 49
0.0
140
0.0
141
0.0
142
1.0
143
1.0
 70
1024
 72
1
 73
0
 74
0
  7

 75
0
147
1.0
148
0.0
149
0.0
100
AcDbLayout
  1
Model
 70
0
 71
0
 10
0.0
 20
0.0
 11
210.0
 21
297.0
 12
0.0
 22
0.0
 32
0.0
 14
0.0
 24
0.0
 34
0.0
 15
0.0
 25
0.0
 35
0.0
146
0.0
 13
0.0
 23
0.0
 33
0.0
 16
1.0
 26
0.0
 36
0.0
 17
0.0
 27
1.0
 37
0.0
 76
0
330
210
345
0
346
0
  0
LAYOUT
  5
286
102
{ACAD_REACTORS
330
1A
102
}
100
AcDbPlotSettings
  1

  2
none_device
  4

  6

 40
0.0
 41
0.0
 42
0.0
 43
0.0
 44
210.0
 45
297.0
 46
0.0
 47
0.0
 48
0.0
 49
0.0
140
0.0
141
0.0
142
1.0
143
1.0
 70
0
 72
1
 73
0
 74
0
  7

 75
0
147
1.0
148
0.0
149
0.0
100
AcDbLayout
  1
Layout1
 70
0
 71
1
 10
0.0
 20
0.0
 11
210.0
 21
297.0
 12
0.0
 22
0.0
 32
0.0
 14
0.0
 24
0.0
 34
0.0
 15
0.0
 25
0.0
 35
0.0
146
0.0
 13
0.0
 23
0.0
 33
0.0
 16
1.0
 26
0.0
 36
0.0
 17
0.0
 27
1.0
 37
0.0
 76
0
330
211
345
0
346
0
  0
ENDSEC
  0
EOF
