999
DXF file: C:\Users\sesa63760\Dev\_Creo\CAD\MCADID0004757_3D-CAD\drw0001_2.dxf
999
Pro/ENGINEER 2019471 by Parametric Technology Corporation
  0
SECTION
  2
HEADER
  9
$ACADVER
  1
AC1024
  9
$DWGCODEPAGE
  3
ANSI_1252
  9
$EXTMAX
 10
37.8275857869
 20
53.4990141844
 30
0.0
  9
$EXTMIN
 10
0.0
 20
0.0
 30
0.0
  9
$LIMMIN
 10
0.0
 20
0.0
  9
$LIMMAX
 10
37.8275857869
 20
53.4990141844
  9
$VIEWCTR
 10
18.9137928935
 20
26.7495070922
  9
$VIEWSIZE
 40
53.4990141844
  9
$CLAYER
  8
0
  9
$LTSCALE
 40
3.4873431468
  9
$CELTYPE
  6
BYLAYER
  9
$DIMSCALE
 40
1.0
  9
$DIMASZ
 40
0.4503284022
  9
$DIMEXO
 40
1.0
  9
$DIMDLI
 40
2.4094370833
  9
$DIMEXE
 40
1.0
  9
$DIMCEN
 40
0.5706561513
  9
$DIMLFAC
 40
1.0
  9
$DIMBLK
  1
_FILLED
  9
$DIMALT
 70
0
  9
$DIMALTF
 40
0.0393700787
  9
$DIMTXT
 40
0.6304597631
  9
$DIMTOL
 70
1
  9
$DIMLIM
 70
0
  9
$DIMTFAC
 40
1.0
  9
$DIMTP
 40
0.01
  9
$DIMTM
 40
0.01
  9
$DIMGAP
 40
0.625
  9
$DIMDSEP
 70
46
  9
$AUNITS
 70
0
  9
$PDMODE
 70
3
  9
$PDSIZE
 40
0.3125
  9
$HANDSEED
  5
27C
  9
$TILEMODE
 70
1
  9
$MEASUREMENT
 70
1
  9
$INSUNITS
 70
4
  0
ENDSEC
  0
SECTION
  2
CLASSES
  0
CLASS
  1
ACDBDICTIONARYWDFLT
  2
AcDbDictionaryWithDefault
  3
AutoCAD 2000
 90
0
 91
1
280
0
281
0
  0
CLASS
  1
ACDBPLACEHOLDER
  2
AcDbPlaceHolder
  3
AutoCAD 2000
 90
0
 91
1
280
0
281
0
  0
CLASS
  1
LAYOUT
  2
AcDbLayout
  3
AutoCAD 2000
 90
0
 91
0
280
0
281
0
  0
ENDSEC
  0
SECTION
  2
TABLES
  0
TABLE
  2
VPORT
  5
8
100
AcDbSymbolTable
 70
2
  0
VPORT
  5
1F4
100
AcDbSymbolTableRecord
100
AcDbViewportTableRecord
  2
*ACTIVE
 70
0
 10
0.0
 20
0.0
 11
1.0
 21
1.0
 12
18.9137928935
 22
26.7495070922
 13
0.0
 23
0.0
 14
1.0
 24
1.0
 15
0.0
 25
0.0
 16
0.0
 26
0.0
 36
1.0
 17
0.0
 27
0.0
 37
0.0
 40
53.4990141844
 41
0.7070707071
 42
50.0
 43
0.0
 44
0.0
 50
0.0
 51
0.0
 71
0
 72
100
 73
1
 74
1
 75
0
 76
0
 77
0
 78
0
  0
ENDTAB
  0
TABLE
  2
LTYPE
  5
5
100
AcDbSymbolTable
 70
6
  0
LTYPE
  5
14
100
AcDbSymbolTableRecord
100
AcDbLinetypeTableRecord
  2
BYBLOCK
 70
0
  3

 72
65
 73
0
 40
0.0
  0
LTYPE
  5
15
100
AcDbSymbolTableRecord
100
AcDbLinetypeTableRecord
  2
BYLAYER
 70
0
  3

 72
65
 73
0
 40
0.0
  0
LTYPE
  5
16
100
AcDbSymbolTableRecord
100
AcDbLinetypeTableRecord
  2
CONTINUOUS
 70
64
  3
Solid line
 72
65
 73
0
 40
0.0
  0
LTYPE
  5
1F5
100
AcDbSymbolTableRecord
100
AcDbLinetypeTableRecord
  2
CENTER
 70
64
  3
____ _ ____ _ ____ _ ____ _ ____ _ ____ _ ____
 72
65
 73
4
 40
0.6
 49
0.375
 74
0
 49
-0.075
 74
0
 49
0.075
 74
0
 49
-0.075
 74
0
  0
LTYPE
  5
1F6
100
AcDbSymbolTableRecord
100
AcDbLinetypeTableRecord
  2
HIDDEN
 70
64
  3
- - - - - - - - - - - - - - - - - - - -
 72
65
 73
2
 40
0.2
 49
0.1
 74
0
 49
-0.1
 74
0
  0
LTYPE
  5
1F7
100
AcDbSymbolTableRecord
100
AcDbLinetypeTableRecord
  2
PHANTOM
 70
64
  3
_____ _ _ _____ _ _ _____ _ _ _____
 72
65
 73
6
 40
0.8
 49
0.45
 74
0
 49
-0.05
 74
0
 49
0.1
 74
0
 49
-0.05
 74
0
 49
0.1
 74
0
 49
-0.05
 74
0
  0
LTYPE
  5
1F8
100
AcDbSymbolTableRecord
100
AcDbLinetypeTableRecord
  2
DOT
 70
64
  3
. . . . . . . . . . . . . . . . . . . .
 72
65
 73
2
 40
0.2
 49
0.1
 74
0
 49
-0.1
 74
0
  0
LTYPE
  5
1F9
100
AcDbSymbolTableRecord
100
AcDbLinetypeTableRecord
  2
DASHED
 70
64
  3
- - - - - - - - - - - - - - - - - - - -
 72
65
 73
2
 40
0.2
 49
0.1
 74
0
 49
-0.1
 74
0
  0
ENDTAB
  0
TABLE
  2
LAYER
  5
2
100
AcDbSymbolTable
 70
36
  0
LAYER
  5
10
100
AcDbSymbolTableRecord
100
AcDbLayerTableRecord
  2
0
 70
0
 62
7
  6
CONTINUOUS
370
-3
390
F
  0
LAYER
  5
1FA
100
AcDbSymbolTableRecord
100
AcDbLayerTableRecord
  2
DEFAULT_1
 70
0
 62
7
  6
CENTER
370
-3
390
F
  0
LAYER
  5
1FB
100
AcDbSymbolTableRecord
100
AcDbLayerTableRecord
  2
DEFAULT_2
 70
0
 62
7
  6
HIDDEN
370
-3
390
F
  0
LAYER
  5
1FC
100
AcDbSymbolTableRecord
100
AcDbLayerTableRecord
  2
DEFAULT_3
 70
0
 62
7
  6
PHANTOM
370
-3
390
F
  0
LAYER
  5
1FD
100
AcDbSymbolTableRecord
100
AcDbLayerTableRecord
  2
00_COMPONENTS
 70
0
 62
7
  6
CONTINUOUS
370
-3
390
F
  0
LAYER
  5
1FE
100
AcDbSymbolTableRecord
100
AcDbLayerTableRecord
  2
01_1_DEFAULT_DATUMS
 70
0
 62
7
  6
CONTINUOUS
370
-3
390
F
  0
LAYER
  5
1FF
100
AcDbSymbolTableRecord
100
AcDbLayerTableRecord
  2
01_PLANES
 70
0
 62
7
  6
CONTINUOUS
370
-3
390
F
  0
LAYER
  5
200
100
AcDbSymbolTableRecord
100
AcDbLayerTableRecord
  2
02_COORD_SYS
 70
0
 62
7
  6
CONTINUOUS
370
-3
390
F
  0
LAYER
  5
201
100
AcDbSymbolTableRecord
100
AcDbLayerTableRecord
  2
03_AXES
 70
0
 62
7
  6
CONTINUOUS
370
-3
390
F
  0
LAYER
  5
202
100
AcDbSymbolTableRecord
100
AcDbLayerTableRecord
  2
04_POINTS
 70
0
 62
7
  6
CONTINUOUS
370
-3
390
F
  0
LAYER
  5
203
100
AcDbSymbolTableRecord
100
AcDbLayerTableRecord
  2
05_CURVES
 70
0
 62
7
  6
CONTINUOUS
370
-3
390
F
  0
LAYER
  5
204
100
AcDbSymbolTableRecord
100
AcDbLayerTableRecord
  2
06_SURFS
 70
0
 62
7
  6
CONTINUOUS
370
-3
390
F
  0
LAYER
  5
205
100
AcDbSymbolTableRecord
100
AcDbLayerTableRecord
  2
07_COSMETICS
 70
0
 62
7
  6
CONTINUOUS
370
-3
390
F
  0
LAYER
  5
206
100
AcDbSymbolTableRecord
100
AcDbLayerTableRecord
  2
10_NOTES
 70
0
 62
7
  6
CONTINUOUS
370
-3
390
F
  0
LAYER
  5
207
100
AcDbSymbolTableRecord
100
AcDbLayerTableRecord
  2
11_NOTES_PUB
 70
0
 62
7
  6
CONTINUOUS
370
-3
390
F
  0
LAYER
  5
208
100
AcDbSymbolTableRecord
100
AcDbLayerTableRecord
  2
13_REF_GTOL
 70
0
 62
7
  6
CONTINUOUS
370
-3
390
F
  0
LAYER
  5
209
100
AcDbSymbolTableRecord
100
AcDbLayerTableRecord
  2
16_MISC
 70
0
 62
7
  6
CONTINUOUS
370
-3
390
F
  0
LAYER
  5
20A
100
AcDbSymbolTableRecord
100
AcDbLayerTableRecord
  2
17_NO_PRINT
 70
0
 62
7
  6
CONTINUOUS
370
-3
390
F
  0
LAYER
  5
20B
100
AcDbSymbolTableRecord
100
AcDbLayerTableRecord
  2
18_DATUM_CAMS_JOINTS
 70
0
 62
7
  6
CONTINUOUS
370
-3
390
F
  0
LAYER
  5
20C
100
AcDbSymbolTableRecord
100
AcDbLayerTableRecord
  2
19_DATUM_FUNCTIONAL
 70
0
 62
7
  6
CONTINUOUS
370
-3
390
F
  0
LAYER
  5
20D
100
AcDbSymbolTableRecord
100
AcDbLayerTableRecord
  2
20_DATUM_KINEMATIC_SCHEME
 70
0
 62
7
  6
CONTINUOUS
370
-3
390
F
  0
ENDTAB
  0
TABLE
  2
STYLE
  5
3
100
AcDbSymbolTable
 70
1
  0
STYLE
  5
11
100
AcDbSymbolTableRecord
100
AcDbTextStyleTableRecord
  2
STANDARD
 70
0
 40
0.0
 41
1.0
 50
0.0
 71
0
 42
0.2
  3
ARIAL.TTF
  4

  0
STYLE
  5
20E
100
AcDbSymbolTableRecord
100
AcDbTextStyleTableRecord
  2
TEXTSTYLE_1
 70
0
 40
0.0
 41
0.8
 50
0.0
 71
0
 42
0.2
  3
gdt
  4

  0
ENDTAB
  0
TABLE
  2
VIEW
  5
6
100
AcDbSymbolTable
 70
0
  0
ENDTAB
  0
TABLE
  2
UCS
  5
7
100
AcDbSymbolTable
 70
0
  0
ENDTAB
  0
TABLE
  2
APPID
  5
9
100
AcDbSymbolTable
 70
1
  0
APPID
  5
20F
100
AcDbSymbolTableRecord
100
AcDbRegAppTableRecord
  2
ACAD
 70
0
  0
ENDTAB
  0
TABLE
  2
BLOCK_RECORD
  5
1
100
AcDbSymbolTable
 70
0
  0
BLOCK_RECORD
  5
210
100
AcDbSymbolTableRecord
100
AcDbBlockTableRecord
  2
*Model_Space
  0
BLOCK_RECORD
  5
211
100
AcDbSymbolTableRecord
100
AcDbBlockTableRecord
  2
*Paper_Space
  0
BLOCK_RECORD
  5
212
100
AcDbSymbolTableRecord
100
AcDbBlockTableRecord
  2
_FILLED
  0
ENDTAB
  0
TABLE
  2
DIMSTYLE
  5
A
100
AcDbSymbolTable
 70
1
100
AcDbDimStyleTable
 71
0
  0
DIMSTYLE
105
213
100
AcDbSymbolTableRecord
100
AcDbDimStyleTableRecord
  2
STANDARD
 70
0
  3

  4

 40
1.0
 41
0.4503284022
 42
1.0
 43
0.38
 44
1.0
 45
0.0
 46
0.0
 47
0.01
 48
0.01
140
0.6304597631
141
0.09
142
0.0
143
25.4
144
1.0
145
0.0
146
1.0
147
0.625
 71
1
 72
0
 73
0
 74
0
 75
0
 76
0
 77
1
 78
8
 79
2
170
0
171
1
172
0
173
0
174
0
175
0
176
0
177
0
178
0
270
2
179
2
271
2
272
2
273
2
274
2
275
0
280
0
281
0
282
0
283
1
284
8
285
0
286
0
287
3
288
0
340
11
278
46
341
212
342
212
343
212
344
212
  0
ENDTAB
  0
ENDSEC
  0
SECTION
  2
BLOCKS
  0
BLOCK
  5
20
100
AcDbEntity
  8
0
100
AcDbBlockBegin
  2
*Model_Space
 70
0
 10
0.0
 20
0.0
 30
0.0
  3
*Model_Space
  1

  0
ENDBLK
  5
21
100
AcDbEntity
  8
0
100
AcDbBlockEnd
  0
BLOCK
  5
1C
100
AcDbEntity
  8
0
100
AcDbBlockBegin
  2
*Paper_Space
 70
0
 10
0.0
 20
0.0
 30
0.0
  3
*Paper_Space
  1

  0
ENDBLK
  5
1D
100
AcDbEntity
  8
0
100
AcDbBlockEnd
  0
BLOCK
  5
214
100
AcDbEntity
  8
0
100
AcDbBlockBegin
  2
_FILLED
 70
64
 10
0.0
 20
0.0
  3
_FILLED
  1

  0
SOLID
  5
215
100
AcDbEntity
  8
0
  6
BYBLOCK
 62
0
100
AcDbTrace
 10
0.0
 20
0.0
 11
-1.0
 21
0.25
 12
-1.0
 22
-0.25
 13
-1.0
 23
-0.25
  0
ENDBLK
  5
216
100
AcDbEntity
  8
0
  6
BYBLOCK
 62
0
100
AcDbBlockEnd
  0
ENDSEC
  0
SECTION
  2
ENTITIES
  0
LINE
  5
217
100
AcDbEntity
  8
0
100
AcDbLine
 62
7
  6
BYLAYER
 10
13.3257227604
 20
3.5687836879
 11
25.0257211826
 21
3.5687836879
  0
LINE
  5
218
100
AcDbEntity
  8
0
100
AcDbLine
 62
7
  6
BYLAYER
 10
25.5257219715
 20
4.0687836879
 11
12.8257219715
 21
4.0687836879
  0
LINE
  5
219
100
AcDbEntity
  8
0
100
AcDbLine
 62
7
  6
BYLAYER
 10
12.8257219715
 20
6.0687836879
 11
25.5257219715
 21
6.0687836879
  0
LINE
  5
21A
100
AcDbEntity
  8
0
100
AcDbLine
 62
7
  6
BYLAYER
 10
25.3257219715
 20
7.2687836879
 11
13.0257219715
 21
7.2687836879
  0
LINE
  5
21B
100
AcDbEntity
  8
0
100
AcDbLine
 62
7
  6
BYLAYER
 10
25.5257219715
 20
7.4687836879
 11
12.8257219715
 21
7.4687836879
  0
LINE
  5
21C
100
AcDbEntity
  8
0
100
AcDbLine
 62
7
  6
BYLAYER
 10
12.8257219715
 20
8.4187836879
 11
25.5257219715
 21
8.4187836879
  0
LINE
  5
21D
100
AcDbEntity
  8
0
100
AcDbLine
 62
7
  6
BYLAYER
 10
13.0257219715
 20
7.2687836879
 11
12.8257219715
 21
7.4687836879
  0
LINE
  5
21E
100
AcDbEntity
  8
0
100
AcDbLine
 62
7
  6
BYLAYER
 10
25.8757219715
 20
9.7687836879
 11
12.4757219715
 21
9.7687836879
  0
LINE
  5
21F
100
AcDbEntity
  8
0
100
AcDbLine
 62
7
  6
BYLAYER
 10
22.2255406741
 20
9.8687836879
 11
21.3227442804
 21
9.8687836879
  0
LINE
  5
220
100
AcDbEntity
  8
0
100
AcDbLine
 62
7
  6
BYLAYER
 10
12.4757219715
 20
9.8687836879
 11
11.9924131659
 21
9.8687836879
  0
LINE
  5
221
100
AcDbEntity
  8
0
100
AcDbLine
 62
7
  6
BYLAYER
 10
22.2791424773
 20
10.0687836879
 11
21.2691424773
 21
10.0687836879
  0
LINE
  5
222
100
AcDbEntity
  8
0
100
AcDbLine
 62
7
  6
BYLAYER
 10
12.4757219715
 20
10.0687836879
 11
11.9388113628
 21
10.0687836879
  0
LINE
  5
223
100
AcDbEntity
  8
0
100
AcDbLine
 62
7
  6
BYLAYER
 10
27.1257219715
 20
11.8687836879
 11
11.2257219715
 21
11.8687836879
  0
LINE
  5
224
100
AcDbEntity
  8
0
100
AcDbLine
 62
7
  6
BYLAYER
 10
11.2257219715
 20
13.6687836879
 11
27.1257219715
 21
13.6687836879
  0
LINE
  5
225
100
AcDbEntity
  8
0
100
AcDbLine
 62
7
  6
BYLAYER
 10
11.4257220728
 20
13.8687836879
 11
26.9257218702
 21
13.8687836879
  0
LINE
  5
226
100
AcDbEntity
  8
0
100
AcDbLine
 62
7
  6
BYLAYER
 10
11.9924012012
 20
9.8687836879
 11
11.9388113628
 21
10.0687836879
  0
LINE
  5
227
100
AcDbEntity
  8
0
100
AcDbLine
 62
7
  6
BYLAYER
 10
27.6757219715
 20
16.0987836879
 11
10.6757219715
 21
16.0987836879
  0
LINE
  5
228
100
AcDbEntity
  8
0
100
AcDbLine
 62
7
  6
BYLAYER
 10
10.6757219715
 20
23.598783688
 11
10.6757219715
 21
20.0987836879
  0
LINE
  5
229
100
AcDbEntity
  8
0
100
AcDbLine
 62
7
  6
BYLAYER
 10
10.6757219715
 20
19.598783688
 11
10.6757219715
 21
16.0987836879
  0
LINE
  5
22A
100
AcDbEntity
  8
0
100
AcDbLine
 62
7
  6
BYLAYER
 10
13.9257219715
 20
33.0687836879
 11
13.1757219715
 21
32.3187836879
  0
LINE
  5
22B
100
AcDbEntity
  8
0
100
AcDbLine
 62
7
  6
BYLAYER
 10
11.2257219715
 20
13.6687836879
 11
11.2257219715
 21
11.8687836879
  0
LINE
  5
22C
100
AcDbEntity
  8
0
100
AcDbLine
 62
7
  6
BYLAYER
 10
11.9388113628
 20
10.0687836879
 11
11.9388113628
 21
11.8687836879
  0
LINE
  5
22D
100
AcDbEntity
  8
0
100
AcDbLine
 62
7
  6
BYLAYER
 10
12.4757219715
 20
11.8687836879
 11
12.4757219715
 21
9.7687836879
  0
LINE
  5
22E
100
AcDbEntity
  8
0
100
AcDbLine
 62
7
  6
BYLAYER
 10
12.8257219715
 20
8.4187836879
 11
12.8257219715
 21
7.4687836879
  0
LINE
  5
22F
100
AcDbEntity
  8
0
100
AcDbLine
 62
7
  6
BYLAYER
 10
12.8257219715
 20
6.0687836879
 11
12.8257219715
 21
4.0687836879
  0
LINE
  5
230
100
AcDbEntity
  8
0
100
AcDbLine
 62
7
  6
BYLAYER
 10
10.6757219715
 20
19.5987836879
 11
27.6757219715
 21
19.5987836879
  0
LINE
  5
231
100
AcDbEntity
  8
0
100
AcDbLine
 62
7
  6
BYLAYER
 10
27.6757219715
 20
20.0987836879
 11
10.6757219715
 21
20.0987836879
  0
LINE
  5
232
100
AcDbEntity
  8
0
100
AcDbLine
 62
7
  6
BYLAYER
 10
13.1757219715
 20
32.3187836879
 11
13.1757219715
 21
23.5987836879
  0
LINE
  5
233
100
AcDbEntity
  8
0
100
AcDbLine
 62
7
  6
BYLAYER
 10
13.1757219715
 20
20.0987836879
 11
13.1757219715
 21
19.5987836879
  0
LINE
  5
234
100
AcDbEntity
  8
0
100
AcDbLine
 62
7
  6
BYLAYER
 10
13.1757219715
 20
16.0987836879
 11
13.1757219715
 21
13.8687836879
  0
LINE
  5
235
100
AcDbEntity
  8
0
100
AcDbLine
 62
7
  6
BYLAYER
 10
13.5757219715
 20
7.2687836879
 11
13.5757219715
 21
6.0687836879
  0
LINE
  5
236
100
AcDbEntity
  8
0
100
AcDbLine
 62
7
  6
BYLAYER
 10
13.6757219715
 20
9.7687836879
 11
13.6757219715
 21
8.4187836879
  0
LINE
  5
237
100
AcDbEntity
  8
0
100
AcDbLine
 62
7
  6
BYLAYER
 10
14.2439373047
 20
41.0687966024
 11
14.2439373047
 21
33.0687836879
  0
LINE
  5
238
100
AcDbEntity
  8
0
100
AcDbLine
 62
7
  6
BYLAYER
 10
16.1446330582
 20
46.9687847184
 11
16.1446330582
 21
41.8687836879
  0
LINE
  5
239
100
AcDbEntity
  8
0
100
AcDbLine
 62
7
  6
BYLAYER
 10
10.6757219715
 20
23.5987836879
 11
27.6757219715
 21
23.5987836879
  0
LINE
  5
23A
100
AcDbEntity
  8
0
100
AcDbLine
 62
7
  6
BYLAYER
 10
21.3227323157
 20
9.8687836879
 11
21.2914048107
 21
9.9856995285
  0
LINE
  5
23B
100
AcDbEntity
  8
0
100
AcDbLine
 62
7
  6
BYLAYER
 10
19.1757219715
 20
23.2464426712
 11
19.1757219715
 21
20.4511247047
  0
LINE
  5
23C
100
AcDbEntity
  8
0
100
AcDbLine
 62
7
  6
BYLAYER
 10
19.1757219715
 20
19.2464426712
 11
19.1757219715
 21
16.4511247047
  0
LINE
  5
23D
100
AcDbEntity
  8
0
100
AcDbLine
 62
7
  6
BYLAYER
 10
22.1749216391
 20
9.8687836879
 11
22.1749216391
 21
9.7687836879
  0
LINE
  5
23E
100
AcDbEntity
  8
0
100
AcDbLine
 62
7
  6
BYLAYER
 10
22.2068108847
 20
41.8687836879
 11
22.2068108847
 21
46.9687793897
  0
LINE
  5
23F
100
AcDbEntity
  8
0
100
AcDbLine
 62
7
  6
BYLAYER
 10
22.2791424773
 20
10.0687836879
 11
22.2791424773
 21
11.8687836879
  0
LINE
  5
240
100
AcDbEntity
  8
0
100
AcDbLine
 62
7
  6
BYLAYER
 10
24.1075066383
 20
33.0687836879
 11
24.1075066383
 21
41.0687966014
  0
LINE
  5
241
100
AcDbEntity
  8
0
100
AcDbLine
 62
7
  6
BYLAYER
 10
24.6757219715
 20
9.7687836879
 11
24.6757219715
 21
8.4187836879
  0
LINE
  5
242
100
AcDbEntity
  8
0
100
AcDbLine
 62
7
  6
BYLAYER
 10
24.7757219715
 20
7.2687836879
 11
24.7757219715
 21
6.0687836879
  0
LINE
  5
243
100
AcDbEntity
  8
0
100
AcDbLine
 62
7
  6
BYLAYER
 10
25.1757219715
 20
13.8687836879
 11
25.1757219715
 21
16.0987836879
  0
LINE
  5
244
100
AcDbEntity
  8
0
100
AcDbLine
 62
7
  6
BYLAYER
 10
25.1757219715
 20
19.5987836879
 11
25.1757219715
 21
20.0987836879
  0
LINE
  5
245
100
AcDbEntity
  8
0
100
AcDbLine
 62
7
  6
BYLAYER
 10
25.1757219715
 20
23.5987836879
 11
25.1757219715
 21
32.3187836879
  0
LINE
  5
246
100
AcDbEntity
  8
0
100
AcDbLine
 62
7
  6
BYLAYER
 10
25.5257219715
 20
6.0687836879
 11
25.5257219715
 21
4.0687836879
  0
LINE
  5
247
100
AcDbEntity
  8
0
100
AcDbLine
 62
7
  6
BYLAYER
 10
25.5257219715
 20
7.4687836879
 11
25.5257219715
 21
8.4187836879
  0
LINE
  5
248
100
AcDbEntity
  8
0
100
AcDbLine
 62
7
  6
BYLAYER
 10
25.8757219715
 20
9.7687836879
 11
25.8757219715
 21
11.8687836879
  0
LINE
  5
249
100
AcDbEntity
  8
0
100
AcDbLine
 62
7
  6
BYLAYER
 10
13.1757219715
 20
32.3187836879
 11
25.1757219715
 21
32.3187836879
  0
LINE
  5
24A
100
AcDbEntity
  8
0
100
AcDbLine
 62
7
  6
BYLAYER
 10
13.9257264699
 20
33.0687836879
 11
24.4257174731
 21
33.0687836879
  0
LINE
  5
24B
100
AcDbEntity
  8
0
100
AcDbLine
 62
7
  6
BYLAYER
 10
27.1257219715
 20
13.6687836879
 11
27.1257219715
 21
11.8687836879
  0
LINE
  5
24C
100
AcDbEntity
  8
0
100
AcDbLine
 62
7
  6
BYLAYER
 10
22.2255526388
 20
9.8687836879
 11
22.2791424773
 21
10.0687836879
  0
LINE
  5
24D
100
AcDbEntity
  8
0
100
AcDbLine
 62
7
  6
BYLAYER
 10
24.4257219715
 20
33.0687836879
 11
25.1757219715
 21
32.3187836879
  0
LINE
  5
24E
100
AcDbEntity
  8
0
100
AcDbLine
 62
7
  6
BYLAYER
 10
27.6757219715
 20
16.0987836872
 11
27.6757219715
 21
19.598783688
  0
LINE
  5
24F
100
AcDbEntity
  8
0
100
AcDbLine
 62
7
  6
BYLAYER
 10
27.6757219715
 20
20.0987836872
 11
27.6757219715
 21
23.598783688
  0
LINE
  5
250
100
AcDbEntity
  8
0
100
AcDbLine
 62
7
  6
BYLAYER
 10
14.2439373047
 20
41.0687836879
 11
24.1075066383
 21
41.0687836879
  0
LINE
  5
251
100
AcDbEntity
  8
0
100
AcDbLine
 62
7
  6
BYLAYER
 10
15.1060168225
 20
41.8687836879
 11
23.2454271205
 21
41.8687836879
  0
LINE
  5
252
100
AcDbEntity
  8
0
100
AcDbLine
 62
7
  6
BYLAYER
 10
25.3257219715
 20
7.2687836879
 11
25.5257219715
 21
7.4687836879
  0
LINE
  5
253
100
AcDbEntity
  8
0
100
AcDbLine
 62
7
  6
BYLAYER
 10
20.0620489492
 20
44.6250670478
 11
20.4215037791
 21
44.6884486327
  0
LINE
  5
254
100
AcDbEntity
  8
0
100
AcDbLine
 62
7
  6
BYLAYER
 10
20.0620489492
 20
44.312500328
 11
20.4215037791
 21
44.2491187432
  0
LINE
  5
255
100
AcDbEntity
  8
0
100
AcDbLine
 62
7
  6
BYLAYER
 10
16.1446330582
 20
46.9687836879
 11
22.2068108847
 21
46.9687836879
  0
LINE
  5
256
100
AcDbEntity
  8
0
100
AcDbLine
 62
7
  6
BYLAYER
 10
16.3779550048
 20
47.1687836879
 11
21.9734889382
 21
47.1687836879
  0
ARC
  5
257
100
AcDbEntity
  8
0
100
AcDbCircle
 62
7
  6
BYLAYER
 10
76.917888594
 20
-25.5988995729
 40
91.5019430546
100
AcDbArc
 50
132.4950097086
 51
133.231412306
  0
ARC
  5
258
100
AcDbEntity
  8
0
100
AcDbCircle
 62
7
  6
BYLAYER
 10
3.0495835948
 20
24.8562262234
 40
29.2568686802
100
AcDbArc
 50
49.0959546862
 51
49.69779063
  0
ARC
  5
259
100
AcDbEntity
  8
0
100
AcDbCircle
 62
7
  6
BYLAYER
 10
35.3014029594
 20
24.8567647486
 40
29.256166191
100
AcDbArc
 50
130.3022177762
 51
130.9040520433
  0
ARC
  5
25A
100
AcDbEntity
  8
0
100
AcDbCircle
 62
7
  6
BYLAYER
 10
19.1757219715
 20
44.4337836879
 40
5.3
100
AcDbArc
 50
326.8100510535
 51
213.1902684681
  0
ARC
  5
25B
100
AcDbEntity
  8
0
100
AcDbCircle
 62
7
  6
BYLAYER
 10
19.1757219715
 20
44.4337836879
 40
5.0734989707
100
AcDbArc
 50
180.0
 51
215.8044220505
  0
ARC
  5
25C
100
AcDbEntity
  8
0
100
AcDbCircle
 62
7
  6
BYLAYER
 10
19.1757219715
 20
44.4337836879
 40
5.0734989707
100
AcDbArc
 50
324.146210619
 51
179.5739045596
  0
ARC
  5
25D
100
AcDbEntity
  8
0
100
AcDbCircle
 62
7
  6
BYLAYER
 10
19.1756887456
 20
44.4399597667
 40
5.0734477901
100
AcDbArc
 50
179.6436479383
 51
180.0697480978
  0
ARC
  5
25E
100
AcDbEntity
  8
0
100
AcDbCircle
 62
7
  6
BYLAYER
 10
19.1757219715
 20
44.4337836879
 40
4.8820460743
100
AcDbArc
 50
324.5436073299
 51
215.3925446245
  0
CIRCLE
  5
25F
100
AcDbEntity
  8
0
100
AcDbCircle
 62
7
  6
BYLAYER
 10
19.1757219715
 20
44.4687836879
 40
1.275
  0
CIRCLE
  5
260
100
AcDbEntity
  8
0
100
AcDbCircle
 62
7
  6
BYLAYER
 10
19.1757219715
 20
44.4687836879
 40
1.265
  0
ARC
  5
261
100
AcDbEntity
  8
0
100
AcDbCircle
 62
7
  6
BYLAYER
 10
19.1757219715
 20
44.4687836879
 40
1.0340598923
100
AcDbArc
 50
10.0
 51
350.0
  0
ARC
  5
262
100
AcDbEntity
  8
0
100
AcDbCircle
 62
7
  6
BYLAYER
 10
19.1757219715
 20
44.4687836879
 40
0.9
100
AcDbArc
 50
10.0
 51
350.0
  0
ARC
  5
263
100
AcDbEntity
  8
0
100
AcDbCircle
 62
7
  6
BYLAYER
 10
25.0257219715
 20
4.0687836879
 40
0.5
100
AcDbArc
 50
269.9999095968
 51
360.0
  0
ARC
  5
264
100
AcDbEntity
  8
0
100
AcDbCircle
 62
7
  6
BYLAYER
 10
13.3257219715
 20
4.0687836879
 40
0.5
100
AcDbArc
 50
180.0
 51
270.0000904032
  0
ARC
  5
265
100
AcDbEntity
  8
0
100
AcDbCircle
 62
7
  6
BYLAYER
 10
26.9257219715
 20
13.6687836879
 40
0.2
100
AcDbArc
 50
0.0
 51
90.000029012
  0
ARC
  5
266
100
AcDbEntity
  8
0
100
AcDbCircle
 62
7
  6
BYLAYER
 10
11.4257219715
 20
13.6687836879
 40
0.2
100
AcDbArc
 50
89.999970988
 51
180.0
  0
SPLINE
  5
267
100
AcDbEntity
  8
0
100
AcDbSpline
 62
7
  6
BYLAYER
 70
0
 71
3
 72
11
 73
7
 74
0
 42
0.0000001
 43
0.0000001
 44
0.0000000001
 40
0.0
 40
0.0
 40
0.0
 40
0.0
 40
0.2497426692
 40
0.499603307
 40
0.7496729258
 40
1.0
 40
1.0
 40
1.0
 40
1.0
 10
14.9257219701
 20
20.0987836879
 30
0.0
 10
14.5703713445
 20
20.098783688
 30
0.0
 10
13.8594036266
 20
20.1148086031
 30
0.0
 10
12.7947514413
 20
20.1852590624
 30
0.0
 10
11.7329347113
 20
20.2977047745
 30
0.0
 10
11.0277170136
 20
20.3966708822
 30
0.0
 10
10.6757219715
 20
20.4511247047
 30
0.0
  0
SPLINE
  5
268
100
AcDbEntity
  8
0
100
AcDbSpline
 62
7
  6
BYLAYER
 70
0
 71
3
 72
11
 73
7
 74
0
 42
0.0000001
 43
0.0000001
 44
0.0000000001
 40
0.0
 40
0.0
 40
0.0
 40
0.0
 40
0.2497426693
 40
0.4996033072
 40
0.7496729248
 40
1.0
 40
1.0
 40
1.0
 40
1.0
 10
14.9257219701
 20
23.5987836879
 30
0.0
 10
15.2810725963
 20
23.598783688
 30
0.0
 10
15.9920403161
 20
23.5827587825
 30
0.0
 10
17.0566924962
 20
23.5123082748
 30
0.0
 10
18.1185092417
 20
23.3998626943
 30
0.0
 10
18.8237269277
 20
23.3008964939
 30
0.0
 10
19.1757219715
 20
23.2464426712
 30
0.0
  0
SPLINE
  5
269
100
AcDbEntity
  8
0
100
AcDbSpline
 62
7
  6
BYLAYER
 70
0
 71
3
 72
11
 73
7
 74
0
 42
0.0000001
 43
0.0000001
 44
0.0000000001
 40
0.0
 40
0.0
 40
0.0
 40
0.0
 40
0.2503270763
 40
0.5003966946
 40
0.7502573322
 40
1.0
 40
1.0
 40
1.0
 40
1.0
 10
27.6757219715
 20
20.4511247047
 30
0.0
 10
27.3237269263
 20
20.3966708817
 30
0.0
 10
26.6185092382
 20
20.2977046809
 30
0.0
 10
25.5566924913
 20
20.1852590972
 30
0.0
 10
24.4920403129
 20
20.114808594
 30
0.0
 10
23.781072596
 20
20.098783688
 30
0.0
 10
23.4257219722
 20
20.0987836879
 30
0.0
  0
SPLINE
  5
26A
100
AcDbEntity
  8
0
100
AcDbSpline
 62
7
  6
BYLAYER
 70
0
 71
3
 72
11
 73
7
 74
0
 42
0.0000001
 43
0.0000001
 44
0.0000000001
 40
0.0
 40
0.0
 40
0.0
 40
0.0
 40
0.2503270754
 40
0.5003966947
 40
0.7502573324
 40
1.0
 40
1.0
 40
1.0
 40
1.0
 10
10.6757219715
 20
23.2464426712
 30
0.0
 10
11.0277170152
 20
23.3008964939
 30
0.0
 10
11.7329347153
 20
23.3998626022
 30
0.0
 10
12.7947514474
 20
23.5123083174
 30
0.0
 10
13.8594036314
 20
23.5827587723
 30
0.0
 10
14.5703713467
 20
23.5987836879
 30
0.0
 10
14.9257219701
 20
23.5987836879
 30
0.0
  0
SPLINE
  5
26B
100
AcDbEntity
  8
0
100
AcDbSpline
 62
7
  6
BYLAYER
 70
0
 71
3
 72
11
 73
7
 74
0
 42
0.0000001
 43
0.0000001
 44
0.0000000001
 40
0.0
 40
0.0
 40
0.0
 40
0.0
 40
0.2503270754
 40
0.5003966947
 40
0.7502573324
 40
1.0
 40
1.0
 40
1.0
 40
1.0
 10
19.1757219715
 20
23.2464426712
 30
0.0
 10
19.5277170154
 20
23.300896494
 30
0.0
 10
20.2329347159
 20
23.3998626023
 30
0.0
 10
21.2947514484
 20
23.5123083175
 30
0.0
 10
22.359403633
 20
23.5827587724
 30
0.0
 10
23.0703713486
 20
23.598783688
 30
0.0
 10
23.4257219722
 20
23.598783688
 30
0.0
  0
SPLINE
  5
26C
100
AcDbEntity
  8
0
100
AcDbSpline
 62
7
  6
BYLAYER
 70
0
 71
3
 72
11
 73
7
 74
0
 42
0.0000001
 43
0.0000001
 44
0.0000000001
 40
0.0
 40
0.0
 40
0.0
 40
0.0
 40
0.2503270763
 40
0.5003966946
 40
0.7502573322
 40
1.0
 40
1.0
 40
1.0
 40
1.0
 10
19.1757219715
 20
20.4511247047
 30
0.0
 10
18.8237269261
 20
20.3966708817
 30
0.0
 10
18.1185092377
 20
20.2977046808
 30
0.0
 10
17.0566924902
 20
20.1852590971
 30
0.0
 10
15.9920403113
 20
20.1148085939
 30
0.0
 10
15.2810725941
 20
20.0987836879
 30
0.0
 10
14.9257219701
 20
20.0987836879
 30
0.0
  0
SPLINE
  5
26D
100
AcDbEntity
  8
0
100
AcDbSpline
 62
7
  6
BYLAYER
 70
0
 71
3
 72
11
 73
7
 74
0
 42
0.0000001
 43
0.0000001
 44
0.0000000001
 40
0.0
 40
0.0
 40
0.0
 40
0.0
 40
0.2497426692
 40
0.499603307
 40
0.7496729258
 40
1.0
 40
1.0
 40
1.0
 40
1.0
 10
23.4257219722
 20
20.0987836879
 30
0.0
 10
23.0703713464
 20
20.0987836879
 30
0.0
 10
22.3594036282
 20
20.114808603
 30
0.0
 10
21.2947514424
 20
20.1852590623
 30
0.0
 10
20.2329347118
 20
20.2977047744
 30
0.0
 10
19.5277170138
 20
20.3966708822
 30
0.0
 10
19.1757219715
 20
20.4511247047
 30
0.0
  0
SPLINE
  5
26E
100
AcDbEntity
  8
0
100
AcDbSpline
 62
7
  6
BYLAYER
 70
0
 71
3
 72
11
 73
7
 74
0
 42
0.0000001
 43
0.0000001
 44
0.0000000001
 40
0.0
 40
0.0
 40
0.0
 40
0.0
 40
0.2497426693
 40
0.4996033072
 40
0.7496729248
 40
1.0
 40
1.0
 40
1.0
 40
1.0
 10
23.4257219722
 20
23.598783688
 30
0.0
 10
23.7810725982
 20
23.5987836879
 30
0.0
 10
24.4920403176
 20
23.5827587824
 30
0.0
 10
25.5566924973
 20
23.5123082747
 30
0.0
 10
26.6185092422
 20
23.3998626942
 30
0.0
 10
27.3237269279
 20
23.3008964939
 30
0.0
 10
27.6757219715
 20
23.2464426712
 30
0.0
  0
SPLINE
  5
26F
100
AcDbEntity
  8
0
100
AcDbSpline
 62
7
  6
BYLAYER
 70
0
 71
3
 72
11
 73
7
 74
0
 42
0.0000001
 43
0.0000001
 44
0.0000000001
 40
0.0
 40
0.0
 40
0.0
 40
0.0
 40
0.2497426692
 40
0.499603307
 40
0.7496729258
 40
1.0
 40
1.0
 40
1.0
 40
1.0
 10
14.9257219701
 20
16.0987836879
 30
0.0
 10
14.5703713445
 20
16.098783688
 30
0.0
 10
13.8594036266
 20
16.1148086031
 30
0.0
 10
12.7947514413
 20
16.1852590624
 30
0.0
 10
11.7329347113
 20
16.2977047745
 30
0.0
 10
11.0277170136
 20
16.3966708822
 30
0.0
 10
10.6757219715
 20
16.4511247047
 30
0.0
  0
SPLINE
  5
270
100
AcDbEntity
  8
0
100
AcDbSpline
 62
7
  6
BYLAYER
 70
0
 71
3
 72
11
 73
7
 74
0
 42
0.0000001
 43
0.0000001
 44
0.0000000001
 40
0.0
 40
0.0
 40
0.0
 40
0.0
 40
0.2497426693
 40
0.4996033072
 40
0.7496729248
 40
1.0
 40
1.0
 40
1.0
 40
1.0
 10
14.9257219701
 20
19.5987836879
 30
0.0
 10
15.2810725963
 20
19.598783688
 30
0.0
 10
15.9920403161
 20
19.5827587825
 30
0.0
 10
17.0566924962
 20
19.5123082748
 30
0.0
 10
18.1185092417
 20
19.3998626943
 30
0.0
 10
18.8237269277
 20
19.3008964939
 30
0.0
 10
19.1757219715
 20
19.2464426712
 30
0.0
  0
SPLINE
  5
271
100
AcDbEntity
  8
0
100
AcDbSpline
 62
7
  6
BYLAYER
 70
0
 71
3
 72
11
 73
7
 74
0
 42
0.0000001
 43
0.0000001
 44
0.0000000001
 40
0.0
 40
0.0
 40
0.0
 40
0.0
 40
0.2503270763
 40
0.5003966946
 40
0.7502573322
 40
1.0
 40
1.0
 40
1.0
 40
1.0
 10
27.6757219715
 20
16.4511247047
 30
0.0
 10
27.3237269263
 20
16.3966708817
 30
0.0
 10
26.6185092382
 20
16.2977046809
 30
0.0
 10
25.5566924913
 20
16.1852590972
 30
0.0
 10
24.4920403129
 20
16.114808594
 30
0.0
 10
23.781072596
 20
16.098783688
 30
0.0
 10
23.4257219722
 20
16.0987836879
 30
0.0
  0
SPLINE
  5
272
100
AcDbEntity
  8
0
100
AcDbSpline
 62
7
  6
BYLAYER
 70
0
 71
3
 72
11
 73
7
 74
0
 42
0.0000001
 43
0.0000001
 44
0.0000000001
 40
0.0
 40
0.0
 40
0.0
 40
0.0
 40
0.2503270754
 40
0.5003966947
 40
0.7502573324
 40
1.0
 40
1.0
 40
1.0
 40
1.0
 10
10.6757219715
 20
19.2464426712
 30
0.0
 10
11.0277170152
 20
19.3008964939
 30
0.0
 10
11.7329347153
 20
19.3998626022
 30
0.0
 10
12.7947514474
 20
19.5123083174
 30
0.0
 10
13.8594036314
 20
19.5827587723
 30
0.0
 10
14.5703713467
 20
19.5987836879
 30
0.0
 10
14.9257219701
 20
19.5987836879
 30
0.0
  0
SPLINE
  5
273
100
AcDbEntity
  8
0
100
AcDbSpline
 62
7
  6
BYLAYER
 70
0
 71
3
 72
11
 73
7
 74
0
 42
0.0000001
 43
0.0000001
 44
0.0000000001
 40
0.0
 40
0.0
 40
0.0
 40
0.0
 40
0.2503270754
 40
0.5003966947
 40
0.7502573324
 40
1.0
 40
1.0
 40
1.0
 40
1.0
 10
19.1757219715
 20
19.2464426712
 30
0.0
 10
19.5277170154
 20
19.300896494
 30
0.0
 10
20.2329347159
 20
19.3998626023
 30
0.0
 10
21.2947514484
 20
19.5123083175
 30
0.0
 10
22.359403633
 20
19.5827587724
 30
0.0
 10
23.0703713486
 20
19.598783688
 30
0.0
 10
23.4257219722
 20
19.598783688
 30
0.0
  0
SPLINE
  5
274
100
AcDbEntity
  8
0
100
AcDbSpline
 62
7
  6
BYLAYER
 70
0
 71
3
 72
11
 73
7
 74
0
 42
0.0000001
 43
0.0000001
 44
0.0000000001
 40
0.0
 40
0.0
 40
0.0
 40
0.0
 40
0.2503270763
 40
0.5003966946
 40
0.7502573322
 40
1.0
 40
1.0
 40
1.0
 40
1.0
 10
19.1757219715
 20
16.4511247047
 30
0.0
 10
18.8237269261
 20
16.3966708817
 30
0.0
 10
18.1185092377
 20
16.2977046808
 30
0.0
 10
17.0566924902
 20
16.1852590971
 30
0.0
 10
15.9920403113
 20
16.1148085939
 30
0.0
 10
15.2810725941
 20
16.0987836879
 30
0.0
 10
14.9257219701
 20
16.0987836879
 30
0.0
  0
SPLINE
  5
275
100
AcDbEntity
  8
0
100
AcDbSpline
 62
7
  6
BYLAYER
 70
0
 71
3
 72
11
 73
7
 74
0
 42
0.0000001
 43
0.0000001
 44
0.0000000001
 40
0.0
 40
0.0
 40
0.0
 40
0.0
 40
0.2497426692
 40
0.499603307
 40
0.7496729258
 40
1.0
 40
1.0
 40
1.0
 40
1.0
 10
23.4257219722
 20
16.0987836879
 30
0.0
 10
23.0703713464
 20
16.0987836879
 30
0.0
 10
22.3594036282
 20
16.114808603
 30
0.0
 10
21.2947514424
 20
16.1852590623
 30
0.0
 10
20.2329347118
 20
16.2977047744
 30
0.0
 10
19.5277170138
 20
16.3966708822
 30
0.0
 10
19.1757219715
 20
16.4511247047
 30
0.0
  0
SPLINE
  5
276
100
AcDbEntity
  8
0
100
AcDbSpline
 62
7
  6
BYLAYER
 70
0
 71
3
 72
11
 73
7
 74
0
 42
0.0000001
 43
0.0000001
 44
0.0000000001
 40
0.0
 40
0.0
 40
0.0
 40
0.0
 40
0.2497426693
 40
0.4996033072
 40
0.7496729248
 40
1.0
 40
1.0
 40
1.0
 40
1.0
 10
23.4257219722
 20
19.598783688
 30
0.0
 10
23.7810725982
 20
19.5987836879
 30
0.0
 10
24.4920403176
 20
19.5827587824
 30
0.0
 10
25.5566924973
 20
19.5123082747
 30
0.0
 10
26.6185092422
 20
19.3998626942
 30
0.0
 10
27.3237269279
 20
19.3008964939
 30
0.0
 10
27.6757219715
 20
19.2464426712
 30
0.0
  0
SPLINE
  5
277
100
AcDbEntity
  8
0
100
AcDbSpline
 62
7
  6
BYLAYER
 70
0
 71
3
 72
23
 73
19
 74
0
 42
0.0000001
 43
0.0000001
 44
0.0000000001
 40
0.0
 40
0.0
 40
0.0
 40
0.0
 40
0.0629937984
 40
0.1255570589
 40
0.1876630703
 40
0.2495561358
 40
0.3115645477
 40
0.373958484
 40
0.4367916999
 40
0.4999111831
 40
0.5630370979
 40
0.6258824163
 40
0.6882941405
 40
0.7503312217
 40
0.8122494868
 40
0.874385708
 40
0.9369878641
 40
1.0
 40
1.0
 40
1.0
 40
1.0
 10
19.1757219715
 20
42.5937836879
 30
0.0
 10
19.2878631173
 20
42.5937836879
 30
0.0
 10
19.5125292546
 20
42.6252329776
 30
0.0
 10
19.8226897472
 20
42.7581437414
 30
0.0
 10
20.0912114692
 20
42.9581549265
 30
0.0
 10
20.3122837793
 20
43.2073811424
 30
0.0
 10
20.4849262401
 20
43.4924499121
 30
0.0
 10
20.6090852634
 20
43.8032893665
 30
0.0
 10
20.6841276323
 20
44.1314075774
 30
0.0
 10
20.7093063894
 20
44.4683120471
 30
0.0
 10
20.6842734895
 20
44.805255477
 30
0.0
 10
20.6092819861
 20
45.1334450591
 30
0.0
 10
20.4853629056
 20
45.4444892768
 30
0.0
 10
20.3126835189
 20
45.7297140576
 30
0.0
 10
20.0914499011
 20
45.9789645255
 30
0.0
 10
19.8230210168
 20
46.1793954117
 30
0.0
 10
19.5126385591
 20
46.3122325555
 30
0.0
 10
19.2878957615
 20
46.3437836879
 30
0.0
 10
19.1757219715
 20
46.3437836879
 30
0.0
  0
SPLINE
  5
278
100
AcDbEntity
  8
0
100
AcDbSpline
 62
7
  6
BYLAYER
 70
0
 71
3
 72
23
 73
19
 74
0
 42
0.0000001
 43
0.0000001
 44
0.0000000001
 40
0.0
 40
0.0
 40
0.0
 40
0.0
 40
0.062993963
 40
0.1255574261
 40
0.1876634433
 40
0.2495564929
 40
0.3115648031
 40
0.3739586775
 40
0.4367919123
 40
0.4999114122
 40
0.5630373297
 40
0.6258825949
 40
0.6882943128
 40
0.7503312785
 40
0.8122494383
 40
0.8743856304
 40
0.9369878342
 40
1.0
 40
1.0
 40
1.0
 40
1.0
 10
19.1757219715
 20
46.3437836879
 30
0.0
 10
19.0635805279
 20
46.3437836879
 30
0.0
 10
18.8389134052
 20
46.3123355323
 30
0.0
 10
18.5287532775
 20
46.1794221526
 30
0.0
 10
18.2602304184
 20
45.9794119845
 30
0.0
 10
18.0391598496
 20
45.7301843926
 30
0.0
 10
17.8665164319
 20
45.4451166828
 30
0.0
 10
17.7423584159
 20
45.1342769659
 30
0.0
 10
17.667316384
 20
44.8061587913
 30
0.0
 10
17.6421374014
 20
44.4692542466
 30
0.0
 10
17.6671705078
 20
44.1323108521
 30
0.0
 10
17.7421624353
 20
43.8041214663
 30
0.0
 10
17.8660813565
 20
43.4930775376
 30
0.0
 10
18.0387605152
 20
43.2078530189
 30
0.0
 10
18.2599941617
 20
42.9586032652
 30
0.0
 10
18.5284223088
 20
42.7581715309
 30
0.0
 10
18.8388053226
 20
42.6253353677
 30
0.0
 10
19.0635481233
 20
42.5937836879
 30
0.0
 10
19.1757219715
 20
42.5937836879
 30
0.0
  0
SPLINE
  5
279
100
AcDbEntity
  8
0
100
AcDbSpline
 62
7
  6
BYLAYER
 70
0
 71
3
 72
9
 73
5
 74
0
 42
0.0000001
 43
0.0000001
 44
0.0000000001
 40
0.0
 40
0.0
 40
0.0
 40
0.0
 40
0.5000001066
 40
1.0
 40
1.0
 40
1.0
 40
1.0
 10
24.1075066383
 20
41.0687966014
 30
0.0
 10
23.9646470207
 20
41.2029971704
 30
0.0
 10
23.6782135253
 20
41.4706386493
 30
0.0
 10
23.3901275158
 20
41.7365042399
 30
0.0
 10
23.2454873487
 20
41.8687836879
 30
0.0
  0
ENDSEC
  0
SECTION
  2
OBJECTS
  0
DICTIONARY
  5
C
100
AcDbDictionary
280
0
281
1
  3
ACAD_GROUP
350
D
  3
ACAD_MLINESTYLE
350
17
  3
ACAD_LAYOUT
350
1A
  3
ACAD_PLOTSETTINGS
350
19
  3
ACAD_PLOTSTYLENAME
350
E
  0
DICTIONARY
  5
D
102
{ACAD_REACTORS
330
C
102
}
100
AcDbDictionary
280
0
281
1
  0
ACDBDICTIONARYWDFLT
  5
E
102
{ACAD_REACTORS
330
C
102
}
100
AcDbDictionary
281
1
  3
Normal
350
F
100
AcDbDictionaryWithDefault
340
F
  0
DICTIONARY
  5
17
102
{ACAD_REACTORS
330
C
102
}
100
AcDbDictionary
280
0
281
1
  3
Standard
350
18
  0
DICTIONARY
  5
19
102
{ACAD_REACTORS
330
C
102
}
100
AcDbDictionary
281
1
  0
DICTIONARY
  5
1A
102
{ACAD_REACTORS
330
C
102
}
100
AcDbDictionary
281
1
  3
Model
350
27A
  3
Layout1
350
27B
  0
ACDBPLACEHOLDER
  5
F
102
{ACAD_REACTORS
330
E
102
}
  0
MLINESTYLE
  5
18
102
{ACAD_REACTORS
330
17
102
}
100
AcDbMlineStyle
  2
STANDARD
 70
0
  3

 62
256
 51
90.0
 52
90.0
 71
2
 49
0.5
 62
256
  6
BYLAYER
 49
-0.5
 62
256
  6
BYLAYER
  0
LAYOUT
  5
27A
102
{ACAD_REACTORS
330
1A
102
}
100
AcDbPlotSettings
  1

  2
none_device
  4

  6

 40
0.0
 41
0.0
 42
0.0
 43
0.0
 44
210.0
 45
297.0
 46
0.0
 47
0.0
 48
0.0
 49
0.0
140
0.0
141
0.0
142
1.0
143
1.0
 70
1024
 72
1
 73
0
 74
0
  7

 75
0
147
1.0
148
0.0
149
0.0
100
AcDbLayout
  1
Model
 70
0
 71
0
 10
0.0
 20
0.0
 11
210.0
 21
297.0
 12
0.0
 22
0.0
 32
0.0
 14
0.0
 24
0.0
 34
0.0
 15
0.0
 25
0.0
 35
0.0
146
0.0
 13
0.0
 23
0.0
 33
0.0
 16
1.0
 26
0.0
 36
0.0
 17
0.0
 27
1.0
 37
0.0
 76
0
330
210
345
0
346
0
  0
LAYOUT
  5
27B
102
{ACAD_REACTORS
330
1A
102
}
100
AcDbPlotSettings
  1

  2
none_device
  4

  6

 40
0.0
 41
0.0
 42
0.0
 43
0.0
 44
210.0
 45
297.0
 46
0.0
 47
0.0
 48
0.0
 49
0.0
140
0.0
141
0.0
142
1.0
143
1.0
 70
0
 72
1
 73
0
 74
0
  7

 75
0
147
1.0
148
0.0
149
0.0
100
AcDbLayout
  1
Layout1
 70
0
 71
1
 10
0.0
 20
0.0
 11
210.0
 21
297.0
 12
0.0
 22
0.0
 32
0.0
 14
0.0
 24
0.0
 34
0.0
 15
0.0
 25
0.0
 35
0.0
146
0.0
 13
0.0
 23
0.0
 33
0.0
 16
1.0
 26
0.0
 36
0.0
 17
0.0
 27
1.0
 37
0.0
 76
0
330
211
345
0
346
0
  0
ENDSEC
  0
EOF
