999
DXF file: C:\Users\sesa63760\Dev\_Creo\CAD\MCADID0004359_3D-CAD\drw0001_6.dxf
999
Pro/ENGINEER 2019471 by Parametric Technology Corporation
  0
SECTION
  2
HEADER
  9
$ACADVER
  1
AC1024
  9
$DWGCODEPAGE
  3
ANSI_1252
  9
$EXTMAX
 10
25.4110015927
 20
35.9384165382
 30
0.0
  9
$EXTMIN
 10
0.0
 20
0.0
 30
0.0
  9
$LIMMIN
 10
0.0
 20
0.0
  9
$LIMMAX
 10
25.4110015927
 20
35.9384165382
  9
$VIEWCTR
 10
12.7055007963
 20
17.9692082691
  9
$VIEWSIZE
 40
35.9384165382
  9
$CLAYER
  8
0
  9
$LTSCALE
 40
2.3426523373
  9
$CELTYPE
  6
BYLAYER
  9
$DIMSCALE
 40
1.0
  9
$DIMASZ
 40
0.3025119237
  9
$DIMEXO
 40
1.0
  9
$DIMDLI
 40
1.6185597967
  9
$DIMEXE
 40
1.0
  9
$DIMCEN
 40
0.3833431097
  9
$DIMLFAC
 40
1.0
  9
$DIMBLK
  1
_FILLED
  9
$DIMALT
 70
0
  9
$DIMALTF
 40
0.0393700787
  9
$DIMTXT
 40
0.4235166932
  9
$DIMTOL
 70
1
  9
$DIMLIM
 70
0
  9
$DIMTFAC
 40
1.0
  9
$DIMTP
 40
0.01
  9
$DIMTM
 40
0.01
  9
$DIMGAP
 40
0.625
  9
$DIMDSEP
 70
46
  9
$AUNITS
 70
0
  9
$PDMODE
 70
3
  9
$PDSIZE
 40
0.3125
  9
$HANDSEED
  5
2AB
  9
$TILEMODE
 70
1
  9
$MEASUREMENT
 70
1
  9
$INSUNITS
 70
4
  0
ENDSEC
  0
SECTION
  2
CLASSES
  0
CLASS
  1
ACDBDICTIONARYWDFLT
  2
AcDbDictionaryWithDefault
  3
AutoCAD 2000
 90
0
 91
1
280
0
281
0
  0
CLASS
  1
ACDBPLACEHOLDER
  2
AcDbPlaceHolder
  3
AutoCAD 2000
 90
0
 91
1
280
0
281
0
  0
CLASS
  1
LAYOUT
  2
AcDbLayout
  3
AutoCAD 2000
 90
0
 91
0
280
0
281
0
  0
ENDSEC
  0
SECTION
  2
TABLES
  0
TABLE
  2
VPORT
  5
8
100
AcDbSymbolTable
 70
2
  0
VPORT
  5
1F4
100
AcDbSymbolTableRecord
100
AcDbViewportTableRecord
  2
*ACTIVE
 70
0
 10
0.0
 20
0.0
 11
1.0
 21
1.0
 12
12.7055007963
 22
17.9692082691
 13
0.0
 23
0.0
 14
1.0
 24
1.0
 15
0.0
 25
0.0
 16
0.0
 26
0.0
 36
1.0
 17
0.0
 27
0.0
 37
0.0
 40
35.9384165382
 41
0.7070707071
 42
50.0
 43
0.0
 44
0.0
 50
0.0
 51
0.0
 71
0
 72
100
 73
1
 74
1
 75
0
 76
0
 77
0
 78
0
  0
ENDTAB
  0
TABLE
  2
LTYPE
  5
5
100
AcDbSymbolTable
 70
6
  0
LTYPE
  5
14
100
AcDbSymbolTableRecord
100
AcDbLinetypeTableRecord
  2
BYBLOCK
 70
0
  3

 72
65
 73
0
 40
0.0
  0
LTYPE
  5
15
100
AcDbSymbolTableRecord
100
AcDbLinetypeTableRecord
  2
BYLAYER
 70
0
  3

 72
65
 73
0
 40
0.0
  0
LTYPE
  5
16
100
AcDbSymbolTableRecord
100
AcDbLinetypeTableRecord
  2
CONTINUOUS
 70
64
  3
Solid line
 72
65
 73
0
 40
0.0
  0
LTYPE
  5
1F5
100
AcDbSymbolTableRecord
100
AcDbLinetypeTableRecord
  2
CENTER
 70
64
  3
____ _ ____ _ ____ _ ____ _ ____ _ ____ _ ____
 72
65
 73
4
 40
0.6
 49
0.375
 74
0
 49
-0.075
 74
0
 49
0.075
 74
0
 49
-0.075
 74
0
  0
LTYPE
  5
1F6
100
AcDbSymbolTableRecord
100
AcDbLinetypeTableRecord
  2
HIDDEN
 70
64
  3
- - - - - - - - - - - - - - - - - - - -
 72
65
 73
2
 40
0.2
 49
0.1
 74
0
 49
-0.1
 74
0
  0
LTYPE
  5
1F7
100
AcDbSymbolTableRecord
100
AcDbLinetypeTableRecord
  2
PHANTOM
 70
64
  3
_____ _ _ _____ _ _ _____ _ _ _____
 72
65
 73
6
 40
0.8
 49
0.45
 74
0
 49
-0.05
 74
0
 49
0.1
 74
0
 49
-0.05
 74
0
 49
0.1
 74
0
 49
-0.05
 74
0
  0
LTYPE
  5
1F8
100
AcDbSymbolTableRecord
100
AcDbLinetypeTableRecord
  2
DOT
 70
64
  3
. . . . . . . . . . . . . . . . . . . .
 72
65
 73
2
 40
0.2
 49
0.1
 74
0
 49
-0.1
 74
0
  0
LTYPE
  5
1F9
100
AcDbSymbolTableRecord
100
AcDbLinetypeTableRecord
  2
DASHED
 70
64
  3
- - - - - - - - - - - - - - - - - - - -
 72
65
 73
2
 40
0.2
 49
0.1
 74
0
 49
-0.1
 74
0
  0
ENDTAB
  0
TABLE
  2
LAYER
  5
2
100
AcDbSymbolTable
 70
36
  0
LAYER
  5
10
100
AcDbSymbolTableRecord
100
AcDbLayerTableRecord
  2
0
 70
0
 62
7
  6
CONTINUOUS
370
-3
390
F
  0
LAYER
  5
1FA
100
AcDbSymbolTableRecord
100
AcDbLayerTableRecord
  2
DEFAULT_1
 70
0
 62
7
  6
CENTER
370
-3
390
F
  0
LAYER
  5
1FB
100
AcDbSymbolTableRecord
100
AcDbLayerTableRecord
  2
DEFAULT_2
 70
0
 62
7
  6
HIDDEN
370
-3
390
F
  0
LAYER
  5
1FC
100
AcDbSymbolTableRecord
100
AcDbLayerTableRecord
  2
DEFAULT_3
 70
0
 62
7
  6
PHANTOM
370
-3
390
F
  0
LAYER
  5
1FD
100
AcDbSymbolTableRecord
100
AcDbLayerTableRecord
  2
00_COMPONENTS
 70
0
 62
7
  6
CONTINUOUS
370
-3
390
F
  0
LAYER
  5
1FE
100
AcDbSymbolTableRecord
100
AcDbLayerTableRecord
  2
01_1_DEFAULT_DATUMS
 70
0
 62
7
  6
CONTINUOUS
370
-3
390
F
  0
LAYER
  5
1FF
100
AcDbSymbolTableRecord
100
AcDbLayerTableRecord
  2
01_PLANES
 70
0
 62
7
  6
CONTINUOUS
370
-3
390
F
  0
LAYER
  5
200
100
AcDbSymbolTableRecord
100
AcDbLayerTableRecord
  2
02_COORD_SYS
 70
0
 62
7
  6
CONTINUOUS
370
-3
390
F
  0
LAYER
  5
201
100
AcDbSymbolTableRecord
100
AcDbLayerTableRecord
  2
03_AXES
 70
0
 62
7
  6
CONTINUOUS
370
-3
390
F
  0
LAYER
  5
202
100
AcDbSymbolTableRecord
100
AcDbLayerTableRecord
  2
04_POINTS
 70
0
 62
7
  6
CONTINUOUS
370
-3
390
F
  0
LAYER
  5
203
100
AcDbSymbolTableRecord
100
AcDbLayerTableRecord
  2
05_CURVES
 70
0
 62
7
  6
CONTINUOUS
370
-3
390
F
  0
LAYER
  5
204
100
AcDbSymbolTableRecord
100
AcDbLayerTableRecord
  2
06_SURFS
 70
0
 62
7
  6
CONTINUOUS
370
-3
390
F
  0
LAYER
  5
205
100
AcDbSymbolTableRecord
100
AcDbLayerTableRecord
  2
07_COSMETICS
 70
0
 62
7
  6
CONTINUOUS
370
-3
390
F
  0
LAYER
  5
206
100
AcDbSymbolTableRecord
100
AcDbLayerTableRecord
  2
10_NOTES
 70
0
 62
7
  6
CONTINUOUS
370
-3
390
F
  0
LAYER
  5
207
100
AcDbSymbolTableRecord
100
AcDbLayerTableRecord
  2
11_NOTES_PUB
 70
0
 62
7
  6
CONTINUOUS
370
-3
390
F
  0
LAYER
  5
208
100
AcDbSymbolTableRecord
100
AcDbLayerTableRecord
  2
13_REF_GTOL
 70
0
 62
7
  6
CONTINUOUS
370
-3
390
F
  0
LAYER
  5
209
100
AcDbSymbolTableRecord
100
AcDbLayerTableRecord
  2
16_MISC
 70
0
 62
7
  6
CONTINUOUS
370
-3
390
F
  0
LAYER
  5
20A
100
AcDbSymbolTableRecord
100
AcDbLayerTableRecord
  2
17_NO_PRINT
 70
0
 62
7
  6
CONTINUOUS
370
-3
390
F
  0
LAYER
  5
20B
100
AcDbSymbolTableRecord
100
AcDbLayerTableRecord
  2
18_DATUM_CAMS_JOINTS
 70
0
 62
7
  6
CONTINUOUS
370
-3
390
F
  0
LAYER
  5
20C
100
AcDbSymbolTableRecord
100
AcDbLayerTableRecord
  2
19_DATUM_FUNCTIONAL
 70
0
 62
7
  6
CONTINUOUS
370
-3
390
F
  0
LAYER
  5
20D
100
AcDbSymbolTableRecord
100
AcDbLayerTableRecord
  2
20_DATUM_KINEMATIC_SCHEME
 70
0
 62
7
  6
CONTINUOUS
370
-3
390
F
  0
ENDTAB
  0
TABLE
  2
STYLE
  5
3
100
AcDbSymbolTable
 70
1
  0
STYLE
  5
11
100
AcDbSymbolTableRecord
100
AcDbTextStyleTableRecord
  2
STANDARD
 70
0
 40
0.0
 41
1.0
 50
0.0
 71
0
 42
0.2
  3
ARIAL.TTF
  4

  0
STYLE
  5
20E
100
AcDbSymbolTableRecord
100
AcDbTextStyleTableRecord
  2
TEXTSTYLE_1
 70
0
 40
0.0
 41
0.8
 50
0.0
 71
0
 42
0.2
  3
gdt
  4

  0
ENDTAB
  0
TABLE
  2
VIEW
  5
6
100
AcDbSymbolTable
 70
0
  0
ENDTAB
  0
TABLE
  2
UCS
  5
7
100
AcDbSymbolTable
 70
0
  0
ENDTAB
  0
TABLE
  2
APPID
  5
9
100
AcDbSymbolTable
 70
1
  0
APPID
  5
20F
100
AcDbSymbolTableRecord
100
AcDbRegAppTableRecord
  2
ACAD
 70
0
  0
ENDTAB
  0
TABLE
  2
BLOCK_RECORD
  5
1
100
AcDbSymbolTable
 70
0
  0
BLOCK_RECORD
  5
210
100
AcDbSymbolTableRecord
100
AcDbBlockTableRecord
  2
*Model_Space
  0
BLOCK_RECORD
  5
211
100
AcDbSymbolTableRecord
100
AcDbBlockTableRecord
  2
*Paper_Space
  0
BLOCK_RECORD
  5
212
100
AcDbSymbolTableRecord
100
AcDbBlockTableRecord
  2
_FILLED
  0
ENDTAB
  0
TABLE
  2
DIMSTYLE
  5
A
100
AcDbSymbolTable
 70
1
100
AcDbDimStyleTable
 71
0
  0
DIMSTYLE
105
213
100
AcDbSymbolTableRecord
100
AcDbDimStyleTableRecord
  2
STANDARD
 70
0
  3

  4

 40
1.0
 41
0.3025119237
 42
1.0
 43
0.38
 44
1.0
 45
0.0
 46
0.0
 47
0.01
 48
0.01
140
0.4235166932
141
0.09
142
0.0
143
25.4
144
1.0
145
0.0
146
1.0
147
0.625
 71
1
 72
0
 73
0
 74
0
 75
0
 76
0
 77
1
 78
8
 79
2
170
0
171
1
172
0
173
0
174
0
175
0
176
0
177
0
178
0
270
2
179
2
271
2
272
2
273
2
274
2
275
0
280
0
281
0
282
0
283
1
284
8
285
0
286
0
287
3
288
0
340
11
278
46
341
212
342
212
343
212
344
212
  0
ENDTAB
  0
ENDSEC
  0
SECTION
  2
BLOCKS
  0
BLOCK
  5
20
100
AcDbEntity
  8
0
100
AcDbBlockBegin
  2
*Model_Space
 70
0
 10
0.0
 20
0.0
 30
0.0
  3
*Model_Space
  1

  0
ENDBLK
  5
21
100
AcDbEntity
  8
0
100
AcDbBlockEnd
  0
BLOCK
  5
1C
100
AcDbEntity
  8
0
100
AcDbBlockBegin
  2
*Paper_Space
 70
0
 10
0.0
 20
0.0
 30
0.0
  3
*Paper_Space
  1

  0
ENDBLK
  5
1D
100
AcDbEntity
  8
0
100
AcDbBlockEnd
  0
BLOCK
  5
214
100
AcDbEntity
  8
0
100
AcDbBlockBegin
  2
_FILLED
 70
64
 10
0.0
 20
0.0
  3
_FILLED
  1

  0
SOLID
  5
215
100
AcDbEntity
  8
0
  6
BYBLOCK
 62
0
100
AcDbTrace
 10
0.0
 20
0.0
 11
-1.0
 21
0.25
 12
-1.0
 22
-0.25
 13
-1.0
 23
-0.25
  0
ENDBLK
  5
216
100
AcDbEntity
  8
0
  6
BYBLOCK
 62
0
100
AcDbBlockEnd
  0
ENDSEC
  0
SECTION
  2
ENTITIES
  0
LINE
  5
217
100
AcDbEntity
  8
0
100
AcDbLine
 62
7
  6
BYLAYER
 10
6.425442146
 20
2.9692100443
 11
19.425442146
 21
2.9692100443
  0
LINE
  5
218
100
AcDbEntity
  8
0
100
AcDbLine
 62
7
  6
BYLAYER
 10
6.425442146
 20
2.9692100443
 11
6.425442146
 21
32.9692083175
  0
LINE
  5
219
100
AcDbEntity
  8
0
100
AcDbLine
 62
7
  6
BYLAYER
 10
10.4759524032
 20
22.4692100443
 11
11.5112285836
 21
22.4692100443
  0
LINE
  5
21A
100
AcDbEntity
  8
0
100
AcDbLine
 62
7
  6
BYLAYER
 10
14.3396557084
 20
22.4692100443
 11
15.3749318888
 21
22.4692100443
  0
LINE
  5
21B
100
AcDbEntity
  8
0
100
AcDbLine
 62
7
  6
BYLAYER
 10
15.3749318888
 20
23.4692100443
 11
14.3396557084
 21
23.4692100443
  0
LINE
  5
21C
100
AcDbEntity
  8
0
100
AcDbLine
 62
7
  6
BYLAYER
 10
11.5112285836
 20
23.4692100443
 11
10.4759524032
 21
23.4692100443
  0
LINE
  5
21D
100
AcDbEntity
  8
0
100
AcDbLine
 62
7
  6
BYLAYER
 10
19.425442146
 20
32.9692083175
 11
19.425442146
 21
2.9692100443
  0
LINE
  5
21E
100
AcDbEntity
  8
0
100
AcDbLine
 62
7
  6
BYLAYER
 10
6.425442146
 20
32.9692083175
 11
19.425442146
 21
32.9692083175
  0
ARC
  5
21F
100
AcDbEntity
  8
0
100
AcDbCircle
 62
7
  6
BYLAYER
 10
8.4446383527
 20
22.5540024267
 40
0.15
100
AcDbArc
 50
276.2490915208
 51
94.3435899841
  0
ARC
  5
220
100
AcDbEntity
  8
0
100
AcDbCircle
 62
7
  6
BYLAYER
 10
8.5020631974
 20
22.1423372142
 40
0.15
100
AcDbArc
 50
281.5432091679
 51
99.6377076311
  0
ARC
  5
221
100
AcDbEntity
  8
0
100
AcDbCircle
 62
7
  6
BYLAYER
 10
8.5972267517
 20
21.737726589
 40
0.15
100
AcDbArc
 50
286.837326815
 51
104.9318252782
  0
ARC
  5
222
100
AcDbEntity
  8
0
100
AcDbCircle
 62
7
  6
BYLAYER
 10
8.7293171137
 20
21.3436225465
 40
0.15
100
AcDbArc
 50
292.131444462
 51
110.2259429252
  0
ARC
  5
223
100
AcDbEntity
  8
0
100
AcDbCircle
 62
7
  6
BYLAYER
 10
8.8972073349
 20
20.9633874433
 40
0.15
100
AcDbArc
 50
297.4255621091
 51
115.5200605723
  0
ARC
  5
224
100
AcDbEntity
  8
0
100
AcDbCircle
 62
7
  6
BYLAYER
 10
9.0994650352
 20
20.6002653114
 40
0.15
100
AcDbArc
 50
302.7196797561
 51
120.8141782194
  0
ARC
  5
225
100
AcDbEntity
  8
0
100
AcDbCircle
 62
7
  6
BYLAYER
 10
9.3343646233
 20
20.2573541806
 40
0.15
100
AcDbArc
 50
308.0137974032
 51
126.1082958664
  0
ARC
  5
226
100
AcDbEntity
  8
0
100
AcDbCircle
 62
7
  6
BYLAYER
 10
9.5999020185
 20
19.9375796479
 40
0.15
100
AcDbArc
 50
313.3079150503
 51
131.4024135135
  0
ARC
  5
227
100
AcDbEntity
  8
0
100
AcDbCircle
 62
7
  6
BYLAYER
 10
9.8938117496
 20
19.6436699168
 40
0.15
100
AcDbArc
 50
318.6020326973
 51
136.6965311605
  0
ARC
  5
228
100
AcDbEntity
  8
0
100
AcDbCircle
 62
7
  6
BYLAYER
 10
10.2135862823
 20
19.3781325216
 40
0.15
100
AcDbArc
 50
323.8961503444
 51
141.9906488076
  0
ARC
  5
229
100
AcDbEntity
  8
0
100
AcDbCircle
 62
7
  6
BYLAYER
 10
10.5564974131
 20
19.1432329335
 40
0.15
100
AcDbArc
 50
329.1902679914
 51
147.2847664546
  0
ARC
  5
22A
100
AcDbEntity
  8
0
100
AcDbCircle
 62
7
  6
BYLAYER
 10
10.919619545
 20
18.9409752332
 40
0.15
100
AcDbArc
 50
334.4843856385
 51
152.5788841017
  0
ARC
  5
22B
100
AcDbEntity
  8
0
100
AcDbCircle
 62
7
  6
BYLAYER
 10
11.2998546482
 20
18.773085012
 40
0.15
100
AcDbArc
 50
339.7785032855
 51
157.8730017488
  0
ARC
  5
22C
100
AcDbEntity
  8
0
100
AcDbCircle
 62
7
  6
BYLAYER
 10
11.6939586907
 20
18.6409946501
 40
0.15
100
AcDbArc
 50
345.0726209326
 51
163.1671193958
  0
ARC
  5
22D
100
AcDbEntity
  8
0
100
AcDbCircle
 62
7
  6
BYLAYER
 10
12.0985693158
 20
18.5458310958
 40
0.15
100
AcDbArc
 50
350.3667385797
 51
168.4612370429
  0
ARC
  5
22E
100
AcDbEntity
  8
0
100
AcDbCircle
 62
7
  6
BYLAYER
 10
12.5102345284
 20
18.488406251
 40
0.15
100
AcDbArc
 50
355.6623749569
 51
173.7553546899
  0
ARC
  5
22F
100
AcDbEntity
  8
0
100
AcDbCircle
 62
7
  6
BYLAYER
 10
12.5102345284
 20
27.4500138377
 40
0.15
100
AcDbArc
 50
186.2490915209
 51
4.3435899841
  0
ARC
  5
230
100
AcDbEntity
  8
0
100
AcDbCircle
 62
7
  6
BYLAYER
 10
12.0985693158
 20
27.3925889929
 40
0.15
100
AcDbArc
 50
191.5432091679
 51
9.6377076311
  0
ARC
  5
231
100
AcDbEntity
  8
0
100
AcDbCircle
 62
7
  6
BYLAYER
 10
11.6939586907
 20
27.2974254386
 40
0.15
100
AcDbArc
 50
196.837326815
 51
14.9318252782
  0
ARC
  5
232
100
AcDbEntity
  8
0
100
AcDbCircle
 62
7
  6
BYLAYER
 10
11.2998546482
 20
27.1653350767
 40
0.15
100
AcDbArc
 50
202.131444462
 51
20.2259429252
  0
ARC
  5
233
100
AcDbEntity
  8
0
100
AcDbCircle
 62
7
  6
BYLAYER
 10
10.919619545
 20
26.9974448554
 40
0.15
100
AcDbArc
 50
207.4255621091
 51
25.5200605723
  0
ARC
  5
234
100
AcDbEntity
  8
0
100
AcDbCircle
 62
7
  6
BYLAYER
 10
10.5564974131
 20
26.7951871551
 40
0.15
100
AcDbArc
 50
212.7196797562
 51
30.8141782194
  0
ARC
  5
235
100
AcDbEntity
  8
0
100
AcDbCircle
 62
7
  6
BYLAYER
 10
10.2135862823
 20
26.5602875671
 40
0.15
100
AcDbArc
 50
218.0137974032
 51
36.1082958664
  0
ARC
  5
236
100
AcDbEntity
  8
0
100
AcDbCircle
 62
7
  6
BYLAYER
 10
9.8938117496
 20
26.2947501718
 40
0.15
100
AcDbArc
 50
223.3079150503
 51
41.4024135135
  0
ARC
  5
237
100
AcDbEntity
  8
0
100
AcDbCircle
 62
7
  6
BYLAYER
 10
9.5999020185
 20
26.0008404407
 40
0.15
100
AcDbArc
 50
228.6020326973
 51
46.6965311605
  0
ARC
  5
238
100
AcDbEntity
  8
0
100
AcDbCircle
 62
7
  6
BYLAYER
 10
9.3343646233
 20
25.681065908
 40
0.15
100
AcDbArc
 50
233.8961503444
 51
51.9906488076
  0
ARC
  5
239
100
AcDbEntity
  8
0
100
AcDbCircle
 62
7
  6
BYLAYER
 10
9.0994650352
 20
25.3381547773
 40
0.15
100
AcDbArc
 50
239.1902679914
 51
57.2847664547
  0
ARC
  5
23A
100
AcDbEntity
  8
0
100
AcDbCircle
 62
7
  6
BYLAYER
 10
8.8972073349
 20
24.9750326453
 40
0.15
100
AcDbArc
 50
244.4843856385
 51
62.5788841017
  0
ARC
  5
23B
100
AcDbEntity
  8
0
100
AcDbCircle
 62
7
  6
BYLAYER
 10
8.7293171137
 20
24.5947975422
 40
0.15
100
AcDbArc
 50
249.7785032856
 51
67.8730017488
  0
ARC
  5
23C
100
AcDbEntity
  8
0
100
AcDbCircle
 62
7
  6
BYLAYER
 10
8.5972267517
 20
24.2006934997
 40
0.15
100
AcDbArc
 50
255.0726209326
 51
73.1671193958
  0
ARC
  5
23D
100
AcDbEntity
  8
0
100
AcDbCircle
 62
7
  6
BYLAYER
 10
8.5020631974
 20
23.7960828745
 40
0.15
100
AcDbArc
 50
260.3667385797
 51
78.4612370429
  0
ARC
  5
23E
100
AcDbEntity
  8
0
100
AcDbCircle
 62
7
  6
BYLAYER
 10
8.4446383527
 20
23.3844176619
 40
0.15
100
AcDbArc
 50
265.6608562267
 51
83.75535469
  0
ARC
  5
23F
100
AcDbEntity
  8
0
100
AcDbCircle
 62
7
  6
BYLAYER
 10
8.425442146
 20
22.9692100443
 40
0.15
100
AcDbArc
 50
270.9549738738
 51
89.049472337
  0
ARC
  5
240
100
AcDbEntity
  8
0
100
AcDbCircle
 62
7
  6
BYLAYER
 10
12.925442146
 20
18.4692100443
 40
0.15
100
AcDbArc
 50
0.9549738738
 51
179.0494797468
  0
ARC
  5
241
100
AcDbEntity
  8
0
100
AcDbCircle
 62
7
  6
BYLAYER
 10
13.3406497636
 20
18.488406251
 40
0.15
100
AcDbArc
 50
6.2490915209
 51
184.3420280539
  0
ARC
  5
242
100
AcDbEntity
  8
0
100
AcDbCircle
 62
7
  6
BYLAYER
 10
13.7523149762
 20
18.5458310958
 40
0.15
100
AcDbArc
 50
11.5432091679
 51
189.6377076311
  0
ARC
  5
243
100
AcDbEntity
  8
0
100
AcDbCircle
 62
7
  6
BYLAYER
 10
14.1569256013
 20
18.6409946501
 40
0.15
100
AcDbArc
 50
16.837326815
 51
194.9318252782
  0
ARC
  5
244
100
AcDbEntity
  8
0
100
AcDbCircle
 62
7
  6
BYLAYER
 10
14.5510296439
 20
18.773085012
 40
0.15
100
AcDbArc
 50
22.131444462
 51
200.2259429252
  0
ARC
  5
245
100
AcDbEntity
  8
0
100
AcDbCircle
 62
7
  6
BYLAYER
 10
14.931264747
 20
18.9409752332
 40
0.15
100
AcDbArc
 50
27.4255621091
 51
205.5200605723
  0
ARC
  5
246
100
AcDbEntity
  8
0
100
AcDbCircle
 62
7
  6
BYLAYER
 10
15.294386879
 20
19.1432329335
 40
0.15
100
AcDbArc
 50
32.7196797561
 51
210.8141782194
  0
ARC
  5
247
100
AcDbEntity
  8
0
100
AcDbCircle
 62
7
  6
BYLAYER
 10
15.6372980097
 20
19.3781325216
 40
0.15
100
AcDbArc
 50
38.0137974032
 51
216.1082958664
  0
ARC
  5
248
100
AcDbEntity
  8
0
100
AcDbCircle
 62
7
  6
BYLAYER
 10
15.9570725424
 20
19.6436699168
 40
0.15
100
AcDbArc
 50
43.3079150503
 51
221.4024135135
  0
ARC
  5
249
100
AcDbEntity
  8
0
100
AcDbCircle
 62
7
  6
BYLAYER
 10
16.2509822735
 20
19.9375796479
 40
0.15
100
AcDbArc
 50
48.6020326973
 51
226.6965311605
  0
ARC
  5
24A
100
AcDbEntity
  8
0
100
AcDbCircle
 62
7
  6
BYLAYER
 10
16.5165196688
 20
20.2573541806
 40
0.15
100
AcDbArc
 50
53.8961503444
 51
231.9906488076
  0
ARC
  5
24B
100
AcDbEntity
  8
0
100
AcDbCircle
 62
7
  6
BYLAYER
 10
16.7514192568
 20
20.6002653114
 40
0.15
100
AcDbArc
 50
59.1902679914
 51
237.2847664547
  0
ARC
  5
24C
100
AcDbEntity
  8
0
100
AcDbCircle
 62
7
  6
BYLAYER
 10
16.9536769571
 20
20.9633874433
 40
0.15
100
AcDbArc
 50
64.4843856385
 51
242.5788841017
  0
ARC
  5
24D
100
AcDbEntity
  8
0
100
AcDbCircle
 62
7
  6
BYLAYER
 10
17.1215671783
 20
21.3436225465
 40
0.15
100
AcDbArc
 50
69.7785032856
 51
247.8730017488
  0
ARC
  5
24E
100
AcDbEntity
  8
0
100
AcDbCircle
 62
7
  6
BYLAYER
 10
17.2536575403
 20
21.737726589
 40
0.15
100
AcDbArc
 50
75.0726209326
 51
253.1671193958
  0
ARC
  5
24F
100
AcDbEntity
  8
0
100
AcDbCircle
 62
7
  6
BYLAYER
 10
17.3488210946
 20
22.1423372142
 40
0.15
100
AcDbArc
 50
80.3667385797
 51
258.4612370429
  0
ARC
  5
250
100
AcDbEntity
  8
0
100
AcDbCircle
 62
7
  6
BYLAYER
 10
17.4062459393
 20
22.5540024267
 40
0.15
100
AcDbArc
 50
85.6608562267
 51
263.75535469
  0
ARC
  5
251
100
AcDbEntity
  8
0
100
AcDbCircle
 62
7
  6
BYLAYER
 10
12.925442146
 20
22.9692100443
 40
4.5
100
AcDbArc
 50
86.6158301005
 51
88.0970989814
  0
ARC
  5
252
100
AcDbEntity
  8
0
100
AcDbCircle
 62
7
  6
BYLAYER
 10
12.925442146
 20
22.9692100443
 40
4.5
100
AcDbArc
 50
91.9099477476
 51
93.3912166284
  0
ARC
  5
253
100
AcDbEntity
  8
0
100
AcDbCircle
 62
7
  6
BYLAYER
 10
12.925442146
 20
22.9692100443
 40
4.5
100
AcDbArc
 50
97.2040653946
 51
98.6853342755
  0
ARC
  5
254
100
AcDbEntity
  8
0
100
AcDbCircle
 62
7
  6
BYLAYER
 10
12.925442146
 20
22.9692100443
 40
4.5
100
AcDbArc
 50
102.4981830417
 51
103.9794519226
  0
ARC
  5
255
100
AcDbEntity
  8
0
100
AcDbCircle
 62
7
  6
BYLAYER
 10
12.925442146
 20
22.9692100443
 40
4.5
100
AcDbArc
 50
107.7923006887
 51
109.2735695696
  0
ARC
  5
256
100
AcDbEntity
  8
0
100
AcDbCircle
 62
7
  6
BYLAYER
 10
12.925442146
 20
22.9692100443
 40
4.5
100
AcDbArc
 50
113.0864183358
 51
114.5676872167
  0
ARC
  5
257
100
AcDbEntity
  8
0
100
AcDbCircle
 62
7
  6
BYLAYER
 10
12.925442146
 20
22.9692100443
 40
4.5
100
AcDbArc
 50
118.3805359829
 51
119.8618048637
  0
ARC
  5
258
100
AcDbEntity
  8
0
100
AcDbCircle
 62
7
  6
BYLAYER
 10
12.925442146
 20
22.9692100443
 40
4.5
100
AcDbArc
 50
123.6746536299
 51
125.1559225108
  0
ARC
  5
259
100
AcDbEntity
  8
0
100
AcDbCircle
 62
7
  6
BYLAYER
 10
12.925442146
 20
22.9692100443
 40
4.5
100
AcDbArc
 50
128.968771277
 51
130.4500401579
  0
ARC
  5
25A
100
AcDbEntity
  8
0
100
AcDbCircle
 62
7
  6
BYLAYER
 10
12.925442146
 20
22.9692100443
 40
4.5
100
AcDbArc
 50
134.262888924
 51
135.7441578049
  0
ARC
  5
25B
100
AcDbEntity
  8
0
100
AcDbCircle
 62
7
  6
BYLAYER
 10
12.925442146
 20
22.9692100443
 40
4.5
100
AcDbArc
 50
139.5570065711
 51
141.038275452
  0
ARC
  5
25C
100
AcDbEntity
  8
0
100
AcDbCircle
 62
7
  6
BYLAYER
 10
12.925442146
 20
22.9692100443
 40
4.5
100
AcDbArc
 50
144.8511242182
 51
146.332393099
  0
ARC
  5
25D
100
AcDbEntity
  8
0
100
AcDbCircle
 62
7
  6
BYLAYER
 10
12.925442146
 20
22.9692100443
 40
4.5
100
AcDbArc
 50
150.1452418652
 51
151.6265107461
  0
ARC
  5
25E
100
AcDbEntity
  8
0
100
AcDbCircle
 62
7
  6
BYLAYER
 10
12.925442146
 20
22.9692100443
 40
4.5
100
AcDbArc
 50
155.4393595123
 51
156.9206283932
  0
ARC
  5
25F
100
AcDbEntity
  8
0
100
AcDbCircle
 62
7
  6
BYLAYER
 10
12.925442146
 20
22.9692100443
 40
4.5
100
AcDbArc
 50
160.7334771593
 51
162.2147460402
  0
ARC
  5
260
100
AcDbEntity
  8
0
100
AcDbCircle
 62
7
  6
BYLAYER
 10
12.925442146
 20
22.9692100443
 40
4.5
100
AcDbArc
 50
166.0275948064
 51
167.5088636873
  0
ARC
  5
261
100
AcDbEntity
  8
0
100
AcDbCircle
 62
7
  6
BYLAYER
 10
12.925442146
 20
22.9692100443
 40
4.5
100
AcDbArc
 50
171.3217124535
 51
172.8029813343
  0
ARC
  5
262
100
AcDbEntity
  8
0
100
AcDbCircle
 62
7
  6
BYLAYER
 10
12.925442146
 20
22.9692100443
 40
4.5
100
AcDbArc
 50
176.6158301005
 51
178.0970989814
  0
ARC
  5
263
100
AcDbEntity
  8
0
100
AcDbCircle
 62
7
  6
BYLAYER
 10
12.925442146
 20
22.9692100443
 40
4.5
100
AcDbArc
 50
181.9099477476
 51
183.3912166284
  0
ARC
  5
264
100
AcDbEntity
  8
0
100
AcDbCircle
 62
7
  6
BYLAYER
 10
12.925442146
 20
22.9692100443
 40
4.5
100
AcDbArc
 50
187.2040653946
 51
188.6853342755
  0
ARC
  5
265
100
AcDbEntity
  8
0
100
AcDbCircle
 62
7
  6
BYLAYER
 10
12.925442146
 20
22.9692100443
 40
4.5
100
AcDbArc
 50
192.4981830417
 51
193.9794519226
  0
ARC
  5
266
100
AcDbEntity
  8
0
100
AcDbCircle
 62
7
  6
BYLAYER
 10
12.925442146
 20
22.9692100443
 40
4.5
100
AcDbArc
 50
197.7923006887
 51
199.2735695696
  0
ARC
  5
267
100
AcDbEntity
  8
0
100
AcDbCircle
 62
7
  6
BYLAYER
 10
12.925442146
 20
22.9692100443
 40
4.5
100
AcDbArc
 50
203.0864183358
 51
204.5676872167
  0
ARC
  5
268
100
AcDbEntity
  8
0
100
AcDbCircle
 62
7
  6
BYLAYER
 10
12.925442146
 20
22.9692100443
 40
4.5
100
AcDbArc
 50
208.3805359829
 51
209.8618048637
  0
ARC
  5
269
100
AcDbEntity
  8
0
100
AcDbCircle
 62
7
  6
BYLAYER
 10
12.925442146
 20
22.9692100443
 40
4.5
100
AcDbArc
 50
213.6746536299
 51
215.1559225108
  0
ARC
  5
26A
100
AcDbEntity
  8
0
100
AcDbCircle
 62
7
  6
BYLAYER
 10
12.925442146
 20
22.9692100443
 40
4.5
100
AcDbArc
 50
218.968771277
 51
220.4500401579
  0
ARC
  5
26B
100
AcDbEntity
  8
0
100
AcDbCircle
 62
7
  6
BYLAYER
 10
12.925442146
 20
22.9692100443
 40
4.5
100
AcDbArc
 50
224.262888924
 51
225.7441578049
  0
ARC
  5
26C
100
AcDbEntity
  8
0
100
AcDbCircle
 62
7
  6
BYLAYER
 10
12.925442146
 20
22.9692100443
 40
4.5
100
AcDbArc
 50
229.5570065711
 51
231.038275452
  0
ARC
  5
26D
100
AcDbEntity
  8
0
100
AcDbCircle
 62
7
  6
BYLAYER
 10
12.925442146
 20
22.9692100443
 40
4.5
100
AcDbArc
 50
234.8511242182
 51
236.332393099
  0
ARC
  5
26E
100
AcDbEntity
  8
0
100
AcDbCircle
 62
7
  6
BYLAYER
 10
12.925442146
 20
22.9692100443
 40
4.5
100
AcDbArc
 50
240.1452418652
 51
241.6265107461
  0
ARC
  5
26F
100
AcDbEntity
  8
0
100
AcDbCircle
 62
7
  6
BYLAYER
 10
12.925442146
 20
22.9692100443
 40
4.5
100
AcDbArc
 50
245.4393595123
 51
246.9206283932
  0
ARC
  5
270
100
AcDbEntity
  8
0
100
AcDbCircle
 62
7
  6
BYLAYER
 10
12.925442146
 20
22.9692100443
 40
4.5
100
AcDbArc
 50
250.7334771593
 51
252.2147460402
  0
ARC
  5
271
100
AcDbEntity
  8
0
100
AcDbCircle
 62
7
  6
BYLAYER
 10
12.925442146
 20
22.9692100443
 40
4.5
100
AcDbArc
 50
256.0275948064
 51
257.5088636873
  0
ARC
  5
272
100
AcDbEntity
  8
0
100
AcDbCircle
 62
7
  6
BYLAYER
 10
12.925442146
 20
22.9692100443
 40
4.5
100
AcDbArc
 50
261.3217124535
 51
262.8029813343
  0
ARC
  5
273
100
AcDbEntity
  8
0
100
AcDbCircle
 62
7
  6
BYLAYER
 10
12.925442146
 20
22.9692100443
 40
4.5
100
AcDbArc
 50
266.6158192271
 51
268.0970989328
  0
ARC
  5
274
100
AcDbEntity
  8
0
100
AcDbCircle
 62
7
  6
BYLAYER
 10
12.925442146
 20
22.9692100443
 40
4.5
100
AcDbArc
 50
271.9099477476
 51
273.3912268691
  0
ARC
  5
275
100
AcDbEntity
  8
0
100
AcDbCircle
 62
7
  6
BYLAYER
 10
12.925442146
 20
22.9692100443
 40
4.5
100
AcDbArc
 50
277.2040653946
 51
278.6853342755
  0
ARC
  5
276
100
AcDbEntity
  8
0
100
AcDbCircle
 62
7
  6
BYLAYER
 10
12.925442146
 20
22.9692100443
 40
4.5
100
AcDbArc
 50
282.4981830417
 51
283.9794519226
  0
ARC
  5
277
100
AcDbEntity
  8
0
100
AcDbCircle
 62
7
  6
BYLAYER
 10
12.925442146
 20
22.9692100443
 40
4.5
100
AcDbArc
 50
287.7923006887
 51
289.2735695696
  0
ARC
  5
278
100
AcDbEntity
  8
0
100
AcDbCircle
 62
7
  6
BYLAYER
 10
12.925442146
 20
22.9692100443
 40
4.5
100
AcDbArc
 50
293.0864183358
 51
294.5676872167
  0
ARC
  5
279
100
AcDbEntity
  8
0
100
AcDbCircle
 62
7
  6
BYLAYER
 10
12.925442146
 20
22.9692100443
 40
4.5
100
AcDbArc
 50
298.3805359829
 51
299.8618048637
  0
ARC
  5
27A
100
AcDbEntity
  8
0
100
AcDbCircle
 62
7
  6
BYLAYER
 10
12.925442146
 20
22.9692100443
 40
4.5
100
AcDbArc
 50
303.6746536299
 51
305.1559225108
  0
ARC
  5
27B
100
AcDbEntity
  8
0
100
AcDbCircle
 62
7
  6
BYLAYER
 10
12.925442146
 20
22.9692100443
 40
4.5
100
AcDbArc
 50
308.968771277
 51
310.4500401579
  0
ARC
  5
27C
100
AcDbEntity
  8
0
100
AcDbCircle
 62
7
  6
BYLAYER
 10
12.925442146
 20
22.9692100443
 40
4.5
100
AcDbArc
 50
314.262888924
 51
315.7441578049
  0
ARC
  5
27D
100
AcDbEntity
  8
0
100
AcDbCircle
 62
7
  6
BYLAYER
 10
12.925442146
 20
22.9692100443
 40
4.5
100
AcDbArc
 50
319.5570065711
 51
321.038275452
  0
ARC
  5
27E
100
AcDbEntity
  8
0
100
AcDbCircle
 62
7
  6
BYLAYER
 10
12.925442146
 20
22.9692100443
 40
4.5
100
AcDbArc
 50
324.8511242182
 51
326.332393099
  0
ARC
  5
27F
100
AcDbEntity
  8
0
100
AcDbCircle
 62
7
  6
BYLAYER
 10
12.925442146
 20
22.9692100443
 40
4.5
100
AcDbArc
 50
330.1452418652
 51
331.6265107461
  0
ARC
  5
280
100
AcDbEntity
  8
0
100
AcDbCircle
 62
7
  6
BYLAYER
 10
12.925442146
 20
22.9692100443
 40
4.5
100
AcDbArc
 50
335.4393595123
 51
336.9206283932
  0
ARC
  5
281
100
AcDbEntity
  8
0
100
AcDbCircle
 62
7
  6
BYLAYER
 10
12.925442146
 20
22.9692100443
 40
4.5
100
AcDbArc
 50
340.7334771593
 51
342.2147460402
  0
ARC
  5
282
100
AcDbEntity
  8
0
100
AcDbCircle
 62
7
  6
BYLAYER
 10
12.925442146
 20
22.9692100443
 40
4.5
100
AcDbArc
 50
346.0275948064
 51
347.5088636873
  0
ARC
  5
283
100
AcDbEntity
  8
0
100
AcDbCircle
 62
7
  6
BYLAYER
 10
12.925442146
 20
22.9692100443
 40
4.5
100
AcDbArc
 50
351.3217124535
 51
352.8029813343
  0
ARC
  5
284
100
AcDbEntity
  8
0
100
AcDbCircle
 62
7
  6
BYLAYER
 10
12.925442146
 20
22.9692100443
 40
4.5
100
AcDbArc
 50
356.6158301005
 51
358.0970989814
  0
ARC
  5
285
100
AcDbEntity
  8
0
100
AcDbCircle
 62
7
  6
BYLAYER
 10
12.925442146
 20
22.9692100443
 40
4.5
100
AcDbArc
 50
1.9099477476
 51
3.3912166284
  0
ARC
  5
286
100
AcDbEntity
  8
0
100
AcDbCircle
 62
7
  6
BYLAYER
 10
12.925442146
 20
22.9692100443
 40
4.5
100
AcDbArc
 50
7.2040653946
 51
8.6853342755
  0
ARC
  5
287
100
AcDbEntity
  8
0
100
AcDbCircle
 62
7
  6
BYLAYER
 10
12.925442146
 20
22.9692100443
 40
4.5
100
AcDbArc
 50
12.4981830417
 51
13.9794519226
  0
ARC
  5
288
100
AcDbEntity
  8
0
100
AcDbCircle
 62
7
  6
BYLAYER
 10
12.925442146
 20
22.9692100443
 40
4.5
100
AcDbArc
 50
17.7923006887
 51
19.2735695696
  0
ARC
  5
289
100
AcDbEntity
  8
0
100
AcDbCircle
 62
7
  6
BYLAYER
 10
12.925442146
 20
22.9692100443
 40
4.5
100
AcDbArc
 50
23.0864183358
 51
24.5676872167
  0
ARC
  5
28A
100
AcDbEntity
  8
0
100
AcDbCircle
 62
7
  6
BYLAYER
 10
12.925442146
 20
22.9692100443
 40
4.5
100
AcDbArc
 50
28.3805359829
 51
29.8618048637
  0
ARC
  5
28B
100
AcDbEntity
  8
0
100
AcDbCircle
 62
7
  6
BYLAYER
 10
12.925442146
 20
22.9692100443
 40
4.5
100
AcDbArc
 50
33.6746536299
 51
35.1559225108
  0
ARC
  5
28C
100
AcDbEntity
  8
0
100
AcDbCircle
 62
7
  6
BYLAYER
 10
12.925442146
 20
22.9692100443
 40
4.5
100
AcDbArc
 50
38.968771277
 51
40.4500401579
  0
ARC
  5
28D
100
AcDbEntity
  8
0
100
AcDbCircle
 62
7
  6
BYLAYER
 10
12.925442146
 20
22.9692100443
 40
4.5
100
AcDbArc
 50
44.262888924
 51
45.7441578049
  0
ARC
  5
28E
100
AcDbEntity
  8
0
100
AcDbCircle
 62
7
  6
BYLAYER
 10
12.925442146
 20
22.9692100443
 40
4.5
100
AcDbArc
 50
49.5570065711
 51
51.038275452
  0
ARC
  5
28F
100
AcDbEntity
  8
0
100
AcDbCircle
 62
7
  6
BYLAYER
 10
12.925442146
 20
22.9692100443
 40
4.5
100
AcDbArc
 50
54.8511242182
 51
56.332393099
  0
ARC
  5
290
100
AcDbEntity
  8
0
100
AcDbCircle
 62
7
  6
BYLAYER
 10
12.925442146
 20
22.9692100443
 40
4.5
100
AcDbArc
 50
60.1452418652
 51
61.6265107461
  0
ARC
  5
291
100
AcDbEntity
  8
0
100
AcDbCircle
 62
7
  6
BYLAYER
 10
12.925442146
 20
22.9692100443
 40
4.5
100
AcDbArc
 50
65.4393595123
 51
66.9206283932
  0
ARC
  5
292
100
AcDbEntity
  8
0
100
AcDbCircle
 62
7
  6
BYLAYER
 10
12.925442146
 20
22.9692100443
 40
4.5
100
AcDbArc
 50
70.7334771593
 51
72.2147460402
  0
ARC
  5
293
100
AcDbEntity
  8
0
100
AcDbCircle
 62
7
  6
BYLAYER
 10
12.925442146
 20
22.9692100443
 40
4.5
100
AcDbArc
 50
76.0275948064
 51
77.5088636873
  0
ARC
  5
294
100
AcDbEntity
  8
0
100
AcDbCircle
 62
7
  6
BYLAYER
 10
12.925442146
 20
22.9692100443
 40
4.5
100
AcDbArc
 50
81.3217124535
 51
82.8029813343
  0
CIRCLE
  5
295
100
AcDbEntity
  8
0
100
AcDbCircle
 62
7
  6
BYLAYER
 10
12.925442146
 20
22.9692100443
 40
2.5
  0
CIRCLE
  5
296
100
AcDbEntity
  8
0
100
AcDbCircle
 62
7
  6
BYLAYER
 10
12.925442146
 20
22.9692100443
 40
1.5
  0
ARC
  5
297
100
AcDbEntity
  8
0
100
AcDbCircle
 62
7
  6
BYLAYER
 10
12.925442146
 20
27.4692100443
 40
0.15
100
AcDbArc
 50
180.9549738738
 51
359.049472337
  0
ARC
  5
298
100
AcDbEntity
  8
0
100
AcDbCircle
 62
7
  6
BYLAYER
 10
14.931264747
 20
26.9974448554
 40
0.15
100
AcDbArc
 50
154.4843856385
 51
332.5788841017
  0
ARC
  5
299
100
AcDbEntity
  8
0
100
AcDbCircle
 62
7
  6
BYLAYER
 10
14.5510296439
 20
27.1653350767
 40
0.15
100
AcDbArc
 50
159.7785032855
 51
337.8730017488
  0
ARC
  5
29A
100
AcDbEntity
  8
0
100
AcDbCircle
 62
7
  6
BYLAYER
 10
14.1569256013
 20
27.2974254386
 40
0.15
100
AcDbArc
 50
165.0726209326
 51
343.1671193958
  0
ARC
  5
29B
100
AcDbEntity
  8
0
100
AcDbCircle
 62
7
  6
BYLAYER
 10
13.7523149762
 20
27.3925889929
 40
0.15
100
AcDbArc
 50
170.3667385797
 51
348.4612370429
  0
ARC
  5
29C
100
AcDbEntity
  8
0
100
AcDbCircle
 62
7
  6
BYLAYER
 10
13.3406497636
 20
27.4500138377
 40
0.15
100
AcDbArc
 50
175.6608562267
 51
353.7553546899
  0
ARC
  5
29D
100
AcDbEntity
  8
0
100
AcDbCircle
 62
7
  6
BYLAYER
 10
17.425442146
 20
22.9692100443
 40
0.15
100
AcDbArc
 50
90.9549738738
 51
269.049472337
  0
ARC
  5
29E
100
AcDbEntity
  8
0
100
AcDbCircle
 62
7
  6
BYLAYER
 10
17.4062459393
 20
23.3844176619
 40
0.15
100
AcDbArc
 50
96.2490915208
 51
274.3435899841
  0
ARC
  5
29F
100
AcDbEntity
  8
0
100
AcDbCircle
 62
7
  6
BYLAYER
 10
17.3488210946
 20
23.7960828745
 40
0.15
100
AcDbArc
 50
101.5432091679
 51
279.6377076311
  0
ARC
  5
2A0
100
AcDbEntity
  8
0
100
AcDbCircle
 62
7
  6
BYLAYER
 10
17.2536575403
 20
24.2006934997
 40
0.15
100
AcDbArc
 50
106.837326815
 51
284.9318252782
  0
ARC
  5
2A1
100
AcDbEntity
  8
0
100
AcDbCircle
 62
7
  6
BYLAYER
 10
17.1215671783
 20
24.5947975422
 40
0.15
100
AcDbArc
 50
112.131444462
 51
290.2259429252
  0
ARC
  5
2A2
100
AcDbEntity
  8
0
100
AcDbCircle
 62
7
  6
BYLAYER
 10
16.9536769571
 20
24.9750326453
 40
0.15
100
AcDbArc
 50
117.4255621091
 51
295.5200605723
  0
ARC
  5
2A3
100
AcDbEntity
  8
0
100
AcDbCircle
 62
7
  6
BYLAYER
 10
16.7514192568
 20
25.3381547773
 40
0.15
100
AcDbArc
 50
122.7196797561
 51
300.8141782194
  0
ARC
  5
2A4
100
AcDbEntity
  8
0
100
AcDbCircle
 62
7
  6
BYLAYER
 10
16.5165196688
 20
25.681065908
 40
0.15
100
AcDbArc
 50
128.0137974032
 51
306.1082958664
  0
ARC
  5
2A5
100
AcDbEntity
  8
0
100
AcDbCircle
 62
7
  6
BYLAYER
 10
16.2509822735
 20
26.0008404407
 40
0.15
100
AcDbArc
 50
133.3079150503
 51
311.4024135135
  0
ARC
  5
2A6
100
AcDbEntity
  8
0
100
AcDbCircle
 62
7
  6
BYLAYER
 10
15.9570725424
 20
26.2947501718
 40
0.15
100
AcDbArc
 50
138.6020326973
 51
316.6965311605
  0
ARC
  5
2A7
100
AcDbEntity
  8
0
100
AcDbCircle
 62
7
  6
BYLAYER
 10
15.6372980097
 20
26.5602875671
 40
0.15
100
AcDbArc
 50
143.8961503444
 51
321.9906488076
  0
ARC
  5
2A8
100
AcDbEntity
  8
0
100
AcDbCircle
 62
7
  6
BYLAYER
 10
15.294386879
 20
26.7951871551
 40
0.15
100
AcDbArc
 50
149.1902679914
 51
327.2847664546
  0
ENDSEC
  0
SECTION
  2
OBJECTS
  0
DICTIONARY
  5
C
100
AcDbDictionary
280
0
281
1
  3
ACAD_GROUP
350
D
  3
ACAD_MLINESTYLE
350
17
  3
ACAD_LAYOUT
350
1A
  3
ACAD_PLOTSETTINGS
350
19
  3
ACAD_PLOTSTYLENAME
350
E
  0
DICTIONARY
  5
D
102
{ACAD_REACTORS
330
C
102
}
100
AcDbDictionary
280
0
281
1
  0
ACDBDICTIONARYWDFLT
  5
E
102
{ACAD_REACTORS
330
C
102
}
100
AcDbDictionary
281
1
  3
Normal
350
F
100
AcDbDictionaryWithDefault
340
F
  0
DICTIONARY
  5
17
102
{ACAD_REACTORS
330
C
102
}
100
AcDbDictionary
280
0
281
1
  3
Standard
350
18
  0
DICTIONARY
  5
19
102
{ACAD_REACTORS
330
C
102
}
100
AcDbDictionary
281
1
  0
DICTIONARY
  5
1A
102
{ACAD_REACTORS
330
C
102
}
100
AcDbDictionary
281
1
  3
Model
350
2A9
  3
Layout1
350
2AA
  0
ACDBPLACEHOLDER
  5
F
102
{ACAD_REACTORS
330
E
102
}
  0
MLINESTYLE
  5
18
102
{ACAD_REACTORS
330
17
102
}
100
AcDbMlineStyle
  2
STANDARD
 70
0
  3

 62
256
 51
90.0
 52
90.0
 71
2
 49
0.5
 62
256
  6
BYLAYER
 49
-0.5
 62
256
  6
BYLAYER
  0
LAYOUT
  5
2A9
102
{ACAD_REACTORS
330
1A
102
}
100
AcDbPlotSettings
  1

  2
none_device
  4

  6

 40
0.0
 41
0.0
 42
0.0
 43
0.0
 44
210.0
 45
297.0
 46
0.0
 47
0.0
 48
0.0
 49
0.0
140
0.0
141
0.0
142
1.0
143
1.0
 70
1024
 72
1
 73
0
 74
0
  7

 75
0
147
1.0
148
0.0
149
0.0
100
AcDbLayout
  1
Model
 70
0
 71
0
 10
0.0
 20
0.0
 11
210.0
 21
297.0
 12
0.0
 22
0.0
 32
0.0
 14
0.0
 24
0.0
 34
0.0
 15
0.0
 25
0.0
 35
0.0
146
0.0
 13
0.0
 23
0.0
 33
0.0
 16
1.0
 26
0.0
 36
0.0
 17
0.0
 27
1.0
 37
0.0
 76
0
330
210
345
0
346
0
  0
LAYOUT
  5
2AA
102
{ACAD_REACTORS
330
1A
102
}
100
AcDbPlotSettings
  1

  2
none_device
  4

  6

 40
0.0
 41
0.0
 42
0.0
 43
0.0
 44
210.0
 45
297.0
 46
0.0
 47
0.0
 48
0.0
 49
0.0
140
0.0
141
0.0
142
1.0
143
1.0
 70
0
 72
1
 73
0
 74
0
  7

 75
0
147
1.0
148
0.0
149
0.0
100
AcDbLayout
  1
Layout1
 70
0
 71
1
 10
0.0
 20
0.0
 11
210.0
 21
297.0
 12
0.0
 22
0.0
 32
0.0
 14
0.0
 24
0.0
 34
0.0
 15
0.0
 25
0.0
 35
0.0
146
0.0
 13
0.0
 23
0.0
 33
0.0
 16
1.0
 26
0.0
 36
0.0
 17
0.0
 27
1.0
 37
0.0
 76
0
330
211
345
0
346
0
  0
ENDSEC
  0
EOF
