999
DXF file: C:\Users\sesa63760\Dev\_Creo\CAD\MCADID0004826_3D-CAD\drw0001_6.dxf
999
Pro/ENGINEER 2019471 by Parametric Technology Corporation
  0
SECTION
  2
HEADER
  9
$ACADVER
  1
AC1024
  9
$DWGCODEPAGE
  3
ANSI_1252
  9
$EXTMAX
 10
82.514125174
 20
116.6985484604
 30
0.0
  9
$EXTMIN
 10
0.0
 20
0.0
 30
0.0
  9
$LIMMIN
 10
0.0
 20
0.0
  9
$LIMMAX
 10
82.514125174
 20
116.6985484604
  9
$VIEWCTR
 10
41.257062587
 20
58.3492742302
  9
$VIEWSIZE
 40
116.6985484604
  9
$CLAYER
  8
0
  9
$LTSCALE
 40
7.6070164922
  9
$CELTYPE
  6
BYLAYER
  9
$DIMSCALE
 40
1.0
  9
$DIMASZ
 40
0.982311014
  9
$DIMEXO
 40
1.0
  9
$DIMDLI
 40
5.2557568492
  9
$DIMEXE
 40
1.0
  9
$DIMCEN
 40
1.2447845169
  9
$DIMLFAC
 40
1.0
  9
$DIMBLK
  1
_FILLED
  9
$DIMALT
 70
0
  9
$DIMALTF
 40
0.0393700787
  9
$DIMTXT
 40
1.3752354196
  9
$DIMTOL
 70
1
  9
$DIMLIM
 70
0
  9
$DIMTFAC
 40
1.0
  9
$DIMTP
 40
0.01
  9
$DIMTM
 40
0.01
  9
$DIMGAP
 40
0.625
  9
$DIMDSEP
 70
46
  9
$AUNITS
 70
0
  9
$PDMODE
 70
3
  9
$PDSIZE
 40
0.3125
  9
$HANDSEED
  5
267
  9
$TILEMODE
 70
1
  9
$MEASUREMENT
 70
1
  9
$INSUNITS
 70
4
  0
ENDSEC
  0
SECTION
  2
CLASSES
  0
CLASS
  1
ACDBDICTIONARYWDFLT
  2
AcDbDictionaryWithDefault
  3
AutoCAD 2000
 90
0
 91
1
280
0
281
0
  0
CLASS
  1
ACDBPLACEHOLDER
  2
AcDbPlaceHolder
  3
AutoCAD 2000
 90
0
 91
1
280
0
281
0
  0
CLASS
  1
LAYOUT
  2
AcDbLayout
  3
AutoCAD 2000
 90
0
 91
0
280
0
281
0
  0
ENDSEC
  0
SECTION
  2
TABLES
  0
TABLE
  2
VPORT
  5
8
100
AcDbSymbolTable
 70
2
  0
VPORT
  5
1F4
100
AcDbSymbolTableRecord
100
AcDbViewportTableRecord
  2
*ACTIVE
 70
0
 10
0.0
 20
0.0
 11
1.0
 21
1.0
 12
41.257062587
 22
58.3492742302
 13
0.0
 23
0.0
 14
1.0
 24
1.0
 15
0.0
 25
0.0
 16
0.0
 26
0.0
 36
1.0
 17
0.0
 27
0.0
 37
0.0
 40
116.6985484604
 41
0.7070707071
 42
50.0
 43
0.0
 44
0.0
 50
0.0
 51
0.0
 71
0
 72
100
 73
1
 74
1
 75
0
 76
0
 77
0
 78
0
  0
ENDTAB
  0
TABLE
  2
LTYPE
  5
5
100
AcDbSymbolTable
 70
6
  0
LTYPE
  5
14
100
AcDbSymbolTableRecord
100
AcDbLinetypeTableRecord
  2
BYBLOCK
 70
0
  3

 72
65
 73
0
 40
0.0
  0
LTYPE
  5
15
100
AcDbSymbolTableRecord
100
AcDbLinetypeTableRecord
  2
BYLAYER
 70
0
  3

 72
65
 73
0
 40
0.0
  0
LTYPE
  5
16
100
AcDbSymbolTableRecord
100
AcDbLinetypeTableRecord
  2
CONTINUOUS
 70
64
  3
Solid line
 72
65
 73
0
 40
0.0
  0
LTYPE
  5
1F5
100
AcDbSymbolTableRecord
100
AcDbLinetypeTableRecord
  2
CENTER
 70
64
  3
____ _ ____ _ ____ _ ____ _ ____ _ ____ _ ____
 72
65
 73
4
 40
0.6
 49
0.375
 74
0
 49
-0.075
 74
0
 49
0.075
 74
0
 49
-0.075
 74
0
  0
LTYPE
  5
1F6
100
AcDbSymbolTableRecord
100
AcDbLinetypeTableRecord
  2
HIDDEN
 70
64
  3
- - - - - - - - - - - - - - - - - - - -
 72
65
 73
2
 40
0.2
 49
0.1
 74
0
 49
-0.1
 74
0
  0
LTYPE
  5
1F7
100
AcDbSymbolTableRecord
100
AcDbLinetypeTableRecord
  2
PHANTOM
 70
64
  3
_____ _ _ _____ _ _ _____ _ _ _____
 72
65
 73
6
 40
0.8
 49
0.45
 74
0
 49
-0.05
 74
0
 49
0.1
 74
0
 49
-0.05
 74
0
 49
0.1
 74
0
 49
-0.05
 74
0
  0
LTYPE
  5
1F8
100
AcDbSymbolTableRecord
100
AcDbLinetypeTableRecord
  2
DOT
 70
64
  3
. . . . . . . . . . . . . . . . . . . .
 72
65
 73
2
 40
0.2
 49
0.1
 74
0
 49
-0.1
 74
0
  0
LTYPE
  5
1F9
100
AcDbSymbolTableRecord
100
AcDbLinetypeTableRecord
  2
DASHED
 70
64
  3
- - - - - - - - - - - - - - - - - - - -
 72
65
 73
2
 40
0.2
 49
0.1
 74
0
 49
-0.1
 74
0
  0
ENDTAB
  0
TABLE
  2
LAYER
  5
2
100
AcDbSymbolTable
 70
36
  0
LAYER
  5
10
100
AcDbSymbolTableRecord
100
AcDbLayerTableRecord
  2
0
 70
0
 62
7
  6
CONTINUOUS
370
-3
390
F
  0
LAYER
  5
1FA
100
AcDbSymbolTableRecord
100
AcDbLayerTableRecord
  2
DEFAULT_1
 70
0
 62
7
  6
CENTER
370
-3
390
F
  0
LAYER
  5
1FB
100
AcDbSymbolTableRecord
100
AcDbLayerTableRecord
  2
DEFAULT_2
 70
0
 62
7
  6
HIDDEN
370
-3
390
F
  0
LAYER
  5
1FC
100
AcDbSymbolTableRecord
100
AcDbLayerTableRecord
  2
DEFAULT_3
 70
0
 62
7
  6
PHANTOM
370
-3
390
F
  0
LAYER
  5
1FD
100
AcDbSymbolTableRecord
100
AcDbLayerTableRecord
  2
00_COMPONENTS
 70
0
 62
7
  6
CONTINUOUS
370
-3
390
F
  0
LAYER
  5
1FE
100
AcDbSymbolTableRecord
100
AcDbLayerTableRecord
  2
01_1_DEFAULT_DATUMS
 70
0
 62
7
  6
CONTINUOUS
370
-3
390
F
  0
LAYER
  5
1FF
100
AcDbSymbolTableRecord
100
AcDbLayerTableRecord
  2
01_PLANES
 70
0
 62
7
  6
CONTINUOUS
370
-3
390
F
  0
LAYER
  5
200
100
AcDbSymbolTableRecord
100
AcDbLayerTableRecord
  2
02_COORD_SYS
 70
0
 62
7
  6
CONTINUOUS
370
-3
390
F
  0
LAYER
  5
201
100
AcDbSymbolTableRecord
100
AcDbLayerTableRecord
  2
03_AXES
 70
0
 62
7
  6
CONTINUOUS
370
-3
390
F
  0
LAYER
  5
202
100
AcDbSymbolTableRecord
100
AcDbLayerTableRecord
  2
04_POINTS
 70
0
 62
7
  6
CONTINUOUS
370
-3
390
F
  0
LAYER
  5
203
100
AcDbSymbolTableRecord
100
AcDbLayerTableRecord
  2
05_CURVES
 70
0
 62
7
  6
CONTINUOUS
370
-3
390
F
  0
LAYER
  5
204
100
AcDbSymbolTableRecord
100
AcDbLayerTableRecord
  2
06_SURFS
 70
0
 62
7
  6
CONTINUOUS
370
-3
390
F
  0
LAYER
  5
205
100
AcDbSymbolTableRecord
100
AcDbLayerTableRecord
  2
07_COSMETICS
 70
0
 62
7
  6
CONTINUOUS
370
-3
390
F
  0
LAYER
  5
206
100
AcDbSymbolTableRecord
100
AcDbLayerTableRecord
  2
10_NOTES
 70
0
 62
7
  6
CONTINUOUS
370
-3
390
F
  0
LAYER
  5
207
100
AcDbSymbolTableRecord
100
AcDbLayerTableRecord
  2
11_NOTES_PUB
 70
0
 62
7
  6
CONTINUOUS
370
-3
390
F
  0
LAYER
  5
208
100
AcDbSymbolTableRecord
100
AcDbLayerTableRecord
  2
13_REF_GTOL
 70
0
 62
7
  6
CONTINUOUS
370
-3
390
F
  0
LAYER
  5
209
100
AcDbSymbolTableRecord
100
AcDbLayerTableRecord
  2
16_MISC
 70
0
 62
7
  6
CONTINUOUS
370
-3
390
F
  0
LAYER
  5
20A
100
AcDbSymbolTableRecord
100
AcDbLayerTableRecord
  2
17_NO_PRINT
 70
0
 62
7
  6
CONTINUOUS
370
-3
390
F
  0
LAYER
  5
20B
100
AcDbSymbolTableRecord
100
AcDbLayerTableRecord
  2
18_DATUM_CAMS_JOINTS
 70
0
 62
7
  6
CONTINUOUS
370
-3
390
F
  0
LAYER
  5
20C
100
AcDbSymbolTableRecord
100
AcDbLayerTableRecord
  2
19_DATUM_FUNCTIONAL
 70
0
 62
7
  6
CONTINUOUS
370
-3
390
F
  0
LAYER
  5
20D
100
AcDbSymbolTableRecord
100
AcDbLayerTableRecord
  2
20_DATUM_KINEMATIC_SCHEME
 70
0
 62
7
  6
CONTINUOUS
370
-3
390
F
  0
ENDTAB
  0
TABLE
  2
STYLE
  5
3
100
AcDbSymbolTable
 70
1
  0
STYLE
  5
11
100
AcDbSymbolTableRecord
100
AcDbTextStyleTableRecord
  2
STANDARD
 70
0
 40
0.0
 41
1.0
 50
0.0
 71
0
 42
0.2
  3
ARIAL.TTF
  4

  0
STYLE
  5
20E
100
AcDbSymbolTableRecord
100
AcDbTextStyleTableRecord
  2
TEXTSTYLE_1
 70
0
 40
0.0
 41
0.8
 50
0.0
 71
0
 42
0.2
  3
gdt
  4

  0
ENDTAB
  0
TABLE
  2
VIEW
  5
6
100
AcDbSymbolTable
 70
0
  0
ENDTAB
  0
TABLE
  2
UCS
  5
7
100
AcDbSymbolTable
 70
0
  0
ENDTAB
  0
TABLE
  2
APPID
  5
9
100
AcDbSymbolTable
 70
1
  0
APPID
  5
20F
100
AcDbSymbolTableRecord
100
AcDbRegAppTableRecord
  2
ACAD
 70
0
  0
ENDTAB
  0
TABLE
  2
BLOCK_RECORD
  5
1
100
AcDbSymbolTable
 70
0
  0
BLOCK_RECORD
  5
210
100
AcDbSymbolTableRecord
100
AcDbBlockTableRecord
  2
*Model_Space
  0
BLOCK_RECORD
  5
211
100
AcDbSymbolTableRecord
100
AcDbBlockTableRecord
  2
*Paper_Space
  0
BLOCK_RECORD
  5
212
100
AcDbSymbolTableRecord
100
AcDbBlockTableRecord
  2
_FILLED
  0
ENDTAB
  0
TABLE
  2
DIMSTYLE
  5
A
100
AcDbSymbolTable
 70
1
100
AcDbDimStyleTable
 71
0
  0
DIMSTYLE
105
213
100
AcDbSymbolTableRecord
100
AcDbDimStyleTableRecord
  2
STANDARD
 70
0
  3

  4

 40
1.0
 41
0.982311014
 42
1.0
 43
0.38
 44
1.0
 45
0.0
 46
0.0
 47
0.01
 48
0.01
140
1.3752354196
141
0.09
142
0.0
143
25.4
144
1.0
145
0.0
146
1.0
147
0.625
 71
1
 72
0
 73
0
 74
0
 75
0
 76
0
 77
1
 78
8
 79
2
170
0
171
1
172
0
173
0
174
0
175
0
176
0
177
0
178
0
270
2
179
2
271
2
272
2
273
2
274
2
275
0
280
0
281
0
282
0
283
1
284
8
285
0
286
0
287
3
288
0
340
11
278
46
341
212
342
212
343
212
344
212
  0
ENDTAB
  0
ENDSEC
  0
SECTION
  2
BLOCKS
  0
BLOCK
  5
20
100
AcDbEntity
  8
0
100
AcDbBlockBegin
  2
*Model_Space
 70
0
 10
0.0
 20
0.0
 30
0.0
  3
*Model_Space
  1

  0
ENDBLK
  5
21
100
AcDbEntity
  8
0
100
AcDbBlockEnd
  0
BLOCK
  5
1C
100
AcDbEntity
  8
0
100
AcDbBlockBegin
  2
*Paper_Space
 70
0
 10
0.0
 20
0.0
 30
0.0
  3
*Paper_Space
  1

  0
ENDBLK
  5
1D
100
AcDbEntity
  8
0
100
AcDbBlockEnd
  0
BLOCK
  5
214
100
AcDbEntity
  8
0
100
AcDbBlockBegin
  2
_FILLED
 70
64
 10
0.0
 20
0.0
  3
_FILLED
  1

  0
SOLID
  5
215
100
AcDbEntity
  8
0
  6
BYBLOCK
 62
0
100
AcDbTrace
 10
0.0
 20
0.0
 11
-1.0
 21
0.25
 12
-1.0
 22
-0.25
 13
-1.0
 23
-0.25
  0
ENDBLK
  5
216
100
AcDbEntity
  8
0
  6
BYBLOCK
 62
0
100
AcDbBlockEnd
  0
ENDSEC
  0
SECTION
  2
ENTITIES
  0
LINE
  5
217
100
AcDbEntity
  8
0
100
AcDbLine
 62
7
  6
BYLAYER
 10
9.3327965518
 20
58.180759301
 11
9.409123175
 21
53.8080099893
  0
LINE
  5
218
100
AcDbEntity
  8
0
100
AcDbLine
 62
7
  6
BYLAYER
 10
9.6327963236
 20
43.4493633997
 11
9.6327963236
 21
53.1493898002
  0
LINE
  5
219
100
AcDbEntity
  8
0
100
AcDbLine
 62
7
  6
BYLAYER
 10
9.3327963236
 20
58.1807723799
 11
9.3682078078
 21
60.209494951
  0
LINE
  5
21A
100
AcDbEntity
  8
0
100
AcDbLine
 62
7
  6
BYLAYER
 10
13.1446315429
 20
72.5810579015
 11
13.8071828466
 21
73.5494092062
  0
LINE
  5
21B
100
AcDbEntity
  8
0
100
AcDbLine
 62
7
  6
BYLAYER
 10
12.6827963236
 20
56.1865749131
 11
12.6827963236
 21
57.8212088808
  0
LINE
  5
21C
100
AcDbEntity
  8
0
100
AcDbLine
 62
7
  6
BYLAYER
 10
13.2327963236
 20
58.0219874514
 11
13.2327963236
 21
56.3028489465
  0
LINE
  5
21D
100
AcDbEntity
  8
0
100
AcDbLine
 62
7
  6
BYLAYER
 10
14.4827963236
 20
54.4241005501
 11
14.4827963236
 21
55.3993633997
  0
LINE
  5
21E
100
AcDbEntity
  8
0
100
AcDbLine
 62
7
  6
BYLAYER
 10
15.9327963236
 20
43.4493633997
 11
15.9327963236
 21
55.516765453
  0
LINE
  5
21F
100
AcDbEntity
  8
0
100
AcDbLine
 62
7
  6
BYLAYER
 10
20.6327963236
 20
43.4493633997
 11
20.6327963236
 21
43.1493633997
  0
LINE
  5
220
100
AcDbEntity
  8
0
100
AcDbLine
 62
7
  6
BYLAYER
 10
28.6327963236
 20
43.1493633997
 11
20.6327963236
 21
43.1493633997
  0
LINE
  5
221
100
AcDbEntity
  8
0
100
AcDbLine
 62
7
  6
BYLAYER
 10
56.7130897106
 20
43.1493633997
 11
74.4251073643
 21
43.1493633997
  0
LINE
  5
222
100
AcDbEntity
  8
0
100
AcDbLine
 62
7
  6
BYLAYER
 10
74.6327823556
 20
43.4493633997
 11
74.4251073643
 21
43.4493633997
  0
LINE
  5
223
100
AcDbEntity
  8
0
100
AcDbLine
 62
7
  6
BYLAYER
 10
56.7121260127
 20
43.4493633997
 11
9.6327963236
 21
43.4493633997
  0
LINE
  5
224
100
AcDbEntity
  8
0
100
AcDbLine
 62
7
  6
BYLAYER
 10
28.6327963236
 20
43.1493633997
 11
28.6327963236
 21
43.4493633997
  0
LINE
  5
225
100
AcDbEntity
  8
0
100
AcDbLine
 62
7
  6
BYLAYER
 10
14.978032847
 20
55.9619789738
 11
15.9327963236
 21
55.516765453
  0
LINE
  5
226
100
AcDbEntity
  8
0
100
AcDbLine
 62
7
  6
BYLAYER
 10
60.96790814
 20
73.3877003397
 11
61.3880881022
 21
73.5493633997
  0
LINE
  5
227
100
AcDbEntity
  8
0
100
AcDbLine
 62
7
  6
BYLAYER
 10
11.4464466421
 20
52.4338179592
 11
13.7128378631
 21
53.3038040383
  0
LINE
  5
228
100
AcDbEntity
  8
0
100
AcDbLine
 62
7
  6
BYLAYER
 10
13.8827963236
 20
56.1493633997
 11
14.1327963236
 21
56.1493633997
  0
LINE
  5
229
100
AcDbEntity
  8
0
100
AcDbLine
 62
7
  6
BYLAYER
 10
13.2327963236
 20
57.8993633997
 11
12.6906771694
 21
57.7841324163
  0
LINE
  5
22A
100
AcDbEntity
  8
0
100
AcDbLine
 62
7
  6
BYLAYER
 10
58.7929856472
 20
68.1493633997
 11
56.7691934494
 21
68.1493633997
  0
LINE
  5
22B
100
AcDbEntity
  8
0
100
AcDbLine
 62
7
  6
BYLAYER
 10
58.8333733612
 20
68.1493633997
 11
74.6326610055
 21
68.1493633997
  0
LINE
  5
22C
100
AcDbEntity
  8
0
100
AcDbLine
 62
7
  6
BYLAYER
 10
56.7126082483
 20
43.4493622835
 11
56.7130900973
 21
43.1491392542
  0
LINE
  5
22D
100
AcDbEntity
  8
0
100
AcDbLine
 62
7
  6
BYLAYER
 10
58.7862078342
 20
68.7029658128
 11
58.7929856322
 21
68.1493634423
  0
LINE
  5
22E
100
AcDbEntity
  8
0
100
AcDbLine
 62
7
  6
BYLAYER
 10
58.8324975816
 20
68.1493628601
 11
58.8316216187
 21
68.7035028559
  0
LINE
  5
22F
100
AcDbEntity
  8
0
100
AcDbLine
 62
7
  6
BYLAYER
 10
13.807149797
 20
73.5493633997
 11
61.3885389731
 21
73.5493633997
  0
LWPOLYLINE
  5
230
100
AcDbEntity
  8
0
100
AcDbPolyline
 62
7
  6
BYLAYER
 90
4
 70
0
 10
70.4064144605
 20
72.248915146
 10
67.4284632524
 20
72.9704881493
 10
64.359263336
 20
73.4104252032
 10
61.3885389731
 20
73.5493633997
  0
LINE
  5
231
100
AcDbEntity
  8
0
100
AcDbLine
 62
7
  6
BYLAYER
 10
70.6842830198
 20
68.1493633997
 11
70.6519687578
 21
70.9518127688
  0
LINE
  5
232
100
AcDbEntity
  8
0
100
AcDbLine
 62
7
  6
BYLAYER
 10
71.4859156324
 20
70.8351563952
 11
71.5327963236
 21
68.1493633997
  0
LINE
  5
233
100
AcDbEntity
  8
0
100
AcDbLine
 62
7
  6
BYLAYER
 10
71.927667876
 20
43.1493635661
 11
71.873628702
 21
68.1495578653
  0
LWPOLYLINE
  5
234
100
AcDbEntity
  8
0
100
AcDbPolyline
 62
7
  6
BYLAYER
 90
4
 70
0
 10
71.4859154699
 20
70.8351563923
 10
71.3972917057
 20
71.3175711989
 10
71.0038364229
 20
71.9109432645
 10
70.406333489
 20
72.2489387559
  0
LINE
  5
235
100
AcDbEntity
  8
0
100
AcDbLine
 62
7
  6
BYLAYER
 10
74.4251073643
 20
43.1493633997
 11
74.4251073643
 21
43.4493633997
  0
LINE
  5
236
100
AcDbEntity
  8
0
100
AcDbLine
 62
7
  6
BYLAYER
 10
74.6327963236
 20
43.4493633997
 11
74.6327963236
 21
68.1493633997
  0
ARC
  5
237
100
AcDbEntity
  8
0
100
AcDbCircle
 62
7
  6
BYLAYER
 10
-7.8389298641
 20
258.0465736899
 40
200.6021234919
100
AcDbArc
 50
274.9105810237
 51
276.0643914703
  0
ARC
  5
238
100
AcDbEntity
  8
0
100
AcDbCircle
 62
7
  6
BYLAYER
 10
-7.4767884226
 20
257.4975837405
 40
200.1
100
AcDbArc
 50
276.0692687505
 51
289.9868588946
  0
ARC
  5
239
100
AcDbEntity
  8
0
100
AcDbCircle
 62
7
  6
BYLAYER
 10
-7.7767884226
 20
257.4475837405
 40
200.0
100
AcDbArc
 50
276.0647939841
 51
288.8280889371
  0
ARC
  5
23A
100
AcDbEntity
  8
0
100
AcDbCircle
 62
7
  6
BYLAYER
 10
3.4058157085
 20
222.6641904657
 40
159.637628778
100
AcDbArc
 50
289.8997884766
 51
290.5867718507
  0
ARC
  5
23B
100
AcDbEntity
  8
0
100
AcDbCircle
 62
7
  6
BYLAYER
 10
61.7862532253
 20
48.971564405
 40
24.4403376473
100
AcDbArc
 50
87.0442986361
 51
87.1821659857
  0
ARC
  5
23C
100
AcDbEntity
  8
0
100
AcDbCircle
 62
7
  6
BYLAYER
 10
64.166084588
 20
49.2759581728
 40
23.8003592579
100
AcDbArc
 50
75.6077833012
 51
76.0201414401
  0
ARC
  5
23D
100
AcDbEntity
  8
0
100
AcDbCircle
 62
7
  6
BYLAYER
 10
32.8646286439
 20
59.7993633997
 40
23.5
100
AcDbArc
 50
147.0503452094
 51
179.0000003451
  0
ARC
  5
23E
100
AcDbEntity
  8
0
100
AcDbCircle
 62
7
  6
BYLAYER
 10
65.3238631164
 20
51.4236840324
 40
20.2419495521
100
AcDbArc
 50
74.7387305606
 51
75.2470590982
  0
ARC
  5
23F
100
AcDbEntity
  8
0
100
AcDbCircle
 62
7
  6
BYLAYER
 10
62.437999968
 20
58.9272539916
 40
13.4986912338
100
AcDbArc
 50
86.4561309552
 51
86.6498281695
  0
ARC
  5
240
100
AcDbEntity
  8
0
100
AcDbCircle
 62
7
  6
BYLAYER
 10
13.8327963236
 20
54.0493633997
 40
2.0
100
AcDbArc
 50
90.0
 51
111.6788759558
  0
ARC
  5
241
100
AcDbEntity
  8
0
100
AcDbCircle
 62
7
  6
BYLAYER
 10
13.8827963236
 20
54.1493633997
 40
2.0
100
AcDbArc
 50
90.0
 51
101.8028916903
  0
ARC
  5
242
100
AcDbEntity
  8
0
100
AcDbCircle
 62
7
  6
BYLAYER
 10
14.1327963236
 20
54.1493633997
 40
2.0
100
AcDbArc
 50
65.0
 51
90.0
  0
ARC
  5
243
100
AcDbEntity
  8
0
100
AcDbCircle
 62
7
  6
BYLAYER
 10
10.9088947177
 20
53.834188599
 40
1.5
100
AcDbArc
 50
181.0000000001
 51
290.9999999999
  0
ARC
  5
244
100
AcDbEntity
  8
0
100
AcDbCircle
 62
7
  6
BYLAYER
 10
13.2827963236
 20
54.4241005501
 40
1.2
100
AcDbArc
 50
291.0000000025
 51
360.0
  0
ARC
  5
245
100
AcDbEntity
  8
0
100
AcDbCircle
 62
7
  6
BYLAYER
 10
13.4327963236
 20
57.8211425688
 40
0.75
100
AcDbArc
 50
96.0378528749
 51
179.9949341372
  0
ARC
  5
246
100
AcDbEntity
  8
0
100
AcDbCircle
 62
7
  6
BYLAYER
 10
13.8327963236
 20
55.3993633997
 40
0.65
100
AcDbArc
 50
0.0
 51
90.0
  0
ARC
  5
247
100
AcDbEntity
  8
0
100
AcDbCircle
 62
7
  6
BYLAYER
 10
59.7518674167
 20
72.650424024
 40
0.6090701107
100
AcDbArc
 50
108.7489958077
 51
110.5057132882
  0
ARC
  5
248
100
AcDbEntity
  8
0
100
AcDbCircle
 62
7
  6
BYLAYER
 10
13.7327963236
 20
58.0219874514
 40
0.5
100
AcDbArc
 50
96.0692687526
 51
180.0
  0
ARC
  5
249
100
AcDbEntity
  8
0
100
AcDbCircle
 62
7
  6
BYLAYER
 10
60.7056825703
 20
71.8534706699
 40
0.4297750457
100
AcDbArc
 50
113.5175999824
 51
115.6353140131
  0
ARC
  5
24A
100
AcDbEntity
  8
0
100
AcDbCircle
 62
7
  6
BYLAYER
 10
12.9827963236
 20
56.1865344271
 40
0.3
100
AcDbArc
 50
179.9922677408
 51
291.7549822167
  0
ARC
  5
24B
100
AcDbEntity
  8
0
100
AcDbCircle
 62
7
  6
BYLAYER
 10
13.4327963236
 20
56.3028489465
 40
0.2
100
AcDbArc
 50
180.0
 51
281.8028916903
  0
SPLINE
  5
24C
100
AcDbEntity
  8
0
100
AcDbSpline
 62
7
  6
BYLAYER
 70
0
 71
3
 72
9
 73
5
 74
0
 42
0.0000001
 43
0.0000001
 44
0.0000000001
 40
0.0
 40
0.0
 40
0.0
 40
0.0
 40
0.4382214591
 40
1.0
 40
1.0
 40
1.0
 40
1.0
 10
59.5560969547
 20
73.2271743163
 30
0.0
 10
59.5893453826
 20
73.2384895485
 30
0.0
 10
59.6669861045
 20
73.2589930424
 30
0.0
 10
59.7457023269
 20
73.2741590647
 30
0.0
 10
59.790077424
 20
73.2817729302
 30
0.0
  0
SPLINE
  5
24D
100
AcDbEntity
  8
0
100
AcDbSpline
 62
7
  6
BYLAYER
 70
0
 71
3
 72
8
 73
4
 74
0
 42
0.0000001
 43
0.0000001
 44
0.0000000001
 40
0.0
 40
0.0
 40
0.0
 40
0.0
 40
1.0
 40
1.0
 40
1.0
 40
1.0
 10
13.1446250281
 20
72.5810449977
 30
0.0
 10
28.01059621
 20
72.5777080471
 30
0.0
 10
42.8765671191
 20
72.5703379797
 30
0.0
 10
57.7425340637
 20
72.5586282177
 30
0.0
  0
SPLINE
  5
24E
100
AcDbEntity
  8
0
100
AcDbSpline
 62
7
  6
BYLAYER
 70
0
 71
3
 72
13
 73
9
 74
0
 42
0.0000001
 43
0.0000001
 44
0.0000000001
 40
0.0
 40
0.0
 40
0.0
 40
0.0
 40
0.2738295688
 40
0.5309666469
 40
0.65350447
 40
0.7722897805
 40
0.8875705118
 40
1.0
 40
1.0
 40
1.0
 40
1.0
 10
63.0464639601
 20
73.3793950185
 30
0.0
 10
63.6802162483
 20
73.3466784276
 30
0.0
 10
64.907645649
 20
73.2506630335
 30
0.0
 10
66.4102092737
 20
73.0563701007
 30
0.0
 10
67.5501364484
 20
72.868827944
 30
0.0
 10
68.3625641205
 20
72.7170012028
 30
0.0
 10
69.1487092931
 20
72.5531362547
 30
0.0
 10
69.6629545888
 20
72.4343153582
 30
0.0
 10
69.9157905018
 20
72.3713688143
 30
0.0
  0
SPLINE
  5
24F
100
AcDbEntity
  8
0
100
AcDbSpline
 62
7
  6
BYLAYER
 70
0
 71
3
 72
9
 73
5
 74
0
 42
0.0000001
 43
0.0000001
 44
0.0000000001
 40
0.0
 40
0.0
 40
0.0
 40
0.0
 40
0.4658292716
 40
1.0
 40
1.0
 40
1.0
 40
1.0
 10
60.9677176546
 20
73.3876574003
 30
0.0
 10
61.2810941783
 20
73.4030553187
 30
0.0
 10
61.9547821157
 20
73.4178761767
 30
0.0
 10
62.62837865
 20
73.4000431751
 30
0.0
 10
62.9877289529
 20
73.3823567289
 30
0.0
  0
SPLINE
  5
250
100
AcDbEntity
  8
0
100
AcDbSpline
 62
7
  6
BYLAYER
 70
0
 71
3
 72
13
 73
9
 74
0
 42
0.0000001
 43
0.0000001
 44
0.0000000001
 40
0.0
 40
0.0
 40
0.0
 40
0.0
 40
0.2289947939
 40
0.4737229602
 40
0.601140041
 40
0.7315153121
 40
0.8645617035
 40
1.0
 40
1.0
 40
1.0
 40
1.0
 10
70.4785076495
 20
70.9983145885
 30
0.0
 10
69.9357399623
 20
71.1419886278
 30
0.0
 10
68.8141365426
 20
71.4436973169
 30
0.0
 10
67.3822799667
 20
71.7948403531
 30
0.0
 10
66.17549481
 20
72.0441701638
 30
0.0
 10
65.2309600796
 20
72.2072077553
 30
0.0
 10
64.2607614733
 20
72.332788733
 30
0.0
 10
63.604045471
 20
72.3834079365
 30
0.0
 10
63.2723852356
 20
72.3999946758
 30
0.0
  0
SPLINE
  5
251
100
AcDbEntity
  8
0
100
AcDbSpline
 62
7
  6
BYLAYER
 70
0
 71
3
 72
11
 73
7
 74
0
 42
0.0000001
 43
0.0000001
 44
0.0000000001
 40
0.0
 40
0.0
 40
0.0
 40
0.0
 40
0.2499999984
 40
0.4374999988
 40
0.6249999986
 40
1.0
 40
1.0
 40
1.0
 40
1.0
 10
63.2718776728
 20
72.3999628776
 30
0.0
 10
63.2762716639
 20
72.0457433011
 30
0.0
 10
63.2850261309
 20
71.4258727426
 30
0.0
 10
63.2973310565
 20
70.5403412385
 30
0.0
 10
63.3114637424
 20
69.477694729
 30
0.0
 10
63.3232289559
 20
68.6807252143
 30
0.0
 10
63.3298227669
 20
68.1493958794
 30
0.0
  0
SPLINE
  5
252
100
AcDbEntity
  8
0
100
AcDbSpline
 62
7
  6
BYLAYER
 70
0
 71
3
 72
9
 73
5
 74
0
 42
0.0000001
 43
0.0000001
 44
0.0000000001
 40
0.0
 40
0.0
 40
0.0
 40
0.0
 40
0.5594615521
 40
1.0
 40
1.0
 40
1.0
 40
1.0
 10
60.7209542467
 20
72.3031177815
 30
0.0
 10
60.6854106683
 20
72.2953714515
 30
0.0
 10
60.622228978
 20
72.2798832178
 30
0.0
 10
60.560450872
 20
72.2589871643
 30
0.0
 10
60.5341891113
 20
72.2475475449
 30
0.0
  0
SPLINE
  5
253
100
AcDbEntity
  8
0
100
AcDbSpline
 62
7
  6
BYLAYER
 70
0
 71
3
 72
10
 73
6
 74
0
 42
0.0000001
 43
0.0000001
 44
0.0000000001
 40
0.0
 40
0.0
 40
0.0
 40
0.0
 40
0.5785261778
 40
0.810069916
 40
1.0
 40
1.0
 40
1.0
 40
1.0
 10
61.6614157856
 20
72.4090880253
 30
0.0
 10
61.4791202793
 20
72.3979361893
 30
0.0
 10
61.2239527273
 20
72.3785202134
 30
0.0
 10
60.9107613093
 20
72.338518708
 30
0.0
 10
60.7795600926
 20
72.3157863861
 30
0.0
 10
60.7209542467
 20
72.3031177815
 30
0.0
  0
SPLINE
  5
254
100
AcDbEntity
  8
0
100
AcDbSpline
 62
7
  6
BYLAYER
 70
0
 71
3
 72
11
 73
7
 74
0
 42
0.0000001
 43
0.0000001
 44
0.0000000001
 40
0.0
 40
0.0
 40
0.0
 40
0.0
 40
0.2741887497
 40
0.5345299445
 40
0.7775264655
 40
1.0
 40
1.0
 40
1.0
 40
1.0
 10
63.226328881
 20
72.4029703287
 30
0.0
 10
63.083500409
 20
72.4120567838
 30
0.0
 10
62.8047769731
 20
72.4257309856
 30
0.0
 10
62.398928514
 20
72.4327568533
 30
0.0
 10
62.0200630924
 20
72.4276673845
 30
0.0
 10
61.777283138
 20
72.41679861
 30
0.0
 10
61.6614157856
 20
72.4090880253
 30
0.0
  0
SPLINE
  5
255
100
AcDbEntity
  8
0
100
AcDbSpline
 62
7
  6
BYLAYER
 70
0
 71
3
 72
13
 73
9
 74
0
 42
0.0000001
 43
0.0000001
 44
0.0000000001
 40
0.0
 40
0.0
 40
0.0
 40
0.0
 40
0.2371557838
 40
0.3653770232
 40
0.4966932712
 40
0.6285578204
 40
0.7582749726
 40
1.0
 40
1.0
 40
1.0
 40
1.0
 10
59.5561183115
 20
73.2271815841
 30
0.0
 10
59.6762547201
 20
73.225257801
 30
0.0
 10
59.8631344416
 20
73.1865256204
 30
0.0
 10
60.0857236568
 20
73.0667491933
 30
0.0
 10
60.2404906865
 20
72.9405461517
 30
0.0
 10
60.3666071828
 20
72.7847611274
 30
0.0
 10
60.4878443902
 20
72.5591821933
 30
0.0
 10
60.5286567725
 20
72.3699225544
 30
0.0
 10
60.5326578608
 20
72.2475211744
 30
0.0
  0
SPLINE
  5
256
100
AcDbEntity
  8
0
100
AcDbSpline
 62
7
  6
BYLAYER
 70
0
 71
3
 72
13
 73
9
 74
0
 42
0.0000001
 43
0.0000001
 44
0.0000000001
 40
0.0
 40
0.0
 40
0.0
 40
0.0
 40
0.2316255196
 40
0.3581410217
 40
0.4889220967
 40
0.621529181
 40
0.7530371291
 40
1.0
 40
1.0
 40
1.0
 40
1.0
 10
59.7904683527
 20
73.2818242922
 30
0.0
 10
59.9046046192
 20
73.2788012244
 30
0.0
 10
60.082405102
 20
73.2381872281
 30
0.0
 10
60.2925116999
 20
73.1179385193
 30
0.0
 10
60.439205139
 20
72.9916887231
 30
0.0
 10
60.5589921347
 20
72.8366415361
 30
0.0
 10
60.6750959197
 20
72.6119335449
 30
0.0
 10
60.7149388779
 20
72.4247332909
 30
0.0
 10
60.7198901494
 20
72.3030974118
 30
0.0
  0
SPLINE
  5
257
100
AcDbEntity
  8
0
100
AcDbSpline
 62
7
  6
BYLAYER
 70
0
 71
3
 72
15
 73
11
 74
0
 42
0.0000001
 43
0.0000001
 44
0.0000000001
 40
0.0
 40
0.0
 40
0.0
 40
0.0
 40
0.0955700895
 40
0.2007637261
 40
0.3175900596
 40
0.4454331681
 40
0.5822056091
 40
0.7235955953
 40
0.8643381175
 40
1.0
 40
1.0
 40
1.0
 40
1.0
 10
60.9679017278
 20
73.3876664439
 30
0.0
 10
61.0093706357
 20
73.3854304462
 30
0.0
 10
61.0961678597
 20
73.3692208715
 30
0.0
 10
61.222755898
 20
73.3110496606
 30
0.0
 10
61.3432083243
 20
73.2162978543
 30
0.0
 10
61.4514357899
 20
73.0894425608
 30
0.0
 10
61.5397401209
 20
72.9357295381
 30
0.0
 10
61.6058880023
 20
72.7654523611
 30
0.0
 10
61.646919195
 20
72.5880494302
 30
0.0
 10
61.6591972869
 20
72.4682240766
 30
0.0
 10
61.6615640136
 20
72.4093209204
 30
0.0
  0
SPLINE
  5
258
100
AcDbEntity
  8
0
100
AcDbSpline
 62
7
  6
BYLAYER
 70
0
 71
3
 72
17
 73
13
 74
0
 42
0.0000001
 43
0.0000001
 44
0.0000000001
 40
0.0
 40
0.0
 40
0.0
 40
0.0
 40
0.0546345175
 40
0.0887580789
 40
0.1288283024
 40
0.1756018704
 40
0.2291193956
 40
0.2891313442
 40
0.3553033764
 40
0.5036738821
 40
0.6664286151
 40
1.0
 40
1.0
 40
1.0
 40
1.0
 10
62.9877289205
 20
73.3823567359
 30
0.0
 10
63.0064240076
 20
73.3784100487
 30
0.0
 10
63.0346969103
 20
73.3621645432
 30
0.0
 10
63.0659971588
 20
73.3297765534
 30
0.0
 10
63.0905749078
 20
73.29510692
 30
0.0
 10
63.1138615236
 20
73.2518112556
 30
0.0
 10
63.1358341226
 20
73.2001628909
 30
0.0
 10
63.1561087232
 20
73.1406271405
 30
0.0
 10
63.1813162352
 20
73.0479215723
 30
0.0
 10
63.2053053852
 20
72.9179485996
 30
0.0
 10
63.2294699833
 20
72.6936586639
 30
0.0
 10
63.2314037665
 20
72.5195714103
 30
0.0
 10
63.2268465231
 20
72.403001725
 30
0.0
  0
SPLINE
  5
259
100
AcDbEntity
  8
0
100
AcDbSpline
 62
7
  6
BYLAYER
 70
0
 71
3
 72
13
 73
9
 74
0
 42
0.0000001
 43
0.0000001
 44
0.0000000001
 40
0.0
 40
0.0
 40
0.0
 40
0.0
 40
0.2375843862
 40
0.3659352589
 40
0.4972892321
 40
0.6290930208
 40
0.7586707905
 40
1.0
 40
1.0
 40
1.0
 40
1.0
 10
59.5379770543
 20
73.2207021029
 30
0.0
 10
59.6586073711
 20
73.2189161779
 30
0.0
 10
59.8462497204
 20
73.1803933626
 30
0.0
 10
60.0698735867
 20
73.0606788024
 30
0.0
 10
60.2252982113
 20
72.9344707999
 30
0.0
 10
60.3519058061
 20
72.7785918492
 30
0.0
 10
60.4735000898
 20
72.5528767778
 30
0.0
 10
60.5143048672
 20
72.363398801
 30
0.0
 10
60.5181658351
 20
72.2409145099
 30
0.0
  0
SPLINE
  5
25A
100
AcDbEntity
  8
0
100
AcDbSpline
 62
7
  6
BYLAYER
 70
0
 71
3
 72
14
 73
10
 74
0
 42
0.0000001
 43
0.0000001
 44
0.0000000001
 40
0.0
 40
0.0
 40
0.0
 40
0.0
 40
0.2493050128
 40
0.374426544
 40
0.4995311268
 40
0.6246381179
 40
0.7497578202
 40
0.8749822186
 40
1.0
 40
1.0
 40
1.0
 40
1.0
 10
57.7426598567
 20
72.5586296606
 30
0.0
 10
57.8702064278
 20
72.5585326552
 30
0.0
 10
58.0641990632
 20
72.5244375338
 30
0.0
 10
58.2951266352
 20
72.4123259175
 30
0.0
 10
58.4496931088
 20
72.2962032891
 30
0.0
 10
58.5783084123
 20
72.1518912497
 30
0.0
 10
58.6750030297
 20
71.9843155836
 30
0.0
 10
58.7352771392
 20
71.8006187145
 30
0.0
 10
58.7498425476
 20
71.6723811245
 30
0.0
 10
58.7506233853
 20
71.6084257091
 30
0.0
  0
LINE
  5
25B
100
AcDbEntity
  8
0
100
AcDbLine
 62
7
  6
BYLAYER
 10
58.7506233853
 20
71.6084257091
 11
58.7862084876
 21
68.7029658208
  0
SPLINE
  5
25C
100
AcDbEntity
  8
0
100
AcDbSpline
 62
7
  6
BYLAYER
 70
0
 71
3
 72
10
 73
6
 74
0
 42
0.0000001
 43
0.0000001
 44
0.0000000001
 40
0.0
 40
0.0
 40
0.0
 40
0.0
 40
0.2013380262
 40
0.5646077484
 40
1.0
 40
1.0
 40
1.0
 40
1.0
 10
60.518161775
 20
72.241181156
 30
0.0
 10
60.3997672034
 20
72.1980748162
 30
0.0
 10
60.0678140692
 20
72.0770303775
 30
0.0
 10
59.4785404507
 20
71.8663453994
 30
0.0
 10
59.0076721041
 20
71.6987484511
 30
0.0
 10
58.7506239684
 20
71.6083836252
 30
0.0
  0
SPLINE
  5
25D
100
AcDbEntity
  8
0
100
AcDbSpline
 62
7
  6
BYLAYER
 70
0
 71
3
 72
9
 73
5
 74
0
 42
0.0000001
 43
0.0000001
 44
0.0000000001
 40
0.0
 40
0.0
 40
0.0
 40
0.0
 40
0.4999887553
 40
1.0
 40
1.0
 40
1.0
 40
1.0
 10
60.5614685525
 20
69.3202074541
 30
0.0
 10
60.5544227922
 20
69.8069841816
 30
0.0
 10
60.5415859038
 20
70.7805773945
 30
0.0
 10
60.5268338147
 20
71.754143268
 30
0.0
 10
60.5197440467
 20
72.2409412563
 30
0.0
  0
SPLINE
  5
25E
100
AcDbEntity
  8
0
100
AcDbSpline
 62
7
  6
BYLAYER
 70
0
 71
3
 72
15
 73
11
 74
0
 42
0.0000001
 43
0.0000001
 44
0.0000000001
 40
0.0
 40
0.0
 40
0.0
 40
0.0
 40
0.4471467842
 40
0.6255655618
 40
0.7703855717
 40
0.8793890885
 40
0.9519651349
 40
0.974731077
 40
0.989531388
 40
1.0
 40
1.0
 40
1.0
 40
1.0
 10
70.0818592728
 20
72.3293899454
 30
0.0
 10
70.1301251728
 20
72.3170032696
 30
0.0
 10
70.1976600063
 20
72.2997122596
 30
0.0
 10
70.2809053305
 20
72.2787192457
 30
0.0
 10
70.3276488766
 20
72.2670853979
 30
0.0
 10
70.3630156286
 20
72.2585856203
 30
0.0
 10
70.3851780616
 20
72.25334767
 30
0.0
 10
70.3971876941
 20
72.2508044431
 30
0.0
 10
70.4024005795
 20
72.2495947786
 30
0.0
 10
70.4052137697
 20
72.2492661855
 30
0.0
 10
70.4063334983
 20
72.2489387533
 30
0.0
  0
SPLINE
  5
25F
100
AcDbEntity
  8
0
100
AcDbSpline
 62
7
  6
BYLAYER
 70
0
 71
3
 72
17
 73
13
 74
0
 42
0.0000001
 43
0.0000001
 44
0.0000000001
 40
0.0
 40
0.0
 40
0.0
 40
0.0
 40
0.0533205974
 40
0.0869458446
 40
0.1266454271
 40
0.1731743174
 40
0.2265617679
 40
0.35272593
 40
0.5014692069
 40
0.6648190136
 40
0.8337372792
 40
1.0
 40
1.0
 40
1.0
 40
1.0
 10
63.0464642417
 20
73.379395004
 30
0.0
 10
63.0646004149
 20
73.3754343556
 30
0.0
 10
63.0919389764
 20
73.3590471004
 30
0.0
 10
63.1219059115
 20
73.3267459727
 30
0.0
 10
63.1454676201
 20
73.2920752142
 30
0.0
 10
63.1677341616
 20
73.2487908544
 30
0.0
 10
63.1973416265
 20
73.1757683558
 30
0.0
 10
63.2282503668
 20
73.0653842031
 30
0.0
 10
63.2543297773
 20
72.9148913441
 30
0.0
 10
63.270839065
 20
72.7481088916
 30
0.0
 10
63.2769357732
 20
72.5745588819
 30
0.0
 10
63.2748806809
 20
72.4578253549
 30
0.0
 10
63.2723852788
 20
72.3999946736
 30
0.0
  0
SPLINE
  5
260
100
AcDbEntity
  8
0
100
AcDbSpline
 62
7
  6
BYLAYER
 70
0
 71
3
 72
15
 73
11
 74
0
 42
0.0000001
 43
0.0000001
 44
0.0000000001
 40
0.0
 40
0.0
 40
0.0
 40
0.0
 40
0.0963521017
 40
0.2003873753
 40
0.3144550094
 40
0.4390158392
 40
0.5731997744
 40
0.7140827182
 40
0.8576805578
 40
1.0
 40
1.0
 40
1.0
 40
1.0
 10
69.915890522
 20
72.3713436975
 30
0.0
 10
69.9652053058
 20
72.3561855837
 30
0.0
 10
70.0641402524
 20
72.3115441971
 30
0.0
 10
70.197760446
 20
72.2065686581
 30
0.0
 10
70.3129331172
 20
72.0618820121
 30
0.0
 10
70.4048139074
 20
71.8833574627
 30
0.0
 10
70.4675576174
 20
71.677783021
 30
0.0
 10
70.5012313317
 20
71.4554294539
 30
0.0
 10
70.5050405283
 20
71.2263549188
 30
0.0
 10
70.4900558268
 20
71.0736386765
 30
0.0
 10
70.4785086887
 20
70.998313529
 30
0.0
  0
SPLINE
  5
261
100
AcDbEntity
  8
0
100
AcDbSpline
 62
7
  6
BYLAYER
 70
0
 71
3
 72
15
 73
11
 74
0
 42
0.0000001
 43
0.0000001
 44
0.0000000001
 40
0.0
 40
0.0
 40
0.0
 40
0.0
 40
0.0972281
 40
0.2019277069
 40
0.3163408272
 40
0.4409079849
 40
0.5747995077
 40
0.7151946279
 40
0.8582248194
 40
1.0
 40
1.0
 40
1.0
 40
1.0
 10
70.0818546288
 20
72.3293911771
 30
0.0
 10
70.1318507438
 20
72.3139132326
 30
0.0
 10
70.2320435772
 20
72.2687052018
 30
0.0
 10
70.3674665358
 20
72.1629513836
 30
0.0
 10
70.484209367
 20
72.0175675069
 30
0.0
 10
70.5773286503
 20
71.8384368985
 30
0.0
 10
70.6409187931
 20
71.6323515457
 30
0.0
 10
70.6750313489
 20
71.4095776984
 30
0.0
 10
70.6788786077
 20
71.1801376323
 30
0.0
 10
70.6636773743
 20
71.0272183951
 30
0.0
 10
70.6519687984
 20
70.9518053955
 30
0.0
  0
SPLINE
  5
262
100
AcDbEntity
  8
0
100
AcDbSpline
 62
7
  6
BYLAYER
 70
0
 71
3
 72
16
 73
12
 74
0
 42
0.0000001
 43
0.0000001
 44
0.0000000001
 40
0.0
 40
0.0
 40
0.0
 40
0.0
 40
0.0624811859
 40
0.1249983227
 40
0.1874930375
 40
0.2499901885
 40
0.3749959112
 40
0.4999963458
 40
0.6249964607
 40
0.749998116
 40
1.0
 40
1.0
 40
1.0
 40
1.0
 10
71.4859155686
 20
70.8351587014
 30
0.0
 10
71.4690044542
 20
70.8398250227
 30
0.0
 10
71.4345740616
 20
70.8469028081
 30
0.0
 10
71.3826572685
 20
70.8555416176
 30
0.0
 10
71.330657659
 20
70.8638039324
 30
0.0
 10
71.2612217439
 20
70.8740833927
 30
0.0
 10
71.1743063655
 20
70.8861178785
 30
0.0
 10
71.0699312257
 20
70.8999832793
 30
0.0
 10
70.9655010235
 20
70.9134211968
 30
0.0
 10
70.8262032971
 20
70.930885463
 30
0.0
 10
70.7216726654
 20
70.9435239198
 30
0.0
 10
70.6519688406
 20
70.9518053754
 30
0.0
  0
SPLINE
  5
263
100
AcDbEntity
  8
0
100
AcDbSpline
 62
7
  6
BYLAYER
 70
0
 71
3
 72
11
 73
7
 74
0
 42
0.0000001
 43
0.0000001
 44
0.0000000001
 40
0.0
 40
0.0
 40
0.0
 40
0.0
 40
0.1895294395
 40
0.4210780654
 40
0.6921153145
 40
1.0
 40
1.0
 40
1.0
 40
1.0
 10
59.7900651213
 20
73.2817732523
 30
0.0
 10
59.8637365377
 20
73.2944137335
 30
0.0
 10
60.0283433788
 20
73.3170028879
 30
0.0
 10
60.2999539257
 20
73.3443684147
 30
0.0
 10
60.6187113141
 20
73.3684661742
 30
0.0
 10
60.8466653929
 20
73.3815443556
 30
0.0
 10
60.9679350775
 20
73.3876988994
 30
0.0
  0
LINE
  5
264
100
AcDbEntity
  8
0
100
AcDbLine
 62
7
  6
BYLAYER
 10
72.8401380854
 20
68.1493633997
 11
72.8950852323
 21
43.1493633997
  0
ENDSEC
  0
SECTION
  2
OBJECTS
  0
DICTIONARY
  5
C
100
AcDbDictionary
280
0
281
1
  3
ACAD_GROUP
350
D
  3
ACAD_MLINESTYLE
350
17
  3
ACAD_LAYOUT
350
1A
  3
ACAD_PLOTSETTINGS
350
19
  3
ACAD_PLOTSTYLENAME
350
E
  0
DICTIONARY
  5
D
102
{ACAD_REACTORS
330
C
102
}
100
AcDbDictionary
280
0
281
1
  0
ACDBDICTIONARYWDFLT
  5
E
102
{ACAD_REACTORS
330
C
102
}
100
AcDbDictionary
281
1
  3
Normal
350
F
100
AcDbDictionaryWithDefault
340
F
  0
DICTIONARY
  5
17
102
{ACAD_REACTORS
330
C
102
}
100
AcDbDictionary
280
0
281
1
  3
Standard
350
18
  0
DICTIONARY
  5
19
102
{ACAD_REACTORS
330
C
102
}
100
AcDbDictionary
281
1
  0
DICTIONARY
  5
1A
102
{ACAD_REACTORS
330
C
102
}
100
AcDbDictionary
281
1
  3
Model
350
265
  3
Layout1
350
266
  0
ACDBPLACEHOLDER
  5
F
102
{ACAD_REACTORS
330
E
102
}
  0
MLINESTYLE
  5
18
102
{ACAD_REACTORS
330
17
102
}
100
AcDbMlineStyle
  2
STANDARD
 70
0
  3

 62
256
 51
90.0
 52
90.0
 71
2
 49
0.5
 62
256
  6
BYLAYER
 49
-0.5
 62
256
  6
BYLAYER
  0
LAYOUT
  5
265
102
{ACAD_REACTORS
330
1A
102
}
100
AcDbPlotSettings
  1

  2
none_device
  4

  6

 40
0.0
 41
0.0
 42
0.0
 43
0.0
 44
210.0
 45
297.0
 46
0.0
 47
0.0
 48
0.0
 49
0.0
140
0.0
141
0.0
142
1.0
143
1.0
 70
1024
 72
1
 73
0
 74
0
  7

 75
0
147
1.0
148
0.0
149
0.0
100
AcDbLayout
  1
Model
 70
0
 71
0
 10
0.0
 20
0.0
 11
210.0
 21
297.0
 12
0.0
 22
0.0
 32
0.0
 14
0.0
 24
0.0
 34
0.0
 15
0.0
 25
0.0
 35
0.0
146
0.0
 13
0.0
 23
0.0
 33
0.0
 16
1.0
 26
0.0
 36
0.0
 17
0.0
 27
1.0
 37
0.0
 76
0
330
210
345
0
346
0
  0
LAYOUT
  5
266
102
{ACAD_REACTORS
330
1A
102
}
100
AcDbPlotSettings
  1

  2
none_device
  4

  6

 40
0.0
 41
0.0
 42
0.0
 43
0.0
 44
210.0
 45
297.0
 46
0.0
 47
0.0
 48
0.0
 49
0.0
140
0.0
141
0.0
142
1.0
143
1.0
 70
0
 72
1
 73
0
 74
0
  7

 75
0
147
1.0
148
0.0
149
0.0
100
AcDbLayout
  1
Layout1
 70
0
 71
1
 10
0.0
 20
0.0
 11
210.0
 21
297.0
 12
0.0
 22
0.0
 32
0.0
 14
0.0
 24
0.0
 34
0.0
 15
0.0
 25
0.0
 35
0.0
146
0.0
 13
0.0
 23
0.0
 33
0.0
 16
1.0
 26
0.0
 36
0.0
 17
0.0
 27
1.0
 37
0.0
 76
0
330
211
345
0
346
0
  0
ENDSEC
  0
EOF
