999
DXF file: C:\Users\sesa63760\Dev\_Creo\CAD\MCADID0004773_3D-CAD\drw0001_5.dxf
999
Pro/ENGINEER 2019471 by Parametric Technology Corporation
  0
SECTION
  2
HEADER
  9
$ACADVER
  1
AC1024
  9
$DWGCODEPAGE
  3
ANSI_1252
  9
$EXTMAX
 10
179.3440945402
 20
253.6437908497
 30
0.0
  9
$EXTMIN
 10
0.0
 20
0.0
 30
0.0
  9
$LIMMIN
 10
0.0
 20
0.0
  9
$LIMMAX
 10
179.3440945402
 20
253.6437908497
  9
$VIEWCTR
 10
89.6720472701
 20
126.8218954248
  9
$VIEWSIZE
 40
253.6437908497
  9
$CLAYER
  8
0
  9
$LTSCALE
 40
16.5338174776
  9
$CELTYPE
  6
BYLAYER
  9
$DIMSCALE
 40
1.0
  9
$DIMASZ
 40
2.1350487445
  9
$DIMEXO
 40
1.0
  9
$DIMDLI
 40
11.4233648027
  9
$DIMEXE
 40
1.0
  9
$DIMCEN
 40
2.7055337691
  9
$DIMLFAC
 40
1.0
  9
$DIMBLK
  1
_FILLED
  9
$DIMALT
 70
0
  9
$DIMALTF
 40
0.0393700787
  9
$DIMTXT
 40
2.9890682423
  9
$DIMTOL
 70
1
  9
$DIMLIM
 70
0
  9
$DIMTFAC
 40
1.0
  9
$DIMTP
 40
0.01
  9
$DIMTM
 40
0.01
  9
$DIMGAP
 40
0.625
  9
$DIMDSEP
 70
46
  9
$AUNITS
 70
0
  9
$PDMODE
 70
3
  9
$PDSIZE
 40
0.3125
  9
$HANDSEED
  5
282
  9
$TILEMODE
 70
1
  9
$MEASUREMENT
 70
1
  9
$INSUNITS
 70
4
  0
ENDSEC
  0
SECTION
  2
CLASSES
  0
CLASS
  1
ACDBDICTIONARYWDFLT
  2
AcDbDictionaryWithDefault
  3
AutoCAD 2000
 90
0
 91
1
280
0
281
0
  0
CLASS
  1
ACDBPLACEHOLDER
  2
AcDbPlaceHolder
  3
AutoCAD 2000
 90
0
 91
1
280
0
281
0
  0
CLASS
  1
LAYOUT
  2
AcDbLayout
  3
AutoCAD 2000
 90
0
 91
0
280
0
281
0
  0
ENDSEC
  0
SECTION
  2
TABLES
  0
TABLE
  2
VPORT
  5
8
100
AcDbSymbolTable
 70
2
  0
VPORT
  5
1F4
100
AcDbSymbolTableRecord
100
AcDbViewportTableRecord
  2
*ACTIVE
 70
0
 10
0.0
 20
0.0
 11
1.0
 21
1.0
 12
89.6720472701
 22
126.8218954248
 13
0.0
 23
0.0
 14
1.0
 24
1.0
 15
0.0
 25
0.0
 16
0.0
 26
0.0
 36
1.0
 17
0.0
 27
0.0
 37
0.0
 40
253.6437908497
 41
0.7070707071
 42
50.0
 43
0.0
 44
0.0
 50
0.0
 51
0.0
 71
0
 72
100
 73
1
 74
1
 75
0
 76
0
 77
0
 78
0
  0
ENDTAB
  0
TABLE
  2
LTYPE
  5
5
100
AcDbSymbolTable
 70
6
  0
LTYPE
  5
14
100
AcDbSymbolTableRecord
100
AcDbLinetypeTableRecord
  2
BYBLOCK
 70
0
  3

 72
65
 73
0
 40
0.0
  0
LTYPE
  5
15
100
AcDbSymbolTableRecord
100
AcDbLinetypeTableRecord
  2
BYLAYER
 70
0
  3

 72
65
 73
0
 40
0.0
  0
LTYPE
  5
16
100
AcDbSymbolTableRecord
100
AcDbLinetypeTableRecord
  2
CONTINUOUS
 70
64
  3
Solid line
 72
65
 73
0
 40
0.0
  0
LTYPE
  5
1F5
100
AcDbSymbolTableRecord
100
AcDbLinetypeTableRecord
  2
CENTER
 70
64
  3
____ _ ____ _ ____ _ ____ _ ____ _ ____ _ ____
 72
65
 73
4
 40
0.6
 49
0.375
 74
0
 49
-0.075
 74
0
 49
0.075
 74
0
 49
-0.075
 74
0
  0
LTYPE
  5
1F6
100
AcDbSymbolTableRecord
100
AcDbLinetypeTableRecord
  2
HIDDEN
 70
64
  3
- - - - - - - - - - - - - - - - - - - -
 72
65
 73
2
 40
0.2
 49
0.1
 74
0
 49
-0.1
 74
0
  0
LTYPE
  5
1F7
100
AcDbSymbolTableRecord
100
AcDbLinetypeTableRecord
  2
PHANTOM
 70
64
  3
_____ _ _ _____ _ _ _____ _ _ _____
 72
65
 73
6
 40
0.8
 49
0.45
 74
0
 49
-0.05
 74
0
 49
0.1
 74
0
 49
-0.05
 74
0
 49
0.1
 74
0
 49
-0.05
 74
0
  0
LTYPE
  5
1F8
100
AcDbSymbolTableRecord
100
AcDbLinetypeTableRecord
  2
DOT
 70
64
  3
. . . . . . . . . . . . . . . . . . . .
 72
65
 73
2
 40
0.2
 49
0.1
 74
0
 49
-0.1
 74
0
  0
LTYPE
  5
1F9
100
AcDbSymbolTableRecord
100
AcDbLinetypeTableRecord
  2
DASHED
 70
64
  3
- - - - - - - - - - - - - - - - - - - -
 72
65
 73
2
 40
0.2
 49
0.1
 74
0
 49
-0.1
 74
0
  0
ENDTAB
  0
TABLE
  2
LAYER
  5
2
100
AcDbSymbolTable
 70
36
  0
LAYER
  5
10
100
AcDbSymbolTableRecord
100
AcDbLayerTableRecord
  2
0
 70
0
 62
7
  6
CONTINUOUS
370
-3
390
F
  0
LAYER
  5
1FA
100
AcDbSymbolTableRecord
100
AcDbLayerTableRecord
  2
DEFAULT_1
 70
0
 62
7
  6
CENTER
370
-3
390
F
  0
LAYER
  5
1FB
100
AcDbSymbolTableRecord
100
AcDbLayerTableRecord
  2
DEFAULT_2
 70
0
 62
7
  6
HIDDEN
370
-3
390
F
  0
LAYER
  5
1FC
100
AcDbSymbolTableRecord
100
AcDbLayerTableRecord
  2
DEFAULT_3
 70
0
 62
7
  6
PHANTOM
370
-3
390
F
  0
LAYER
  5
1FD
100
AcDbSymbolTableRecord
100
AcDbLayerTableRecord
  2
00_COMPONENTS
 70
0
 62
7
  6
CONTINUOUS
370
-3
390
F
  0
LAYER
  5
1FE
100
AcDbSymbolTableRecord
100
AcDbLayerTableRecord
  2
01_1_DEFAULT_DATUMS
 70
0
 62
7
  6
CONTINUOUS
370
-3
390
F
  0
LAYER
  5
1FF
100
AcDbSymbolTableRecord
100
AcDbLayerTableRecord
  2
01_PLANES
 70
0
 62
7
  6
CONTINUOUS
370
-3
390
F
  0
LAYER
  5
200
100
AcDbSymbolTableRecord
100
AcDbLayerTableRecord
  2
02_COORD_SYS
 70
0
 62
7
  6
CONTINUOUS
370
-3
390
F
  0
LAYER
  5
201
100
AcDbSymbolTableRecord
100
AcDbLayerTableRecord
  2
03_AXES
 70
0
 62
7
  6
CONTINUOUS
370
-3
390
F
  0
LAYER
  5
202
100
AcDbSymbolTableRecord
100
AcDbLayerTableRecord
  2
04_POINTS
 70
0
 62
7
  6
CONTINUOUS
370
-3
390
F
  0
LAYER
  5
203
100
AcDbSymbolTableRecord
100
AcDbLayerTableRecord
  2
05_CURVES
 70
0
 62
7
  6
CONTINUOUS
370
-3
390
F
  0
LAYER
  5
204
100
AcDbSymbolTableRecord
100
AcDbLayerTableRecord
  2
06_SURFS
 70
0
 62
7
  6
CONTINUOUS
370
-3
390
F
  0
LAYER
  5
205
100
AcDbSymbolTableRecord
100
AcDbLayerTableRecord
  2
07_COSMETICS
 70
0
 62
7
  6
CONTINUOUS
370
-3
390
F
  0
LAYER
  5
206
100
AcDbSymbolTableRecord
100
AcDbLayerTableRecord
  2
10_NOTES
 70
0
 62
7
  6
CONTINUOUS
370
-3
390
F
  0
LAYER
  5
207
100
AcDbSymbolTableRecord
100
AcDbLayerTableRecord
  2
11_NOTES_PUB
 70
0
 62
7
  6
CONTINUOUS
370
-3
390
F
  0
LAYER
  5
208
100
AcDbSymbolTableRecord
100
AcDbLayerTableRecord
  2
13_REF_GTOL
 70
0
 62
7
  6
CONTINUOUS
370
-3
390
F
  0
LAYER
  5
209
100
AcDbSymbolTableRecord
100
AcDbLayerTableRecord
  2
16_MISC
 70
0
 62
7
  6
CONTINUOUS
370
-3
390
F
  0
LAYER
  5
20A
100
AcDbSymbolTableRecord
100
AcDbLayerTableRecord
  2
17_NO_PRINT
 70
0
 62
7
  6
CONTINUOUS
370
-3
390
F
  0
LAYER
  5
20B
100
AcDbSymbolTableRecord
100
AcDbLayerTableRecord
  2
18_DATUM_CAMS_JOINTS
 70
0
 62
7
  6
CONTINUOUS
370
-3
390
F
  0
LAYER
  5
20C
100
AcDbSymbolTableRecord
100
AcDbLayerTableRecord
  2
19_DATUM_FUNCTIONAL
 70
0
 62
7
  6
CONTINUOUS
370
-3
390
F
  0
LAYER
  5
20D
100
AcDbSymbolTableRecord
100
AcDbLayerTableRecord
  2
20_DATUM_KINEMATIC_SCHEME
 70
0
 62
7
  6
CONTINUOUS
370
-3
390
F
  0
ENDTAB
  0
TABLE
  2
STYLE
  5
3
100
AcDbSymbolTable
 70
1
  0
STYLE
  5
11
100
AcDbSymbolTableRecord
100
AcDbTextStyleTableRecord
  2
STANDARD
 70
0
 40
0.0
 41
1.0
 50
0.0
 71
0
 42
0.2
  3
ARIAL.TTF
  4

  0
STYLE
  5
20E
100
AcDbSymbolTableRecord
100
AcDbTextStyleTableRecord
  2
TEXTSTYLE_1
 70
0
 40
0.0
 41
0.8
 50
0.0
 71
0
 42
0.2
  3
gdt
  4

  0
ENDTAB
  0
TABLE
  2
VIEW
  5
6
100
AcDbSymbolTable
 70
0
  0
ENDTAB
  0
TABLE
  2
UCS
  5
7
100
AcDbSymbolTable
 70
0
  0
ENDTAB
  0
TABLE
  2
APPID
  5
9
100
AcDbSymbolTable
 70
1
  0
APPID
  5
20F
100
AcDbSymbolTableRecord
100
AcDbRegAppTableRecord
  2
ACAD
 70
0
  0
ENDTAB
  0
TABLE
  2
BLOCK_RECORD
  5
1
100
AcDbSymbolTable
 70
0
  0
BLOCK_RECORD
  5
210
100
AcDbSymbolTableRecord
100
AcDbBlockTableRecord
  2
*Model_Space
  0
BLOCK_RECORD
  5
211
100
AcDbSymbolTableRecord
100
AcDbBlockTableRecord
  2
*Paper_Space
  0
BLOCK_RECORD
  5
212
100
AcDbSymbolTableRecord
100
AcDbBlockTableRecord
  2
_FILLED
  0
ENDTAB
  0
TABLE
  2
DIMSTYLE
  5
A
100
AcDbSymbolTable
 70
1
100
AcDbDimStyleTable
 71
0
  0
DIMSTYLE
105
213
100
AcDbSymbolTableRecord
100
AcDbDimStyleTableRecord
  2
STANDARD
 70
0
  3

  4

 40
1.0
 41
2.1350487445
 42
1.0
 43
0.38
 44
1.0
 45
0.0
 46
0.0
 47
0.01
 48
0.01
140
2.9890682423
141
0.09
142
0.0
143
25.4
144
1.0
145
0.0
146
1.0
147
0.625
 71
1
 72
0
 73
0
 74
0
 75
0
 76
0
 77
1
 78
8
 79
2
170
0
171
1
172
0
173
0
174
0
175
0
176
0
177
0
178
0
270
2
179
2
271
2
272
2
273
2
274
2
275
0
280
0
281
0
282
0
283
1
284
8
285
0
286
0
287
3
288
0
340
11
278
46
341
212
342
212
343
212
344
212
  0
ENDTAB
  0
ENDSEC
  0
SECTION
  2
BLOCKS
  0
BLOCK
  5
20
100
AcDbEntity
  8
0
100
AcDbBlockBegin
  2
*Model_Space
 70
0
 10
0.0
 20
0.0
 30
0.0
  3
*Model_Space
  1

  0
ENDBLK
  5
21
100
AcDbEntity
  8
0
100
AcDbBlockEnd
  0
BLOCK
  5
1C
100
AcDbEntity
  8
0
100
AcDbBlockBegin
  2
*Paper_Space
 70
0
 10
0.0
 20
0.0
 30
0.0
  3
*Paper_Space
  1

  0
ENDBLK
  5
1D
100
AcDbEntity
  8
0
100
AcDbBlockEnd
  0
BLOCK
  5
214
100
AcDbEntity
  8
0
100
AcDbBlockBegin
  2
_FILLED
 70
64
 10
0.0
 20
0.0
  3
_FILLED
  1

  0
SOLID
  5
215
100
AcDbEntity
  8
0
  6
BYBLOCK
 62
0
100
AcDbTrace
 10
0.0
 20
0.0
 11
-1.0
 21
0.25
 12
-1.0
 22
-0.25
 13
-1.0
 23
-0.25
  0
ENDBLK
  5
216
100
AcDbEntity
  8
0
  6
BYBLOCK
 62
0
100
AcDbBlockEnd
  0
ENDSEC
  0
SECTION
  2
ENTITIES
  0
LINE
  5
217
100
AcDbEntity
  8
0
100
AcDbLine
 62
7
  6
BYLAYER
 10
20.9057074008
 20
124.032558912
 11
20.9057074008
 21
130.2321469704
  0
LINE
  5
218
100
AcDbEntity
  8
0
100
AcDbLine
 62
7
  6
BYLAYER
 10
128.4057074008
 20
110.6323529412
 11
133.9057074008
 21
110.6323529412
  0
LINE
  5
219
100
AcDbEntity
  8
0
100
AcDbLine
 62
7
  6
BYLAYER
 10
134.1057074008
 20
110.6323529412
 11
152.9057074008
 21
110.6323529412
  0
LINE
  5
21A
100
AcDbEntity
  8
0
100
AcDbLine
 62
7
  6
BYLAYER
 10
153.1057074008
 20
110.8323529412
 11
148.5057074008
 21
110.8323474769
  0
LINE
  5
21B
100
AcDbEntity
  8
0
100
AcDbLine
 62
7
  6
BYLAYER
 10
148.5057074008
 20
112.1323529412
 11
127.9057074008
 21
112.1323529412
  0
LINE
  5
21C
100
AcDbEntity
  8
0
100
AcDbLine
 62
7
  6
BYLAYER
 10
148.5057074008
 20
113.1323529412
 11
153.5057074008
 21
113.1323529412
  0
LINE
  5
21D
100
AcDbEntity
  8
0
100
AcDbLine
 62
7
  6
BYLAYER
 10
153.7557074008
 20
113.3823529412
 11
154.1057074008
 21
113.3823529412
  0
LINE
  5
21E
100
AcDbEntity
  8
0
100
AcDbLine
 62
7
  6
BYLAYER
 10
148.5057074008
 20
117.1323529412
 11
153.5057074008
 21
117.1323529412
  0
LINE
  5
21F
100
AcDbEntity
  8
0
100
AcDbLine
 62
7
  6
BYLAYER
 10
148.3057073697
 20
118.5323533069
 11
148.5057074008
 21
118.5323533069
  0
LINE
  5
220
100
AcDbEntity
  8
0
100
AcDbLine
 62
7
  6
BYLAYER
 10
152.9057073818
 20
118.6556504435
 11
148.7057074008
 21
118.6556504435
  0
LINE
  5
221
100
AcDbEntity
  8
0
100
AcDbLine
 62
7
  6
BYLAYER
 10
152.905715545
 20
118.7323529412
 11
148.7057073753
 21
118.7323529412
  0
LINE
  5
222
100
AcDbEntity
  8
0
100
AcDbLine
 62
7
  6
BYLAYER
 10
153.1057074008
 20
118.9323529412
 11
148.7064874312
 21
118.9323529412
  0
LINE
  5
223
100
AcDbEntity
  8
0
100
AcDbLine
 62
7
  6
BYLAYER
 10
163.4057074008
 20
120.1323529412
 11
154.1057074008
 21
120.1323529412
  0
LINE
  5
224
100
AcDbEntity
  8
0
100
AcDbLine
 62
7
  6
BYLAYER
 10
121.9057074008
 20
124.0323529412
 11
20.9057074008
 21
124.0323529412
  0
LINE
  5
225
100
AcDbEntity
  8
0
100
AcDbLine
 62
7
  6
BYLAYER
 10
133.9057074008
 20
126.6323529412
 11
132.9057074008
 21
126.6323529412
  0
LINE
  5
226
100
AcDbEntity
  8
0
100
AcDbLine
 62
7
  6
BYLAYER
 10
132.9057074008
 20
127.6323529412
 11
133.9057074008
 21
127.6323529412
  0
LINE
  5
227
100
AcDbEntity
  8
0
100
AcDbLine
 62
7
  6
BYLAYER
 10
124.8401114896
 20
120.9806122454
 11
127.436441011
 21
120.7534628455
  0
LINE
  5
228
100
AcDbEntity
  8
0
100
AcDbLine
 62
7
  6
BYLAYER
 10
124.8401114896
 20
133.2840936369
 11
127.436441011
 21
133.5112430368
  0
LINE
  5
229
100
AcDbEntity
  8
0
100
AcDbLine
 62
7
  6
BYLAYER
 10
121.9057074008
 20
130.2323529412
 11
20.9057074008
 21
130.2323529412
  0
LINE
  5
22A
100
AcDbEntity
  8
0
100
AcDbLine
 62
7
  6
BYLAYER
 10
163.4057074008
 20
134.1323529412
 11
154.1057074008
 21
134.1323529412
  0
LINE
  5
22B
100
AcDbEntity
  8
0
100
AcDbLine
 62
7
  6
BYLAYER
 10
153.1057074008
 20
135.3323529412
 11
148.7057088302
 21
135.332353166
  0
LINE
  5
22C
100
AcDbEntity
  8
0
100
AcDbLine
 62
7
  6
BYLAYER
 10
148.7057074006
 20
135.5323529412
 11
152.9057070263
 21
135.5323529412
  0
LINE
  5
22D
100
AcDbEntity
  8
0
100
AcDbLine
 62
7
  6
BYLAYER
 10
148.7057074008
 20
135.6090554472
 11
152.9057072914
 21
135.6090554472
  0
LINE
  5
22E
100
AcDbEntity
  8
0
100
AcDbLine
 62
7
  6
BYLAYER
 10
148.5057074008
 20
135.7323529277
 11
148.3057074008
 21
135.7323529277
  0
LINE
  5
22F
100
AcDbEntity
  8
0
100
AcDbLine
 62
7
  6
BYLAYER
 10
148.5057074008
 20
137.1323529412
 11
153.5057074008
 21
137.1323529412
  0
LINE
  5
230
100
AcDbEntity
  8
0
100
AcDbLine
 62
7
  6
BYLAYER
 10
153.7557074008
 20
140.8823529412
 11
154.1057074008
 21
140.8823529412
  0
LINE
  5
231
100
AcDbEntity
  8
0
100
AcDbLine
 62
7
  6
BYLAYER
 10
148.5057074008
 20
141.1323529412
 11
153.5057074008
 21
141.1323529412
  0
LINE
  5
232
100
AcDbEntity
  8
0
100
AcDbLine
 62
7
  6
BYLAYER
 10
127.9057074008
 20
142.1323529412
 11
148.5057074008
 21
142.1323529412
  0
LINE
  5
233
100
AcDbEntity
  8
0
100
AcDbLine
 62
7
  6
BYLAYER
 10
121.9057074008
 20
129.4823529412
 11
122.959260507
 21
130.5359060474
  0
LINE
  5
234
100
AcDbEntity
  8
0
100
AcDbLine
 62
7
  6
BYLAYER
 10
153.1057074008
 20
143.4323529412
 11
148.5057074008
 21
143.4323529075
  0
LINE
  5
235
100
AcDbEntity
  8
0
100
AcDbLine
 62
7
  6
BYLAYER
 10
133.9057074008
 20
143.6323529412
 11
128.4057074008
 21
143.6323529412
  0
LINE
  5
236
100
AcDbEntity
  8
0
100
AcDbLine
 62
7
  6
BYLAYER
 10
134.1057074008
 20
143.6323529412
 11
152.9057074008
 21
143.6323529412
  0
LINE
  5
237
100
AcDbEntity
  8
0
100
AcDbLine
 62
7
  6
BYLAYER
 10
121.9057074008
 20
124.7823529412
 11
122.959260507
 21
123.728799835
  0
LINE
  5
238
100
AcDbEntity
  8
0
100
AcDbLine
 62
7
  6
BYLAYER
 10
121.9057074008
 20
130.2321469704
 11
121.9057074008
 21
124.032558912
  0
LINE
  5
239
100
AcDbEntity
  8
0
100
AcDbLine
 62
7
  6
BYLAYER
 10
122.959260507
 20
130.5359060474
 11
122.959260507
 21
123.728799835
  0
LINE
  5
23A
100
AcDbEntity
  8
0
100
AcDbLine
 62
7
  6
BYLAYER
 10
123.1057074008
 20
122.8734908601
 11
123.1057074008
 21
131.3912150222
  0
LINE
  5
23B
100
AcDbEntity
  8
0
100
AcDbLine
 62
7
  6
BYLAYER
 10
124.8401114848
 20
120.9806122459
 11
124.8401114848
 21
133.2840936365
  0
LINE
  5
23C
100
AcDbEntity
  8
0
100
AcDbLine
 62
7
  6
BYLAYER
 10
127.436441011
 20
133.5112430368
 11
127.436441011
 21
120.7534628455
  0
LINE
  5
23D
100
AcDbEntity
  8
0
100
AcDbLine
 62
7
  6
BYLAYER
 10
127.9057074008
 20
111.1323530037
 11
127.9057074008
 21
143.1323527569
  0
LINE
  5
23E
100
AcDbEntity
  8
0
100
AcDbLine
 62
7
  6
BYLAYER
 10
128.4057074008
 20
110.6323529412
 11
128.4057074008
 21
143.6323529412
  0
LINE
  5
23F
100
AcDbEntity
  8
0
100
AcDbLine
 62
7
  6
BYLAYER
 10
153.9057074008
 20
137.5323529412
 11
153.5057074008
 21
137.1323529412
  0
LINE
  5
240
100
AcDbEntity
  8
0
100
AcDbLine
 62
7
  6
BYLAYER
 10
153.9057074008
 20
116.7323529412
 11
153.5057074008
 21
117.1323529412
  0
LINE
  5
241
100
AcDbEntity
  8
0
100
AcDbLine
 62
7
  6
BYLAYER
 10
132.9057074008
 20
126.6323529412
 11
132.9057074008
 21
127.6323529412
  0
LINE
  5
242
100
AcDbEntity
  8
0
100
AcDbLine
 62
7
  6
BYLAYER
 10
133.5057074008
 20
126.6323529412
 11
133.5057074008
 21
127.1323529412
  0
LINE
  5
243
100
AcDbEntity
  8
0
100
AcDbLine
 62
7
  6
BYLAYER
 10
133.9057074008
 20
110.6323529412
 11
133.9057074008
 21
143.6323529412
  0
LINE
  5
244
100
AcDbEntity
  8
0
100
AcDbLine
 62
7
  6
BYLAYER
 10
134.1057074008
 20
110.6323529412
 11
134.1057074008
 21
143.6323529412
  0
LINE
  5
245
100
AcDbEntity
  8
0
100
AcDbLine
 62
7
  6
BYLAYER
 10
153.9057074008
 20
113.5323529412
 11
153.5057074008
 21
113.1323529412
  0
LINE
  5
246
100
AcDbEntity
  8
0
100
AcDbLine
 62
7
  6
BYLAYER
 10
153.9057074008
 20
140.7323529412
 11
153.5057074008
 21
141.1323529412
  0
LINE
  5
247
100
AcDbEntity
  8
0
100
AcDbLine
 62
7
  6
BYLAYER
 10
148.3057074008
 20
143.6323529412
 11
148.3057074008
 21
135.7323530519
  0
LINE
  5
248
100
AcDbEntity
  8
0
100
AcDbLine
 62
7
  6
BYLAYER
 10
148.3057074008
 20
110.6323529412
 11
148.3057073386
 21
118.5323534628
  0
LINE
  5
249
100
AcDbEntity
  8
0
100
AcDbLine
 62
7
  6
BYLAYER
 10
148.5057074008
 20
143.4323529411
 11
148.5057074008
 21
135.7323529937
  0
LINE
  5
24A
100
AcDbEntity
  8
0
100
AcDbLine
 62
7
  6
BYLAYER
 10
148.5057074008
 20
118.5323563075
 11
148.5057074008
 21
110.8323500887
  0
LINE
  5
24B
100
AcDbEntity
  8
0
100
AcDbLine
 62
7
  6
BYLAYER
 10
148.7057073764
 20
143.432353085
 11
148.7057073818
 21
141.1323529412
  0
LINE
  5
24C
100
AcDbEntity
  8
0
100
AcDbLine
 62
7
  6
BYLAYER
 10
148.7057074
 20
110.8323489563
 11
148.7057074003
 21
113.1323529412
  0
LINE
  5
24D
100
AcDbEntity
  8
0
100
AcDbLine
 62
7
  6
BYLAYER
 10
148.7057074008
 20
117.1323529412
 11
148.7057074008
 21
118.7323529412
  0
LINE
  5
24E
100
AcDbEntity
  8
0
100
AcDbLine
 62
7
  6
BYLAYER
 10
148.7057074008
 20
135.5323529412
 11
148.7057074008
 21
137.1323529412
  0
LINE
  5
24F
100
AcDbEntity
  8
0
100
AcDbLine
 62
7
  6
BYLAYER
 10
152.9057074008
 20
110.6323529412
 11
152.9057073928
 21
113.1323529412
  0
LINE
  5
250
100
AcDbEntity
  8
0
100
AcDbLine
 62
7
  6
BYLAYER
 10
152.9057073404
 20
135.6090554472
 11
152.9057313217
 21
118.6556504435
  0
LINE
  5
251
100
AcDbEntity
  8
0
100
AcDbLine
 62
7
  6
BYLAYER
 10
152.9057225908
 20
141.1323529412
 11
152.9057074008
 21
143.6323529412
  0
LINE
  5
252
100
AcDbEntity
  8
0
100
AcDbLine
 62
7
  6
BYLAYER
 10
153.1057074008
 20
143.4323529412
 11
153.1057074008
 21
141.1323529412
  0
LINE
  5
253
100
AcDbEntity
  8
0
100
AcDbLine
 62
7
  6
BYLAYER
 10
153.1057074008
 20
135.332352941
 11
153.1057074008
 21
118.9323529412
  0
LINE
  5
254
100
AcDbEntity
  8
0
100
AcDbLine
 62
7
  6
BYLAYER
 10
153.1057074008
 20
113.1323529412
 11
153.1057074008
 21
110.8323529412
  0
LINE
  5
255
100
AcDbEntity
  8
0
100
AcDbLine
 62
7
  6
BYLAYER
 10
153.3057074008
 20
119.0499195069
 11
153.3057074008
 21
135.2147901799
  0
LINE
  5
256
100
AcDbEntity
  8
0
100
AcDbLine
 62
7
  6
BYLAYER
 10
153.5057074008
 20
141.1323529412
 11
153.5057074008
 21
137.1323529412
  0
LINE
  5
257
100
AcDbEntity
  8
0
100
AcDbLine
 62
7
  6
BYLAYER
 10
153.5057074008
 20
117.1323529412
 11
153.5057074008
 21
113.1323529412
  0
LINE
  5
258
100
AcDbEntity
  8
0
100
AcDbLine
 62
7
  6
BYLAYER
 10
153.9057074008
 20
140.7322904323
 11
153.9057074008
 21
137.5324154501
  0
LINE
  5
259
100
AcDbEntity
  8
0
100
AcDbLine
 62
7
  6
BYLAYER
 10
153.9057074008
 20
116.7322904323
 11
153.9057074008
 21
113.5324154501
  0
LINE
  5
25A
100
AcDbEntity
  8
0
100
AcDbLine
 62
7
  6
BYLAYER
 10
154.1057074008
 20
140.8821767605
 11
154.1057074008
 21
113.3825291218
  0
LINE
  5
25B
100
AcDbEntity
  8
0
100
AcDbLine
 62
7
  6
BYLAYER
 10
163.4057074008
 20
134.1323433816
 11
163.4057074008
 21
120.1323625007
  0
ARC
  5
25C
100
AcDbEntity
  8
0
100
AcDbCircle
 62
7
  6
BYLAYER
 10
125.0057074008
 20
122.8733821718
 40
1.9
100
AcDbArc
 50
180.0
 51
264.9999998541
  0
ARC
  5
25D
100
AcDbEntity
  8
0
100
AcDbCircle
 62
7
  6
BYLAYER
 10
127.3057074008
 20
119.2591707981
 40
1.5
100
AcDbArc
 50
63.1239780751
 51
85.0
  0
ARC
  5
25E
100
AcDbEntity
  8
0
100
AcDbCircle
 62
7
  6
BYLAYER
 10
128.4057074008
 20
111.1323529412
 40
0.5
100
AcDbArc
 50
180.0
 51
270.0
  0
ARC
  5
25F
100
AcDbEntity
  8
0
100
AcDbCircle
 62
7
  6
BYLAYER
 10
122.6057074008
 20
123.37524616
 40
0.5
100
AcDbArc
 50
0.0000731243
 51
45.0
  0
ARC
  5
260
100
AcDbEntity
  8
0
100
AcDbCircle
 62
7
  6
BYLAYER
 10
134.1057074008
 20
110.8323529412
 40
0.2
100
AcDbArc
 50
179.9998871591
 51
269.9999878895
  0
ARC
  5
261
100
AcDbEntity
  8
0
100
AcDbCircle
 62
7
  6
BYLAYER
 10
125.0057074008
 20
131.3913237105
 40
1.9
100
AcDbArc
 50
95.0000001459
 51
180.0
  0
ARC
  5
262
100
AcDbEntity
  8
0
100
AcDbCircle
 62
7
  6
BYLAYER
 10
127.3057074008
 20
135.0055350843
 40
1.5
100
AcDbArc
 50
275.0
 51
296.8760219249
  0
ARC
  5
263
100
AcDbEntity
  8
0
100
AcDbCircle
 62
7
  6
BYLAYER
 10
128.4057074008
 20
143.1323529412
 40
0.5
100
AcDbArc
 50
90.0
 51
180.000020854
  0
ARC
  5
264
100
AcDbEntity
  8
0
100
AcDbCircle
 62
7
  6
BYLAYER
 10
122.6057074008
 20
130.8894597224
 40
0.5
100
AcDbArc
 50
315.0
 51
359.9999268757
  0
ARC
  5
265
100
AcDbEntity
  8
0
100
AcDbCircle
 62
7
  6
BYLAYER
 10
134.1057074008
 20
143.4323529412
 40
0.2
100
AcDbArc
 50
90.0000000001
 51
180.0
  0
ARC
  5
266
100
AcDbEntity
  8
0
100
AcDbCircle
 62
7
  6
BYLAYER
 10
152.9096628422
 20
119.053975365
 40
0.3973750743
100
AcDbArc
 50
295.3742117863
 51
302.9113285012
  0
ARC
  5
267
100
AcDbEntity
  8
0
100
AcDbCircle
 62
7
  6
BYLAYER
 10
152.9088532089
 20
119.0202276711
 40
0.3645907996
100
AcDbArc
 50
269.5056242356
 51
272.8457204339
  0
ARC
  5
268
100
AcDbEntity
  8
0
100
AcDbCircle
 62
7
  6
BYLAYER
 10
148.3057074008
 20
110.8323529412
 40
0.2
100
AcDbArc
 50
270.0000000052
 51
359.9993084568
  0
ARC
  5
269
100
AcDbEntity
  8
0
100
AcDbCircle
 62
7
  6
BYLAYER
 10
152.9057074008
 20
118.9323529412
 40
0.2
100
AcDbArc
 50
270.0046664662
 51
0.0000487898
  0
ARC
  5
26A
100
AcDbEntity
  8
0
100
AcDbCircle
 62
7
  6
BYLAYER
 10
152.9057074008
 20
110.8323529412
 40
0.2
100
AcDbArc
 50
270.0
 51
360.0
  0
ARC
  5
26B
100
AcDbEntity
  8
0
100
AcDbCircle
 62
7
  6
BYLAYER
 10
148.705708205
 20
118.5323523463
 40
0.1999976281
100
AcDbArc
 50
90.0002361774
 51
179.9986601253
  0
ARC
  5
26C
100
AcDbEntity
  8
0
100
AcDbCircle
 62
7
  6
BYLAYER
 10
152.9167775111
 20
135.3343766813
 40
0.2749017538
100
AcDbArc
 50
88.0004771596
 51
92.3079096852
  0
ARC
  5
26D
100
AcDbEntity
  8
0
100
AcDbCircle
 62
7
  6
BYLAYER
 10
152.9057074008
 20
135.3323529412
 40
0.2
100
AcDbArc
 50
0.0
 51
90.0000562847
  0
ARC
  5
26E
100
AcDbEntity
  8
0
100
AcDbCircle
 62
7
  6
BYLAYER
 10
152.9057074008
 20
143.4323529412
 40
0.2
100
AcDbArc
 50
0.0
 51
90.0
  0
ARC
  5
26F
100
AcDbEntity
  8
0
100
AcDbCircle
 62
7
  6
BYLAYER
 10
148.3057074008
 20
143.4323529412
 40
0.2
100
AcDbArc
 50
0.0
 51
90.0000089173
  0
ARC
  5
270
100
AcDbEntity
  8
0
100
AcDbCircle
 62
7
  6
BYLAYER
 10
148.7057071955
 20
135.732353877
 40
0.199997233
100
AcDbArc
 50
180.0002680889
 51
270.0000588026
  0
SPLINE
  5
271
100
AcDbEntity
  8
0
100
AcDbSpline
 62
7
  6
BYLAYER
 70
0
 71
3
 72
9
 73
5
 74
0
 42
0.0000001
 43
0.0000001
 44
0.0000000001
 40
0.0
 40
0.0
 40
0.0
 40
0.0
 40
0.4924789287
 40
1.0
 40
1.0
 40
1.0
 40
1.0
 10
153.3057074008
 20
119.0499195069
 30
0.0
 10
153.3029775659
 20
119.0060578267
 30
0.0
 10
153.2914289332
 20
118.9161531735
 30
0.0
 10
153.2453211222
 20
118.8365816198
 30
0.0
 10
153.2164655685
 20
118.8016755187
 30
0.0
  0
SPLINE
  5
272
100
AcDbEntity
  8
0
100
AcDbSpline
 62
7
  6
BYLAYER
 70
0
 71
3
 72
9
 73
5
 74
0
 42
0.0000001
 43
0.0000001
 44
0.0000000001
 40
0.0
 40
0.0
 40
0.0
 40
0.0
 40
0.2446734627
 40
1.0
 40
1.0
 40
1.0
 40
1.0
 10
153.2164655685
 20
118.8016755187
 30
0.0
 10
153.2101151664
 20
118.7939935388
 30
0.0
 10
153.1830664648
 20
118.7635236299
 30
0.0
 10
153.1513940291
 20
118.7371067711
 30
0.0
 10
153.1255727933
 20
118.7203740421
 30
0.0
  0
SPLINE
  5
273
100
AcDbEntity
  8
0
100
AcDbSpline
 62
7
  6
BYLAYER
 70
0
 71
3
 72
9
 73
5
 74
0
 42
0.0000001
 43
0.0000001
 44
0.0000000001
 40
0.0
 40
0.0
 40
0.0
 40
0.0
 40
0.2449016107
 40
1.0
 40
1.0
 40
1.0
 40
1.0
 10
153.07994939
 20
118.6949357554
 30
0.0
 10
153.0682681185
 20
118.6893893702
 30
0.0
 10
153.0195244314
 20
118.6690402109
 30
0.0
 10
152.9667754963
 20
118.6580567054
 30
0.0
 10
152.9269539658
 20
118.6560864708
 30
0.0
  0
SPLINE
  5
274
100
AcDbEntity
  8
0
100
AcDbSpline
 62
7
  6
BYLAYER
 70
0
 71
3
 72
11
 73
7
 74
0
 42
0.0000001
 43
0.0000001
 44
0.0000000001
 40
0.0
 40
0.0
 40
0.0
 40
0.0
 40
0.250043313
 40
0.5000243716
 40
0.7499475347
 40
1.0
 40
1.0
 40
1.0
 40
1.0
 10
148.3057073386
 20
118.5323534628
 30
0.0
 10
148.3057075603
 20
118.5844725633
 30
0.0
 10
148.3256859635
 20
118.6900818585
 30
0.0
 10
148.4158567803
 20
118.8227283461
 30
0.0
 10
148.5489093168
 20
118.9118394582
 30
0.0
 10
148.6543665217
 20
118.932454426
 30
0.0
 10
148.7064874312
 20
118.9323529412
 30
0.0
  0
SPLINE
  5
275
100
AcDbEntity
  8
0
100
AcDbSpline
 62
7
  6
BYLAYER
 70
0
 71
3
 72
11
 73
7
 74
0
 42
0.0000001
 43
0.0000001
 44
0.0000000001
 40
0.0
 40
0.0
 40
0.0
 40
0.0
 40
0.2500434838
 40
0.5000252791
 40
0.7499478667
 40
1.0
 40
1.0
 40
1.0
 40
1.0
 10
148.7057088302
 20
135.332353166
 30
0.0
 10
148.653653528
 20
135.3323529397
 30
0.0
 10
148.5481779915
 20
135.3522876821
 30
0.0
 10
148.4156344028
 20
135.4422387821
 30
0.0
 10
148.3264705672
 20
135.5750101537
 30
0.0
 10
148.3057075853
 20
135.680295949
 30
0.0
 10
148.3057074008
 20
135.7323530519
 30
0.0
  0
SPLINE
  5
276
100
AcDbEntity
  8
0
100
AcDbSpline
 62
7
  6
BYLAYER
 70
0
 71
3
 72
19
 73
15
 74
0
 42
0.0000001
 43
0.0000001
 44
0.0000000001
 40
0.0
 40
0.0
 40
0.0
 40
0.0
 40
0.1946848525
 40
0.3826792237
 40
0.5556330997
 40
0.7070995884
 40
0.8313808369
 40
0.8818709147
 40
0.9238720435
 40
0.9569027754
 40
0.9807215848
 40
0.989119837
 40
0.9951471627
 40
1.0
 40
1.0
 40
1.0
 40
1.0
 10
148.70648745
 20
118.9323529412
 30
0.0
 10
148.7064605292
 20
118.919373804
 30
0.0
 10
148.7064053351
 20
118.8938616274
 30
0.0
 10
148.7063143269
 20
118.8568187943
 30
0.0
 10
148.7062126021
 20
118.8226582682
 30
0.0
 10
148.7061093006
 20
118.792742271
 30
0.0
 10
148.7060117217
 20
118.7709987045
 30
0.0
 10
148.7059458344
 20
118.75653809
 30
0.0
 10
148.7058781339
 20
118.7481897575
 30
0.0
 10
148.7058791238
 20
118.7415479346
 30
0.0
 10
148.7057398668
 20
118.7373069737
 30
0.0
 10
148.7058436038
 20
118.7346100438
 30
0.0
 10
148.7055814099
 20
118.7335860229
 30
0.0
 10
148.7060309015
 20
118.732353134
 30
0.0
 10
148.7057073747
 20
118.7323529412
 30
0.0
  0
SPLINE
  5
277
100
AcDbEntity
  8
0
100
AcDbSpline
 62
7
  6
BYLAYER
 70
0
 71
3
 72
11
 73
7
 74
0
 42
0.0000001
 43
0.0000001
 44
0.0000000001
 40
0.0
 40
0.0
 40
0.0
 40
0.0
 40
0.3014417091
 40
0.5757254577
 40
0.806237105
 40
1.0
 40
1.0
 40
1.0
 40
1.0
 10
148.7057074008
 20
118.6556504322
 30
0.0
 10
148.6799834287
 20
118.6556504322
 30
0.0
 10
148.630593072
 20
118.6499049849
 30
0.0
 10
148.5657541408
 20
118.6245706902
 30
0.0
 10
148.5187608695
 20
118.5852078877
 30
0.0
 10
148.5056937851
 20
118.5487246353
 30
0.0
 10
148.5057075763
 20
118.5321895991
 30
0.0
  0
SPLINE
  5
278
100
AcDbEntity
  8
0
100
AcDbSpline
 62
7
  6
BYLAYER
 70
0
 71
3
 72
19
 73
15
 74
0
 42
0.0000001
 43
0.0000001
 44
0.0000000001
 40
0.0
 40
0.0
 40
0.0
 40
0.0
 40
0.0048527327
 40
0.0108800081
 40
0.0192782133
 40
0.0430969403
 40
0.0761276077
 40
0.1181286895
 40
0.1686187356
 40
0.2928999694
 40
0.4443665048
 40
0.6173204824
 40
0.8053149956
 40
1.0
 40
1.0
 40
1.0
 40
1.0
 10
148.7064874498
 20
143.6323529412
 30
0.0
 10
148.70616393
 20
143.6323529412
 30
0.0
 10
148.7066133479
 20
143.6311197705
 30
0.0
 10
148.7063511597
 20
143.6300959166
 30
0.0
 10
148.7064548562
 20
143.6273989114
 30
0.0
 10
148.7063155819
 20
143.6231580284
 30
0.0
 10
148.7063165412
 20
143.6165161876
 30
0.0
 10
148.7062488218
 20
143.6081678764
 30
0.0
 10
148.7061829119
 20
143.5937072626
 30
0.0
 10
148.7060853252
 20
143.5719636993
 30
0.0
 10
148.7059820385
 20
143.5420476913
 30
0.0
 10
148.7058803525
 20
143.5078871456
 30
0.0
 10
148.7057894046
 20
143.4708442854
 30
0.0
 10
148.7057342653
 20
143.4453320887
 30
0.0
 10
148.7057073761
 20
143.4323529412
 30
0.0
  0
SPLINE
  5
279
100
AcDbEntity
  8
0
100
AcDbSpline
 62
7
  6
BYLAYER
 70
0
 71
3
 72
16
 73
12
 74
0
 42
0.0000001
 43
0.0000001
 44
0.0000000001
 40
0.0
 40
0.0
 40
0.0
 40
0.0
 40
0.3819743337
 40
0.5545616019
 40
0.7056516897
 40
0.829792413
 40
0.9222891442
 40
0.9552572342
 40
0.9790465487
 40
0.9936968801
 40
1.0
 40
1.0
 40
1.0
 40
1.0
 10
148.7057073986
 20
110.8323529412
 30
0.0
 10
148.7056258578
 20
110.8068346529
 30
0.0
 10
148.705348847
 20
110.7697792615
 30
0.0
 10
148.7062900079
 20
110.7226536596
 30
0.0
 10
148.7066155891
 20
110.6927173562
 30
0.0
 10
148.7054459464
 20
110.6682001772
 30
0.0
 10
148.7042081776
 20
110.651501649
 30
0.0
 10
148.7039584903
 20
110.6416225732
 30
0.0
 10
148.7042517452
 20
110.6366934607
 30
0.0
 10
148.7045466852
 20
110.6340243075
 30
0.0
 10
148.7052877489
 20
110.6323529462
 30
0.0
 10
148.7057088392
 20
110.6323529412
 30
0.0
  0
SPLINE
  5
27A
100
AcDbEntity
  8
0
100
AcDbSpline
 62
7
  6
BYLAYER
 70
0
 71
3
 72
11
 73
7
 74
0
 42
0.0000001
 43
0.0000001
 44
0.0000000001
 40
0.0
 40
0.0
 40
0.0
 40
0.0
 40
0.1937567985
 40
0.4242688669
 40
0.6985555532
 40
1.0
 40
1.0
 40
1.0
 40
1.0
 10
148.5057075765
 20
135.7325163784
 30
0.0
 10
148.5056898005
 20
135.7159818545
 30
0.0
 10
148.5187621494
 20
135.6794989234
 30
0.0
 10
148.5657522019
 20
135.6401358431
 30
0.0
 10
148.6305925378
 20
135.6148010403
 30
0.0
 10
148.6799831767
 20
135.6090554501
 30
0.0
 10
148.7057074008
 20
135.6090554501
 30
0.0
  0
SPLINE
  5
27B
100
AcDbEntity
  8
0
100
AcDbSpline
 62
7
  6
BYLAYER
 70
0
 71
3
 72
12
 73
8
 74
0
 42
0.0000001
 43
0.0000001
 44
0.0000000001
 40
0.0
 40
0.0
 40
0.0
 40
0.0
 40
0.1802579931
 40
0.2916128531
 40
0.4184752483
 40
0.706459822
 40
1.0
 40
1.0
 40
1.0
 40
1.0
 10
153.1057161128
 20
118.932337526
 30
0.0
 10
153.1057125398
 20
118.9475024062
 30
0.0
 10
153.1146720072
 20
118.9723106849
 30
0.0
 10
153.1386480223
 20
118.9983015731
 30
0.0
 10
153.1749475943
 20
119.0241880251
 30
0.0
 10
153.2319948011
 20
119.0446436893
 30
0.0
 10
153.281012231
 20
119.0499153412
 30
0.0
 10
153.3057074008
 20
119.0499166052
 30
0.0
  0
SPLINE
  5
27C
100
AcDbEntity
  8
0
100
AcDbSpline
 62
7
  6
BYLAYER
 70
0
 71
3
 72
11
 73
7
 74
0
 42
0.0000001
 43
0.0000001
 44
0.0000000001
 40
0.0
 40
0.0
 40
0.0
 40
0.0
 40
0.264270544
 40
0.5204972732
 40
0.7651688874
 40
1.0
 40
1.0
 40
1.0
 40
1.0
 10
152.926369156
 20
135.6091110522
 30
0.0
 10
152.9552611585
 20
135.6081207643
 30
0.0
 10
153.0118858816
 20
135.5977497594
 30
0.0
 10
153.0904306636
 20
135.5676266019
 30
0.0
 10
153.158644138
 20
135.5237992415
 30
0.0
 10
153.1963766753
 20
135.4868265473
 30
0.0
 10
153.2130098179
 20
135.4672500353
 30
0.0
  0
SPLINE
  5
27D
100
AcDbEntity
  8
0
100
AcDbSpline
 62
7
  6
BYLAYER
 70
0
 71
3
 72
9
 73
5
 74
0
 42
0.0000001
 43
0.0000001
 44
0.0000000001
 40
0.0
 40
0.0
 40
0.0
 40
0.0
 40
0.5080433536
 40
1.0
 40
1.0
 40
1.0
 40
1.0
 10
153.2130098179
 20
135.4672500353
 30
0.0
 10
153.2429589531
 20
135.4320011578
 30
0.0
 10
153.2908138246
 20
135.3512902187
 30
0.0
 10
153.3034514035
 20
135.2595227551
 30
0.0
 10
153.3057074008
 20
135.2147901799
 30
0.0
  0
SPLINE
  5
27E
100
AcDbEntity
  8
0
100
AcDbSpline
 62
7
  6
BYLAYER
 70
0
 71
3
 72
19
 73
15
 74
0
 42
0.0000001
 43
0.0000001
 44
0.0000000001
 40
0.0
 40
0.0
 40
0.0
 40
0.0
 40
0.0048693555
 40
0.0109047788
 40
0.0193099172
 40
0.0431355694
 40
0.0761613916
 40
0.1181518016
 40
0.1686252258
 40
0.2928619896
 40
0.4444311306
 40
0.6174449344
 40
0.8053652027
 40
1.0
 40
1.0
 40
1.0
 40
1.0
 10
148.7057074002
 20
135.5323529411
 30
0.0
 10
148.7053826649
 20
135.5323506665
 30
0.0
 10
148.7057928456
 20
135.5311200494
 30
0.0
 10
148.7055356863
 20
135.5300912181
 30
0.0
 10
148.7056352321
 20
135.5273933768
 30
0.0
 10
148.7055609099
 20
135.5231487133
 30
0.0
 10
148.7057377961
 20
135.5165066539
 30
0.0
 10
148.7060039167
 20
135.5081618065
 30
0.0
 10
148.7064359842
 20
135.4937071782
 30
0.0
 10
148.7065022972
 20
135.4719440601
 30
0.0
 10
148.7051039849
 20
135.442038301
 30
0.0
 10
148.7038546896
 20
135.407878246
 30
0.0
 10
148.7041484961
 20
135.3708161108
 30
0.0
 10
148.7051005516
 20
135.3453191128
 30
0.0
 10
148.7057088348
 20
135.3323529412
 30
0.0
  0
SPLINE
  5
27F
100
AcDbEntity
  8
0
100
AcDbSpline
 62
7
  6
BYLAYER
 70
0
 71
3
 72
12
 73
8
 74
0
 42
0.0000001
 43
0.0000001
 44
0.0000000001
 40
0.0
 40
0.0
 40
0.0
 40
0.0
 40
0.1802591557
 40
0.2916145398
 40
0.4184770592
 40
0.7064609689
 40
1.0
 40
1.0
 40
1.0
 40
1.0
 10
153.1057162914
 20
135.3323672908
 30
0.0
 10
153.1057131034
 20
135.3172024134
 30
0.0
 10
153.1146730223
 20
135.2923943923
 30
0.0
 10
153.1386492716
 20
135.2664038428
 30
0.0
 10
153.1749487964
 20
135.240517854
 30
0.0
 10
153.231995535
 20
135.2200625834
 30
0.0
 10
153.2810124914
 20
135.2147910635
 30
0.0
 10
153.3057074008
 20
135.2147898141
 30
0.0
  0
ENDSEC
  0
SECTION
  2
OBJECTS
  0
DICTIONARY
  5
C
100
AcDbDictionary
280
0
281
1
  3
ACAD_GROUP
350
D
  3
ACAD_MLINESTYLE
350
17
  3
ACAD_LAYOUT
350
1A
  3
ACAD_PLOTSETTINGS
350
19
  3
ACAD_PLOTSTYLENAME
350
E
  0
DICTIONARY
  5
D
102
{ACAD_REACTORS
330
C
102
}
100
AcDbDictionary
280
0
281
1
  0
ACDBDICTIONARYWDFLT
  5
E
102
{ACAD_REACTORS
330
C
102
}
100
AcDbDictionary
281
1
  3
Normal
350
F
100
AcDbDictionaryWithDefault
340
F
  0
DICTIONARY
  5
17
102
{ACAD_REACTORS
330
C
102
}
100
AcDbDictionary
280
0
281
1
  3
Standard
350
18
  0
DICTIONARY
  5
19
102
{ACAD_REACTORS
330
C
102
}
100
AcDbDictionary
281
1
  0
DICTIONARY
  5
1A
102
{ACAD_REACTORS
330
C
102
}
100
AcDbDictionary
281
1
  3
Model
350
280
  3
Layout1
350
281
  0
ACDBPLACEHOLDER
  5
F
102
{ACAD_REACTORS
330
E
102
}
  0
MLINESTYLE
  5
18
102
{ACAD_REACTORS
330
17
102
}
100
AcDbMlineStyle
  2
STANDARD
 70
0
  3

 62
256
 51
90.0
 52
90.0
 71
2
 49
0.5
 62
256
  6
BYLAYER
 49
-0.5
 62
256
  6
BYLAYER
  0
LAYOUT
  5
280
102
{ACAD_REACTORS
330
1A
102
}
100
AcDbPlotSettings
  1

  2
none_device
  4

  6

 40
0.0
 41
0.0
 42
0.0
 43
0.0
 44
210.0
 45
297.0
 46
0.0
 47
0.0
 48
0.0
 49
0.0
140
0.0
141
0.0
142
1.0
143
1.0
 70
1024
 72
1
 73
0
 74
0
  7

 75
0
147
1.0
148
0.0
149
0.0
100
AcDbLayout
  1
Model
 70
0
 71
0
 10
0.0
 20
0.0
 11
210.0
 21
297.0
 12
0.0
 22
0.0
 32
0.0
 14
0.0
 24
0.0
 34
0.0
 15
0.0
 25
0.0
 35
0.0
146
0.0
 13
0.0
 23
0.0
 33
0.0
 16
1.0
 26
0.0
 36
0.0
 17
0.0
 27
1.0
 37
0.0
 76
0
330
210
345
0
346
0
  0
LAYOUT
  5
281
102
{ACAD_REACTORS
330
1A
102
}
100
AcDbPlotSettings
  1

  2
none_device
  4

  6

 40
0.0
 41
0.0
 42
0.0
 43
0.0
 44
210.0
 45
297.0
 46
0.0
 47
0.0
 48
0.0
 49
0.0
140
0.0
141
0.0
142
1.0
143
1.0
 70
0
 72
1
 73
0
 74
0
  7

 75
0
147
1.0
148
0.0
149
0.0
100
AcDbLayout
  1
Layout1
 70
0
 71
1
 10
0.0
 20
0.0
 11
210.0
 21
297.0
 12
0.0
 22
0.0
 32
0.0
 14
0.0
 24
0.0
 34
0.0
 15
0.0
 25
0.0
 35
0.0
146
0.0
 13
0.0
 23
0.0
 33
0.0
 16
1.0
 26
0.0
 36
0.0
 17
0.0
 27
1.0
 37
0.0
 76
0
330
211
345
0
346
0
  0
ENDSEC
  0
EOF
