999
DXF file: C:\Users\sesa63760\Dev\_Creo\CAD\MCADID0003613_3D-CAD\drw0001_4.dxf
999
Pro/ENGINEER 2019471 by Parametric Technology Corporation
  0
SECTION
  2
HEADER
  9
$ACADVER
  1
AC1024
  9
$DWGCODEPAGE
  3
ANSI_1252
  9
$EXTMAX
 10
103.6149052386
 20
146.541080266
 30
0.0
  9
$EXTMIN
 10
0.0
 20
0.0
 30
0.0
  9
$LIMMIN
 10
0.0
 20
0.0
  9
$LIMMAX
 10
103.6149052386
 20
146.541080266
  9
$VIEWCTR
 10
51.8074526193
 20
73.270540133
  9
$VIEWSIZE
 40
146.541080266
  9
$CLAYER
  8
0
  9
$LTSCALE
 40
9.5523074544
  9
$CELTYPE
  6
BYLAYER
  9
$DIMSCALE
 40
1.0
  9
$DIMASZ
 40
1.2335107766
  9
$DIMEXO
 40
1.0
  9
$DIMDLI
 40
6.5997760594
  9
$DIMEXE
 40
1.0
  9
$DIMCEN
 40
1.5631048562
  9
$DIMLFAC
 40
1.0
  9
$DIMBLK
  1
_FILLED
  9
$DIMALT
 70
0
  9
$DIMALTF
 40
0.0393700787
  9
$DIMTXT
 40
1.7269150873
  9
$DIMTOL
 70
1
  9
$DIMLIM
 70
0
  9
$DIMTFAC
 40
1.0
  9
$DIMTP
 40
0.01
  9
$DIMTM
 40
0.01
  9
$DIMGAP
 40
0.625
  9
$DIMDSEP
 70
46
  9
$AUNITS
 70
0
  9
$PDMODE
 70
3
  9
$PDSIZE
 40
0.3125
  9
$HANDSEED
  5
266
  9
$TILEMODE
 70
1
  9
$MEASUREMENT
 70
1
  9
$INSUNITS
 70
4
  0
ENDSEC
  0
SECTION
  2
CLASSES
  0
CLASS
  1
ACDBDICTIONARYWDFLT
  2
AcDbDictionaryWithDefault
  3
AutoCAD 2000
 90
0
 91
1
280
0
281
0
  0
CLASS
  1
ACDBPLACEHOLDER
  2
AcDbPlaceHolder
  3
AutoCAD 2000
 90
0
 91
1
280
0
281
0
  0
CLASS
  1
LAYOUT
  2
AcDbLayout
  3
AutoCAD 2000
 90
0
 91
0
280
0
281
0
  0
ENDSEC
  0
SECTION
  2
TABLES
  0
TABLE
  2
VPORT
  5
8
100
AcDbSymbolTable
 70
2
  0
VPORT
  5
1F4
100
AcDbSymbolTableRecord
100
AcDbViewportTableRecord
  2
*ACTIVE
 70
0
 10
0.0
 20
0.0
 11
1.0
 21
1.0
 12
51.8074526193
 22
73.270540133
 13
0.0
 23
0.0
 14
1.0
 24
1.0
 15
0.0
 25
0.0
 16
0.0
 26
0.0
 36
1.0
 17
0.0
 27
0.0
 37
0.0
 40
146.541080266
 41
0.7070707071
 42
50.0
 43
0.0
 44
0.0
 50
0.0
 51
0.0
 71
0
 72
100
 73
1
 74
1
 75
0
 76
0
 77
0
 78
0
  0
ENDTAB
  0
TABLE
  2
LTYPE
  5
5
100
AcDbSymbolTable
 70
6
  0
LTYPE
  5
14
100
AcDbSymbolTableRecord
100
AcDbLinetypeTableRecord
  2
BYBLOCK
 70
0
  3

 72
65
 73
0
 40
0.0
  0
LTYPE
  5
15
100
AcDbSymbolTableRecord
100
AcDbLinetypeTableRecord
  2
BYLAYER
 70
0
  3

 72
65
 73
0
 40
0.0
  0
LTYPE
  5
16
100
AcDbSymbolTableRecord
100
AcDbLinetypeTableRecord
  2
CONTINUOUS
 70
64
  3
Solid line
 72
65
 73
0
 40
0.0
  0
LTYPE
  5
1F5
100
AcDbSymbolTableRecord
100
AcDbLinetypeTableRecord
  2
CENTER
 70
64
  3
____ _ ____ _ ____ _ ____ _ ____ _ ____ _ ____
 72
65
 73
4
 40
0.6
 49
0.375
 74
0
 49
-0.075
 74
0
 49
0.075
 74
0
 49
-0.075
 74
0
  0
LTYPE
  5
1F6
100
AcDbSymbolTableRecord
100
AcDbLinetypeTableRecord
  2
HIDDEN
 70
64
  3
- - - - - - - - - - - - - - - - - - - -
 72
65
 73
2
 40
0.2
 49
0.1
 74
0
 49
-0.1
 74
0
  0
LTYPE
  5
1F7
100
AcDbSymbolTableRecord
100
AcDbLinetypeTableRecord
  2
PHANTOM
 70
64
  3
_____ _ _ _____ _ _ _____ _ _ _____
 72
65
 73
6
 40
0.8
 49
0.45
 74
0
 49
-0.05
 74
0
 49
0.1
 74
0
 49
-0.05
 74
0
 49
0.1
 74
0
 49
-0.05
 74
0
  0
LTYPE
  5
1F8
100
AcDbSymbolTableRecord
100
AcDbLinetypeTableRecord
  2
DOT
 70
64
  3
. . . . . . . . . . . . . . . . . . . .
 72
65
 73
2
 40
0.2
 49
0.1
 74
0
 49
-0.1
 74
0
  0
LTYPE
  5
1F9
100
AcDbSymbolTableRecord
100
AcDbLinetypeTableRecord
  2
DASHED
 70
64
  3
- - - - - - - - - - - - - - - - - - - -
 72
65
 73
2
 40
0.2
 49
0.1
 74
0
 49
-0.1
 74
0
  0
ENDTAB
  0
TABLE
  2
LAYER
  5
2
100
AcDbSymbolTable
 70
36
  0
LAYER
  5
10
100
AcDbSymbolTableRecord
100
AcDbLayerTableRecord
  2
0
 70
0
 62
7
  6
CONTINUOUS
370
-3
390
F
  0
LAYER
  5
1FA
100
AcDbSymbolTableRecord
100
AcDbLayerTableRecord
  2
DEFAULT_1
 70
0
 62
7
  6
CENTER
370
-3
390
F
  0
LAYER
  5
1FB
100
AcDbSymbolTableRecord
100
AcDbLayerTableRecord
  2
DEFAULT_2
 70
0
 62
7
  6
HIDDEN
370
-3
390
F
  0
LAYER
  5
1FC
100
AcDbSymbolTableRecord
100
AcDbLayerTableRecord
  2
DEFAULT_3
 70
0
 62
7
  6
PHANTOM
370
-3
390
F
  0
LAYER
  5
1FD
100
AcDbSymbolTableRecord
100
AcDbLayerTableRecord
  2
00_COMPONENTS
 70
0
 62
7
  6
CONTINUOUS
370
-3
390
F
  0
LAYER
  5
1FE
100
AcDbSymbolTableRecord
100
AcDbLayerTableRecord
  2
01_1_DEFAULT_DATUMS
 70
0
 62
7
  6
CONTINUOUS
370
-3
390
F
  0
LAYER
  5
1FF
100
AcDbSymbolTableRecord
100
AcDbLayerTableRecord
  2
01_PLANES
 70
0
 62
7
  6
CONTINUOUS
370
-3
390
F
  0
LAYER
  5
200
100
AcDbSymbolTableRecord
100
AcDbLayerTableRecord
  2
02_COORD_SYS
 70
0
 62
7
  6
CONTINUOUS
370
-3
390
F
  0
LAYER
  5
201
100
AcDbSymbolTableRecord
100
AcDbLayerTableRecord
  2
03_AXES
 70
0
 62
7
  6
CONTINUOUS
370
-3
390
F
  0
LAYER
  5
202
100
AcDbSymbolTableRecord
100
AcDbLayerTableRecord
  2
04_POINTS
 70
0
 62
7
  6
CONTINUOUS
370
-3
390
F
  0
LAYER
  5
203
100
AcDbSymbolTableRecord
100
AcDbLayerTableRecord
  2
05_CURVES
 70
0
 62
7
  6
CONTINUOUS
370
-3
390
F
  0
LAYER
  5
204
100
AcDbSymbolTableRecord
100
AcDbLayerTableRecord
  2
06_SURFS
 70
0
 62
7
  6
CONTINUOUS
370
-3
390
F
  0
LAYER
  5
205
100
AcDbSymbolTableRecord
100
AcDbLayerTableRecord
  2
07_COSMETICS
 70
0
 62
7
  6
CONTINUOUS
370
-3
390
F
  0
LAYER
  5
206
100
AcDbSymbolTableRecord
100
AcDbLayerTableRecord
  2
10_NOTES
 70
0
 62
7
  6
CONTINUOUS
370
-3
390
F
  0
LAYER
  5
207
100
AcDbSymbolTableRecord
100
AcDbLayerTableRecord
  2
11_NOTES_PUB
 70
0
 62
7
  6
CONTINUOUS
370
-3
390
F
  0
LAYER
  5
208
100
AcDbSymbolTableRecord
100
AcDbLayerTableRecord
  2
13_REF_GTOL
 70
0
 62
7
  6
CONTINUOUS
370
-3
390
F
  0
LAYER
  5
209
100
AcDbSymbolTableRecord
100
AcDbLayerTableRecord
  2
16_MISC
 70
0
 62
7
  6
CONTINUOUS
370
-3
390
F
  0
LAYER
  5
20A
100
AcDbSymbolTableRecord
100
AcDbLayerTableRecord
  2
17_NO_PRINT
 70
0
 62
7
  6
CONTINUOUS
370
-3
390
F
  0
LAYER
  5
20B
100
AcDbSymbolTableRecord
100
AcDbLayerTableRecord
  2
18_DATUM_CAMS_JOINTS
 70
0
 62
7
  6
CONTINUOUS
370
-3
390
F
  0
LAYER
  5
20C
100
AcDbSymbolTableRecord
100
AcDbLayerTableRecord
  2
19_DATUM_FUNCTIONAL
 70
0
 62
7
  6
CONTINUOUS
370
-3
390
F
  0
LAYER
  5
20D
100
AcDbSymbolTableRecord
100
AcDbLayerTableRecord
  2
20_DATUM_KINEMATIC_SCHEME
 70
0
 62
7
  6
CONTINUOUS
370
-3
390
F
  0
ENDTAB
  0
TABLE
  2
STYLE
  5
3
100
AcDbSymbolTable
 70
1
  0
STYLE
  5
11
100
AcDbSymbolTableRecord
100
AcDbTextStyleTableRecord
  2
STANDARD
 70
0
 40
0.0
 41
1.0
 50
0.0
 71
0
 42
0.2
  3
ARIAL.TTF
  4

  0
STYLE
  5
20E
100
AcDbSymbolTableRecord
100
AcDbTextStyleTableRecord
  2
TEXTSTYLE_1
 70
0
 40
0.0
 41
0.8
 50
0.0
 71
0
 42
0.2
  3
gdt
  4

  0
ENDTAB
  0
TABLE
  2
VIEW
  5
6
100
AcDbSymbolTable
 70
0
  0
ENDTAB
  0
TABLE
  2
UCS
  5
7
100
AcDbSymbolTable
 70
0
  0
ENDTAB
  0
TABLE
  2
APPID
  5
9
100
AcDbSymbolTable
 70
1
  0
APPID
  5
20F
100
AcDbSymbolTableRecord
100
AcDbRegAppTableRecord
  2
ACAD
 70
0
  0
ENDTAB
  0
TABLE
  2
BLOCK_RECORD
  5
1
100
AcDbSymbolTable
 70
0
  0
BLOCK_RECORD
  5
210
100
AcDbSymbolTableRecord
100
AcDbBlockTableRecord
  2
*Model_Space
  0
BLOCK_RECORD
  5
211
100
AcDbSymbolTableRecord
100
AcDbBlockTableRecord
  2
*Paper_Space
  0
BLOCK_RECORD
  5
212
100
AcDbSymbolTableRecord
100
AcDbBlockTableRecord
  2
_FILLED
  0
ENDTAB
  0
TABLE
  2
DIMSTYLE
  5
A
100
AcDbSymbolTable
 70
1
100
AcDbDimStyleTable
 71
0
  0
DIMSTYLE
105
213
100
AcDbSymbolTableRecord
100
AcDbDimStyleTableRecord
  2
STANDARD
 70
0
  3

  4

 40
1.0
 41
1.2335107766
 42
1.0
 43
0.38
 44
1.0
 45
0.0
 46
0.0
 47
0.01
 48
0.01
140
1.7269150873
141
0.09
142
0.0
143
25.4
144
1.0
145
0.0
146
1.0
147
0.625
 71
1
 72
0
 73
0
 74
0
 75
0
 76
0
 77
1
 78
8
 79
2
170
0
171
1
172
0
173
0
174
0
175
0
176
0
177
0
178
0
270
2
179
2
271
2
272
2
273
2
274
2
275
0
280
0
281
0
282
0
283
1
284
8
285
0
286
0
287
3
288
0
340
11
278
46
341
212
342
212
343
212
344
212
  0
ENDTAB
  0
ENDSEC
  0
SECTION
  2
BLOCKS
  0
BLOCK
  5
20
100
AcDbEntity
  8
0
100
AcDbBlockBegin
  2
*Model_Space
 70
0
 10
0.0
 20
0.0
 30
0.0
  3
*Model_Space
  1

  0
ENDBLK
  5
21
100
AcDbEntity
  8
0
100
AcDbBlockEnd
  0
BLOCK
  5
1C
100
AcDbEntity
  8
0
100
AcDbBlockBegin
  2
*Paper_Space
 70
0
 10
0.0
 20
0.0
 30
0.0
  3
*Paper_Space
  1

  0
ENDBLK
  5
1D
100
AcDbEntity
  8
0
100
AcDbBlockEnd
  0
BLOCK
  5
214
100
AcDbEntity
  8
0
100
AcDbBlockBegin
  2
_FILLED
 70
64
 10
0.0
 20
0.0
  3
_FILLED
  1

  0
SOLID
  5
215
100
AcDbEntity
  8
0
  6
BYBLOCK
 62
0
100
AcDbTrace
 10
0.0
 20
0.0
 11
-1.0
 21
0.25
 12
-1.0
 22
-0.25
 13
-1.0
 23
-0.25
  0
ENDBLK
  5
216
100
AcDbEntity
  8
0
  6
BYBLOCK
 62
0
100
AcDbBlockEnd
  0
ENDSEC
  0
SECTION
  2
ENTITIES
  0
LINE
  5
217
100
AcDbEntity
  8
0
100
AcDbLine
 62
7
  6
BYLAYER
 10
22.7653335541
 20
72.8221280147
 11
22.7653335541
 21
75.3221280147
  0
LINE
  5
218
100
AcDbEntity
  8
0
100
AcDbLine
 62
7
  6
BYLAYER
 10
22.8653335541
 20
70.3221280147
 11
22.8653335541
 21
72.8221280147
  0
LINE
  5
219
100
AcDbEntity
  8
0
100
AcDbLine
 62
7
  6
BYLAYER
 10
26.7653335541
 20
58.6340030147
 11
26.7653335541
 21
87.0102530147
  0
LINE
  5
21A
100
AcDbEntity
  8
0
100
AcDbLine
 62
7
  6
BYLAYER
 10
33.2653335541
 20
87.0102530147
 11
34.0772085541
 21
87.8221280147
  0
LINE
  5
21B
100
AcDbEntity
  8
0
100
AcDbLine
 62
7
  6
BYLAYER
 10
34.0772085541
 20
57.8221280147
 11
33.2653335541
 21
58.6340030147
  0
LINE
  5
21C
100
AcDbEntity
  8
0
100
AcDbLine
 62
7
  6
BYLAYER
 10
33.2653335541
 20
87.0102530147
 11
33.2653335541
 21
58.6340030147
  0
LINE
  5
21D
100
AcDbEntity
  8
0
100
AcDbLine
 62
7
  6
BYLAYER
 10
34.0772085541
 20
57.8221280147
 11
34.0772085541
 21
87.8221280147
  0
LINE
  5
21E
100
AcDbEntity
  8
0
100
AcDbLine
 62
7
  6
BYLAYER
 10
40.7653335541
 20
90.8221280147
 11
42.3730287087
 21
93.6067377055
  0
LINE
  5
21F
100
AcDbEntity
  8
0
100
AcDbLine
 62
7
  6
BYLAYER
 10
56.6576383995
 20
52.0375183239
 11
52.3730287087
 21
52.0375183239
  0
LINE
  5
220
100
AcDbEntity
  8
0
100
AcDbLine
 62
7
  6
BYLAYER
 10
46.6576383995
 20
52.0375183239
 11
42.3730287087
 21
52.0375183239
  0
LINE
  5
221
100
AcDbEntity
  8
0
100
AcDbLine
 62
7
  6
BYLAYER
 10
42.3730287087
 20
52.0375183239
 11
40.7653335541
 21
54.8221280147
  0
LINE
  5
222
100
AcDbEntity
  8
0
100
AcDbLine
 62
7
  6
BYLAYER
 10
40.7653335541
 20
54.8221280147
 11
40.7653335541
 21
90.8221280147
  0
LINE
  5
223
100
AcDbEntity
  8
0
100
AcDbLine
 62
7
  6
BYLAYER
 10
64.4534585541
 20
57.8221280147
 11
58.2653335541
 21
57.8221280147
  0
LINE
  5
224
100
AcDbEntity
  8
0
100
AcDbLine
 62
7
  6
BYLAYER
 10
50.7653335541
 20
57.8221280147
 11
48.2653335541
 21
57.8221280147
  0
LINE
  5
225
100
AcDbEntity
  8
0
100
AcDbLine
 62
7
  6
BYLAYER
 10
40.7653335541
 20
57.8221280147
 11
34.0772085541
 21
57.8221280147
  0
LINE
  5
226
100
AcDbEntity
  8
0
100
AcDbLine
 62
7
  6
BYLAYER
 10
81.7653335541
 20
57.8221280147
 11
94.7653335541
 21
57.8221280147
  0
LINE
  5
227
100
AcDbEntity
  8
0
100
AcDbLine
 62
7
  6
BYLAYER
 10
67.2653335541
 20
58.6340030147
 11
65.2653335541
 21
58.6340030147
  0
LINE
  5
228
100
AcDbEntity
  8
0
100
AcDbLine
 62
7
  6
BYLAYER
 10
33.2653335541
 20
58.6340030147
 11
26.7653335541
 21
58.6340030147
  0
LINE
  5
229
100
AcDbEntity
  8
0
100
AcDbLine
 62
7
  6
BYLAYER
 10
16.4640831595
 20
64.9508411695
 11
11.5400443944
 21
65.8190820579
  0
LINE
  5
22A
100
AcDbEntity
  8
0
100
AcDbLine
 62
7
  6
BYLAYER
 10
50.7653335541
 20
90.8221280147
 11
52.3730287087
 21
93.6067377055
  0
LINE
  5
22B
100
AcDbEntity
  8
0
100
AcDbLine
 62
7
  6
BYLAYER
 10
56.6576383995
 20
62.4298231693
 11
52.3730287087
 21
62.4298231693
  0
LINE
  5
22C
100
AcDbEntity
  8
0
100
AcDbLine
 62
7
  6
BYLAYER
 10
46.6576383995
 20
62.4298231693
 11
42.3730287087
 21
62.4298231693
  0
LINE
  5
22D
100
AcDbEntity
  8
0
100
AcDbLine
 62
7
  6
BYLAYER
 10
52.3730287087
 20
52.0375183239
 11
50.7653335541
 21
54.8221280147
  0
LINE
  5
22E
100
AcDbEntity
  8
0
100
AcDbLine
 62
7
  6
BYLAYER
 10
48.2653335541
 20
90.8221280147
 11
48.2653335541
 21
54.8221280147
  0
LINE
  5
22F
100
AcDbEntity
  8
0
100
AcDbLine
 62
7
  6
BYLAYER
 10
50.7653335541
 20
54.8221280147
 11
50.7653335541
 21
90.8221280147
  0
LINE
  5
230
100
AcDbEntity
  8
0
100
AcDbLine
 62
7
  6
BYLAYER
 10
22.8653335541
 20
70.3221280147
 11
26.7653335541
 21
70.3221280147
  0
LINE
  5
231
100
AcDbEntity
  8
0
100
AcDbLine
 62
7
  6
BYLAYER
 10
22.7653335541
 20
75.3221280147
 11
26.7653335541
 21
75.3221280147
  0
LINE
  5
232
100
AcDbEntity
  8
0
100
AcDbLine
 62
7
  6
BYLAYER
 10
58.2653335541
 20
90.8221280147
 11
58.2653335541
 21
54.8221280147
  0
LINE
  5
233
100
AcDbEntity
  8
0
100
AcDbLine
 62
7
  6
BYLAYER
 10
48.2653335541
 20
54.8221280147
 11
46.6576383995
 21
52.0375183239
  0
LINE
  5
234
100
AcDbEntity
  8
0
100
AcDbLine
 62
7
  6
BYLAYER
 10
46.6576383995
 20
93.6067377055
 11
48.2653335541
 21
90.8221280147
  0
LINE
  5
235
100
AcDbEntity
  8
0
100
AcDbLine
 62
7
  6
BYLAYER
 10
64.4534585541
 20
87.8221280147
 11
64.4534585541
 21
57.8221280147
  0
LINE
  5
236
100
AcDbEntity
  8
0
100
AcDbLine
 62
7
  6
BYLAYER
 10
65.2653335541
 20
58.6340030147
 11
65.2653335541
 21
87.0102530147
  0
LINE
  5
237
100
AcDbEntity
  8
0
100
AcDbLine
 62
7
  6
BYLAYER
 10
56.6576383995
 20
83.2144328601
 11
52.3730287087
 21
83.2144328601
  0
LINE
  5
238
100
AcDbEntity
  8
0
100
AcDbLine
 62
7
  6
BYLAYER
 10
46.6576383995
 20
83.2144328601
 11
42.3730287087
 21
83.2144328601
  0
LINE
  5
239
100
AcDbEntity
  8
0
100
AcDbLine
 62
7
  6
BYLAYER
 10
67.2653335541
 20
87.0102530147
 11
67.2653335541
 21
58.6340030147
  0
LINE
  5
23A
100
AcDbEntity
  8
0
100
AcDbLine
 62
7
  6
BYLAYER
 10
58.2653335541
 20
54.8221280147
 11
56.6576383995
 21
52.0375183239
  0
LINE
  5
23B
100
AcDbEntity
  8
0
100
AcDbLine
 62
7
  6
BYLAYER
 10
26.7653335541
 20
87.0102530147
 11
33.2653335541
 21
87.0102530147
  0
LINE
  5
23C
100
AcDbEntity
  8
0
100
AcDbLine
 62
7
  6
BYLAYER
 10
65.2653335541
 20
87.0102530147
 11
67.2653335541
 21
87.0102530147
  0
LINE
  5
23D
100
AcDbEntity
  8
0
100
AcDbLine
 62
7
  6
BYLAYER
 10
34.0772085541
 20
87.8221280147
 11
40.7653335541
 21
87.8221280147
  0
LINE
  5
23E
100
AcDbEntity
  8
0
100
AcDbLine
 62
7
  6
BYLAYER
 10
48.2653335541
 20
87.8221280147
 11
50.7653335541
 21
87.8221280147
  0
LINE
  5
23F
100
AcDbEntity
  8
0
100
AcDbLine
 62
7
  6
BYLAYER
 10
58.2653335541
 20
87.8221280147
 11
64.4534585541
 21
87.8221280147
  0
LINE
  5
240
100
AcDbEntity
  8
0
100
AcDbLine
 62
7
  6
BYLAYER
 10
81.7653335541
 20
87.8221280147
 11
94.7653335541
 21
87.8221280147
  0
LINE
  5
241
100
AcDbEntity
  8
0
100
AcDbLine
 62
7
  6
BYLAYER
 10
56.6576383995
 20
93.6067377055
 11
58.2653335541
 21
90.8221280147
  0
LINE
  5
242
100
AcDbEntity
  8
0
100
AcDbLine
 62
7
  6
BYLAYER
 10
65.2653335541
 20
58.6340030147
 11
64.4534585541
 21
57.8221280147
  0
LINE
  5
243
100
AcDbEntity
  8
0
100
AcDbLine
 62
7
  6
BYLAYER
 10
64.4534585541
 20
87.8221280147
 11
65.2653335541
 21
87.0102530147
  0
LINE
  5
244
100
AcDbEntity
  8
0
100
AcDbLine
 62
7
  6
BYLAYER
 10
56.6576383995
 20
93.6067377055
 11
52.3730287087
 21
93.6067377055
  0
LINE
  5
245
100
AcDbEntity
  8
0
100
AcDbLine
 62
7
  6
BYLAYER
 10
46.6576383995
 20
93.6067377055
 11
42.3730287087
 21
93.6067377055
  0
LINE
  5
246
100
AcDbEntity
  8
0
100
AcDbLine
 62
7
  6
BYLAYER
 10
81.7653335541
 20
57.8222553259
 11
81.7653335541
 21
87.8220007035
  0
LINE
  5
247
100
AcDbEntity
  8
0
100
AcDbLine
 62
7
  6
BYLAYER
 10
94.7653335541
 20
87.8220007035
 11
94.7653335541
 21
57.8222553259
  0
ARC
  5
248
100
AcDbEntity
  8
0
100
AcDbCircle
 62
7
  6
BYLAYER
 10
22.8653335541
 20
63.8221280147
 40
11.5
100
AcDbArc
 50
90.4982301739
 51
170.0
  0
ARC
  5
249
100
AcDbEntity
  8
0
100
AcDbCircle
 62
7
  6
BYLAYER
 10
22.8653335541
 20
63.8221280147
 40
9.0002592414
100
AcDbArc
 50
90.0
 51
90.636593576
  0
ARC
  5
24A
100
AcDbEntity
  8
0
100
AcDbCircle
 62
7
  6
BYLAYER
 10
22.8653335541
 20
63.8221280147
 40
6.5
100
AcDbArc
 50
90.0
 51
170.0
  0
ARC
  5
24B
100
AcDbEntity
  8
0
100
AcDbCircle
 62
7
  6
BYLAYER
 10
26.7653335541
 20
78.3221280147
 40
1.5
100
AcDbArc
 50
90.0
 51
270.0
  0
SPLINE
  5
24C
100
AcDbEntity
  8
0
100
AcDbSpline
 62
7
  6
BYLAYER
 70
0
 71
3
 72
13
 73
9
 74
0
 42
0.0000001
 43
0.0000001
 44
0.0000000001
 40
0.0
 40
0.0
 40
0.0
 40
0.0
 40
0.1199420365
 40
0.2405199864
 40
0.3622867307
 40
0.4856960444
 40
0.7384479117
 40
1.0
 40
1.0
 40
1.0
 40
1.0
 10
50.7653335541
 20
57.2336707466
 30
0.0
 10
50.7653335541
 20
57.4536263628
 30
0.0
 10
50.7840273257
 20
57.8949275807
 30
0.0
 10
50.867564956
 20
58.5547465025
 30
0.0
 10
51.0048051118
 20
59.2119945156
 30
0.0
 10
51.2571573634
 20
60.0902837821
 30
0.0
 10
51.6925910498
 20
61.1789881729
 30
0.0
 10
52.1332051555
 20
62.0144365903
 30
0.0
 10
52.3730287087
 20
62.4298231693
 30
0.0
  0
SPLINE
  5
24D
100
AcDbEntity
  8
0
100
AcDbSpline
 62
7
  6
BYLAYER
 70
0
 71
3
 72
11
 73
7
 74
0
 42
0.0000001
 43
0.0000001
 44
0.0000000001
 40
0.0
 40
0.0
 40
0.0
 40
0.0
 40
0.2500122644
 40
0.5000150193
 40
0.7500092299
 40
1.0
 40
1.0
 40
1.0
 40
1.0
 10
56.6576383995
 20
83.2144328601
 30
0.0
 10
56.901471055
 20
82.3697717641
 30
0.0
 10
57.3484260969
 20
80.6682402112
 30
0.0
 10
57.8631402665
 20
78.0796481391
 30
0.0
 10
58.1905835508
 20
75.4602437112
 30
0.0
 10
58.2653335541
 20
73.7012035737
 30
0.0
 10
58.2653335541
 20
72.8221280147
 30
0.0
  0
SPLINE
  5
24E
100
AcDbEntity
  8
0
100
AcDbSpline
 62
7
  6
BYLAYER
 70
0
 71
3
 72
11
 73
7
 74
0
 42
0.0000001
 43
0.0000001
 44
0.0000000001
 40
0.0
 40
0.0
 40
0.0
 40
0.0
 40
0.2500122644
 40
0.5000150193
 40
0.7500092299
 40
1.0
 40
1.0
 40
1.0
 40
1.0
 10
52.3730287087
 20
62.4298231693
 30
0.0
 10
52.1291960531
 20
63.2744842652
 30
0.0
 10
51.6822410113
 20
64.9760158181
 30
0.0
 10
51.1675268417
 20
67.5646078903
 30
0.0
 10
50.8400835573
 20
70.1840123181
 30
0.0
 10
50.7653335541
 20
71.9430524557
 30
0.0
 10
50.7653335541
 20
72.8221280147
 30
0.0
  0
SPLINE
  5
24F
100
AcDbEntity
  8
0
100
AcDbSpline
 62
7
  6
BYLAYER
 70
0
 71
3
 72
11
 73
7
 74
0
 42
0.0000001
 43
0.0000001
 44
0.0000000001
 40
0.0
 40
0.0
 40
0.0
 40
0.0
 40
0.2499908913
 40
0.4999851166
 40
0.7499878191
 40
1.0
 40
1.0
 40
1.0
 40
1.0
 10
50.7653335541
 20
72.8221280147
 30
0.0
 10
50.7653335541
 20
73.7012040035
 30
0.0
 10
50.8400836993
 20
75.4602446251
 30
0.0
 10
51.1675269329
 20
78.0796493425
 30
0.0
 10
51.6822403806
 20
80.6682411587
 30
0.0
 10
52.1291961336
 20
82.369772043
 30
0.0
 10
52.3730287087
 20
83.2144328601
 30
0.0
  0
SPLINE
  5
250
100
AcDbEntity
  8
0
100
AcDbSpline
 62
7
  6
BYLAYER
 70
0
 71
3
 72
13
 73
9
 74
0
 42
0.0000001
 43
0.0000001
 44
0.0000000001
 40
0.0
 40
0.0
 40
0.0
 40
0.0
 40
0.1199420365
 40
0.2405199864
 40
0.3622867307
 40
0.4856960444
 40
0.7384479117
 40
1.0
 40
1.0
 40
1.0
 40
1.0
 10
58.2653335541
 20
57.2336707466
 30
0.0
 10
58.2653335541
 20
57.0137151303
 30
0.0
 10
58.2466397824
 20
56.5724139124
 30
0.0
 10
58.1631021521
 20
55.9125949906
 30
0.0
 10
58.0258619963
 20
55.2553469775
 30
0.0
 10
57.7735097447
 20
54.3770577111
 30
0.0
 10
57.3380760583
 20
53.2883533202
 30
0.0
 10
56.8974619526
 20
52.4529049028
 30
0.0
 10
56.6576383995
 20
52.0375183239
 30
0.0
  0
SPLINE
  5
251
100
AcDbEntity
  8
0
100
AcDbSpline
 62
7
  6
BYLAYER
 70
0
 71
3
 72
13
 73
9
 74
0
 42
0.0000001
 43
0.0000001
 44
0.0000000001
 40
0.0
 40
0.0
 40
0.0
 40
0.0
 40
0.2615521428
 40
0.5143040742
 40
0.6377134237
 40
0.7594801292
 40
0.8800580001
 40
1.0
 40
1.0
 40
1.0
 40
1.0
 10
52.3730287087
 20
83.2144328601
 30
0.0
 10
52.1332051062
 20
83.6298195244
 30
0.0
 10
51.692591401
 20
84.4652684382
 30
0.0
 10
51.2571578779
 20
85.5539730631
 30
0.0
 10
51.0048040707
 20
86.4322620381
 30
0.0
 10
50.86756513
 20
87.0895101549
 30
0.0
 10
50.7840269349
 20
87.7493286983
 30
0.0
 10
50.7653335541
 20
88.1906297344
 30
0.0
 10
50.7653335541
 20
88.4105852828
 30
0.0
  0
SPLINE
  5
252
100
AcDbEntity
  8
0
100
AcDbSpline
 62
7
  6
BYLAYER
 70
0
 71
3
 72
13
 73
9
 74
0
 42
0.0000001
 43
0.0000001
 44
0.0000000001
 40
0.0
 40
0.0
 40
0.0
 40
0.0
 40
0.2615521428
 40
0.5143040742
 40
0.6377134237
 40
0.7594801292
 40
0.8800580001
 40
1.0
 40
1.0
 40
1.0
 40
1.0
 10
56.6576383995
 20
62.4298231693
 30
0.0
 10
56.8974620019
 20
62.014436505
 30
0.0
 10
57.3380757072
 20
61.1789875912
 30
0.0
 10
57.7735092302
 20
60.0902829663
 30
0.0
 10
58.0258630374
 20
59.2119939913
 30
0.0
 10
58.1631019781
 20
58.5547458745
 30
0.0
 10
58.2466401732
 20
57.8949273311
 30
0.0
 10
58.2653335541
 20
57.453626295
 30
0.0
 10
58.2653335541
 20
57.2336707466
 30
0.0
  0
SPLINE
  5
253
100
AcDbEntity
  8
0
100
AcDbSpline
 62
7
  6
BYLAYER
 70
0
 71
3
 72
11
 73
7
 74
0
 42
0.0000001
 43
0.0000001
 44
0.0000000001
 40
0.0
 40
0.0
 40
0.0
 40
0.0
 40
0.2499908913
 40
0.4999851166
 40
0.7499878191
 40
1.0
 40
1.0
 40
1.0
 40
1.0
 10
58.2653335541
 20
72.8221280147
 30
0.0
 10
58.2653335541
 20
71.9430520258
 30
0.0
 10
58.1905834088
 20
70.1840114043
 30
0.0
 10
57.8631401753
 20
67.5646066869
 30
0.0
 10
57.3484267275
 20
64.9760148706
 30
0.0
 10
56.9014709745
 20
63.2744839864
 30
0.0
 10
56.6576383995
 20
62.4298231693
 30
0.0
  0
SPLINE
  5
254
100
AcDbEntity
  8
0
100
AcDbSpline
 62
7
  6
BYLAYER
 70
0
 71
3
 72
13
 73
9
 74
0
 42
0.0000001
 43
0.0000001
 44
0.0000000001
 40
0.0
 40
0.0
 40
0.0
 40
0.0
 40
0.1199420365
 40
0.2405199864
 40
0.3622867307
 40
0.4856960444
 40
0.7384479117
 40
1.0
 40
1.0
 40
1.0
 40
1.0
 10
50.7653335541
 20
88.4105852828
 30
0.0
 10
50.7653335541
 20
88.630540899
 30
0.0
 10
50.7840273257
 20
89.071842117
 30
0.0
 10
50.867564956
 20
89.7316610388
 30
0.0
 10
51.0048051118
 20
90.3889090519
 30
0.0
 10
51.2571573634
 20
91.2671983183
 30
0.0
 10
51.6925910498
 20
92.3559027092
 30
0.0
 10
52.1332051555
 20
93.1913511266
 30
0.0
 10
52.3730287087
 20
93.6067377055
 30
0.0
  0
SPLINE
  5
255
100
AcDbEntity
  8
0
100
AcDbSpline
 62
7
  6
BYLAYER
 70
0
 71
3
 72
13
 73
9
 74
0
 42
0.0000001
 43
0.0000001
 44
0.0000000001
 40
0.0
 40
0.0
 40
0.0
 40
0.0
 40
0.2615521428
 40
0.5143040742
 40
0.6377134237
 40
0.7594801292
 40
0.8800580001
 40
1.0
 40
1.0
 40
1.0
 40
1.0
 10
56.6576383995
 20
93.6067377055
 30
0.0
 10
56.8974620019
 20
93.1913510413
 30
0.0
 10
57.3380757072
 20
92.3559021274
 30
0.0
 10
57.7735092302
 20
91.2671975025
 30
0.0
 10
58.0258630374
 20
90.3889085275
 30
0.0
 10
58.1631019781
 20
89.7316604107
 30
0.0
 10
58.2466401732
 20
89.0718418673
 30
0.0
 10
58.2653335541
 20
88.6305408312
 30
0.0
 10
58.2653335541
 20
88.4105852828
 30
0.0
  0
SPLINE
  5
256
100
AcDbEntity
  8
0
100
AcDbSpline
 62
7
  6
BYLAYER
 70
0
 71
3
 72
13
 73
9
 74
0
 42
0.0000001
 43
0.0000001
 44
0.0000000001
 40
0.0
 40
0.0
 40
0.0
 40
0.0
 40
0.2615521428
 40
0.5143040742
 40
0.6377134237
 40
0.7594801292
 40
0.8800580001
 40
1.0
 40
1.0
 40
1.0
 40
1.0
 10
52.3730287087
 20
52.0375183239
 30
0.0
 10
52.1332051062
 20
52.4529049881
 30
0.0
 10
51.692591401
 20
53.288353902
 30
0.0
 10
51.2571578779
 20
54.3770585268
 30
0.0
 10
51.0048040707
 20
55.2553475019
 30
0.0
 10
50.86756513
 20
55.9125956187
 30
0.0
 10
50.7840269349
 20
56.5724141621
 30
0.0
 10
50.7653335541
 20
57.0137151982
 30
0.0
 10
50.7653335541
 20
57.2336707466
 30
0.0
  0
SPLINE
  5
257
100
AcDbEntity
  8
0
100
AcDbSpline
 62
7
  6
BYLAYER
 70
0
 71
3
 72
13
 73
9
 74
0
 42
0.0000001
 43
0.0000001
 44
0.0000000001
 40
0.0
 40
0.0
 40
0.0
 40
0.0
 40
0.1199420365
 40
0.2405199864
 40
0.3622867307
 40
0.4856960444
 40
0.7384479117
 40
1.0
 40
1.0
 40
1.0
 40
1.0
 10
58.2653335541
 20
88.4105852828
 30
0.0
 10
58.2653335541
 20
88.1906296666
 30
0.0
 10
58.2466397824
 20
87.7493284486
 30
0.0
 10
58.1631021521
 20
87.0895095268
 30
0.0
 10
58.0258619963
 20
86.4322615137
 30
0.0
 10
57.7735097447
 20
85.5539722473
 30
0.0
 10
57.3380760583
 20
84.4652678564
 30
0.0
 10
56.8974619526
 20
83.629819439
 30
0.0
 10
56.6576383995
 20
83.2144328601
 30
0.0
  0
SPLINE
  5
258
100
AcDbEntity
  8
0
100
AcDbSpline
 62
7
  6
BYLAYER
 70
0
 71
3
 72
13
 73
9
 74
0
 42
0.0000001
 43
0.0000001
 44
0.0000000001
 40
0.0
 40
0.0
 40
0.0
 40
0.0
 40
0.1199420365
 40
0.2405199864
 40
0.3622867307
 40
0.4856960444
 40
0.7384479117
 40
1.0
 40
1.0
 40
1.0
 40
1.0
 10
40.7653335541
 20
57.2336707466
 30
0.0
 10
40.7653335541
 20
57.4536263628
 30
0.0
 10
40.7840273257
 20
57.8949275807
 30
0.0
 10
40.867564956
 20
58.5547465025
 30
0.0
 10
41.0048051118
 20
59.2119945156
 30
0.0
 10
41.2571573634
 20
60.0902837821
 30
0.0
 10
41.6925910498
 20
61.1789881729
 30
0.0
 10
42.1332051555
 20
62.0144365903
 30
0.0
 10
42.3730287087
 20
62.4298231693
 30
0.0
  0
SPLINE
  5
259
100
AcDbEntity
  8
0
100
AcDbSpline
 62
7
  6
BYLAYER
 70
0
 71
3
 72
11
 73
7
 74
0
 42
0.0000001
 43
0.0000001
 44
0.0000000001
 40
0.0
 40
0.0
 40
0.0
 40
0.0
 40
0.2500122644
 40
0.5000150193
 40
0.7500092299
 40
1.0
 40
1.0
 40
1.0
 40
1.0
 10
46.6576383995
 20
83.2144328601
 30
0.0
 10
46.901471055
 20
82.3697717641
 30
0.0
 10
47.3484260969
 20
80.6682402112
 30
0.0
 10
47.8631402665
 20
78.0796481391
 30
0.0
 10
48.1905835508
 20
75.4602437112
 30
0.0
 10
48.2653335541
 20
73.7012035737
 30
0.0
 10
48.2653335541
 20
72.8221280147
 30
0.0
  0
SPLINE
  5
25A
100
AcDbEntity
  8
0
100
AcDbSpline
 62
7
  6
BYLAYER
 70
0
 71
3
 72
11
 73
7
 74
0
 42
0.0000001
 43
0.0000001
 44
0.0000000001
 40
0.0
 40
0.0
 40
0.0
 40
0.0
 40
0.2500122644
 40
0.5000150193
 40
0.7500092299
 40
1.0
 40
1.0
 40
1.0
 40
1.0
 10
42.3730287087
 20
62.4298231693
 30
0.0
 10
42.1291960531
 20
63.2744842652
 30
0.0
 10
41.6822410113
 20
64.9760158181
 30
0.0
 10
41.1675268417
 20
67.5646078903
 30
0.0
 10
40.8400835573
 20
70.1840123181
 30
0.0
 10
40.7653335541
 20
71.9430524557
 30
0.0
 10
40.7653335541
 20
72.8221280147
 30
0.0
  0
SPLINE
  5
25B
100
AcDbEntity
  8
0
100
AcDbSpline
 62
7
  6
BYLAYER
 70
0
 71
3
 72
11
 73
7
 74
0
 42
0.0000001
 43
0.0000001
 44
0.0000000001
 40
0.0
 40
0.0
 40
0.0
 40
0.0
 40
0.2499908913
 40
0.4999851166
 40
0.7499878191
 40
1.0
 40
1.0
 40
1.0
 40
1.0
 10
40.7653335541
 20
72.8221280147
 30
0.0
 10
40.7653335541
 20
73.7012040035
 30
0.0
 10
40.8400836993
 20
75.4602446251
 30
0.0
 10
41.1675269329
 20
78.0796493425
 30
0.0
 10
41.6822403806
 20
80.6682411587
 30
0.0
 10
42.1291961336
 20
82.369772043
 30
0.0
 10
42.3730287087
 20
83.2144328601
 30
0.0
  0
SPLINE
  5
25C
100
AcDbEntity
  8
0
100
AcDbSpline
 62
7
  6
BYLAYER
 70
0
 71
3
 72
13
 73
9
 74
0
 42
0.0000001
 43
0.0000001
 44
0.0000000001
 40
0.0
 40
0.0
 40
0.0
 40
0.0
 40
0.1199420365
 40
0.2405199864
 40
0.3622867307
 40
0.4856960444
 40
0.7384479117
 40
1.0
 40
1.0
 40
1.0
 40
1.0
 10
48.2653335541
 20
57.2336707466
 30
0.0
 10
48.2653335541
 20
57.0137151303
 30
0.0
 10
48.2466397824
 20
56.5724139124
 30
0.0
 10
48.1631021521
 20
55.9125949906
 30
0.0
 10
48.0258619963
 20
55.2553469775
 30
0.0
 10
47.7735097447
 20
54.3770577111
 30
0.0
 10
47.3380760583
 20
53.2883533202
 30
0.0
 10
46.8974619526
 20
52.4529049028
 30
0.0
 10
46.6576383995
 20
52.0375183239
 30
0.0
  0
SPLINE
  5
25D
100
AcDbEntity
  8
0
100
AcDbSpline
 62
7
  6
BYLAYER
 70
0
 71
3
 72
13
 73
9
 74
0
 42
0.0000001
 43
0.0000001
 44
0.0000000001
 40
0.0
 40
0.0
 40
0.0
 40
0.0
 40
0.2615521428
 40
0.5143040742
 40
0.6377134237
 40
0.7594801292
 40
0.8800580001
 40
1.0
 40
1.0
 40
1.0
 40
1.0
 10
42.3730287087
 20
83.2144328601
 30
0.0
 10
42.1332051062
 20
83.6298195244
 30
0.0
 10
41.692591401
 20
84.4652684382
 30
0.0
 10
41.2571578779
 20
85.5539730631
 30
0.0
 10
41.0048040707
 20
86.4322620381
 30
0.0
 10
40.86756513
 20
87.0895101549
 30
0.0
 10
40.7840269349
 20
87.7493286983
 30
0.0
 10
40.7653335541
 20
88.1906297344
 30
0.0
 10
40.7653335541
 20
88.4105852828
 30
0.0
  0
SPLINE
  5
25E
100
AcDbEntity
  8
0
100
AcDbSpline
 62
7
  6
BYLAYER
 70
0
 71
3
 72
13
 73
9
 74
0
 42
0.0000001
 43
0.0000001
 44
0.0000000001
 40
0.0
 40
0.0
 40
0.0
 40
0.0
 40
0.2615521428
 40
0.5143040742
 40
0.6377134237
 40
0.7594801292
 40
0.8800580001
 40
1.0
 40
1.0
 40
1.0
 40
1.0
 10
46.6576383995
 20
62.4298231693
 30
0.0
 10
46.8974620019
 20
62.014436505
 30
0.0
 10
47.3380757072
 20
61.1789875912
 30
0.0
 10
47.7735092302
 20
60.0902829663
 30
0.0
 10
48.0258630374
 20
59.2119939913
 30
0.0
 10
48.1631019781
 20
58.5547458745
 30
0.0
 10
48.2466401732
 20
57.8949273311
 30
0.0
 10
48.2653335541
 20
57.453626295
 30
0.0
 10
48.2653335541
 20
57.2336707466
 30
0.0
  0
SPLINE
  5
25F
100
AcDbEntity
  8
0
100
AcDbSpline
 62
7
  6
BYLAYER
 70
0
 71
3
 72
11
 73
7
 74
0
 42
0.0000001
 43
0.0000001
 44
0.0000000001
 40
0.0
 40
0.0
 40
0.0
 40
0.0
 40
0.2499908913
 40
0.4999851166
 40
0.7499878191
 40
1.0
 40
1.0
 40
1.0
 40
1.0
 10
48.2653335541
 20
72.8221280147
 30
0.0
 10
48.2653335541
 20
71.9430520258
 30
0.0
 10
48.1905834088
 20
70.1840114043
 30
0.0
 10
47.8631401753
 20
67.5646066869
 30
0.0
 10
47.3484267275
 20
64.9760148706
 30
0.0
 10
46.9014709745
 20
63.2744839864
 30
0.0
 10
46.6576383995
 20
62.4298231693
 30
0.0
  0
SPLINE
  5
260
100
AcDbEntity
  8
0
100
AcDbSpline
 62
7
  6
BYLAYER
 70
0
 71
3
 72
13
 73
9
 74
0
 42
0.0000001
 43
0.0000001
 44
0.0000000001
 40
0.0
 40
0.0
 40
0.0
 40
0.0
 40
0.1199420365
 40
0.2405199864
 40
0.3622867307
 40
0.4856960444
 40
0.7384479117
 40
1.0
 40
1.0
 40
1.0
 40
1.0
 10
40.7653335541
 20
88.4105852828
 30
0.0
 10
40.7653335541
 20
88.630540899
 30
0.0
 10
40.7840273257
 20
89.071842117
 30
0.0
 10
40.867564956
 20
89.7316610388
 30
0.0
 10
41.0048051118
 20
90.3889090519
 30
0.0
 10
41.2571573634
 20
91.2671983183
 30
0.0
 10
41.6925910498
 20
92.3559027092
 30
0.0
 10
42.1332051555
 20
93.1913511266
 30
0.0
 10
42.3730287087
 20
93.6067377055
 30
0.0
  0
SPLINE
  5
261
100
AcDbEntity
  8
0
100
AcDbSpline
 62
7
  6
BYLAYER
 70
0
 71
3
 72
13
 73
9
 74
0
 42
0.0000001
 43
0.0000001
 44
0.0000000001
 40
0.0
 40
0.0
 40
0.0
 40
0.0
 40
0.2615521428
 40
0.5143040742
 40
0.6377134237
 40
0.7594801292
 40
0.8800580001
 40
1.0
 40
1.0
 40
1.0
 40
1.0
 10
46.6576383995
 20
93.6067377055
 30
0.0
 10
46.8974620019
 20
93.1913510413
 30
0.0
 10
47.3380757072
 20
92.3559021274
 30
0.0
 10
47.7735092302
 20
91.2671975025
 30
0.0
 10
48.0258630374
 20
90.3889085275
 30
0.0
 10
48.1631019781
 20
89.7316604107
 30
0.0
 10
48.2466401732
 20
89.0718418673
 30
0.0
 10
48.2653335541
 20
88.6305408312
 30
0.0
 10
48.2653335541
 20
88.4105852828
 30
0.0
  0
SPLINE
  5
262
100
AcDbEntity
  8
0
100
AcDbSpline
 62
7
  6
BYLAYER
 70
0
 71
3
 72
13
 73
9
 74
0
 42
0.0000001
 43
0.0000001
 44
0.0000000001
 40
0.0
 40
0.0
 40
0.0
 40
0.0
 40
0.2615521428
 40
0.5143040742
 40
0.6377134237
 40
0.7594801292
 40
0.8800580001
 40
1.0
 40
1.0
 40
1.0
 40
1.0
 10
42.3730287087
 20
52.0375183239
 30
0.0
 10
42.1332051062
 20
52.4529049881
 30
0.0
 10
41.692591401
 20
53.288353902
 30
0.0
 10
41.2571578779
 20
54.3770585268
 30
0.0
 10
41.0048040707
 20
55.2553475019
 30
0.0
 10
40.86756513
 20
55.9125956187
 30
0.0
 10
40.7840269349
 20
56.5724141621
 30
0.0
 10
40.7653335541
 20
57.0137151982
 30
0.0
 10
40.7653335541
 20
57.2336707466
 30
0.0
  0
SPLINE
  5
263
100
AcDbEntity
  8
0
100
AcDbSpline
 62
7
  6
BYLAYER
 70
0
 71
3
 72
13
 73
9
 74
0
 42
0.0000001
 43
0.0000001
 44
0.0000000001
 40
0.0
 40
0.0
 40
0.0
 40
0.0
 40
0.1199420365
 40
0.2405199864
 40
0.3622867307
 40
0.4856960444
 40
0.7384479117
 40
1.0
 40
1.0
 40
1.0
 40
1.0
 10
48.2653335541
 20
88.4105852828
 30
0.0
 10
48.2653335541
 20
88.1906296666
 30
0.0
 10
48.2466397824
 20
87.7493284486
 30
0.0
 10
48.1631021521
 20
87.0895095268
 30
0.0
 10
48.0258619963
 20
86.4322615137
 30
0.0
 10
47.7735097447
 20
85.5539722473
 30
0.0
 10
47.3380760583
 20
84.4652678564
 30
0.0
 10
46.8974619526
 20
83.629819439
 30
0.0
 10
46.6576383995
 20
83.2144328601
 30
0.0
  0
ENDSEC
  0
SECTION
  2
OBJECTS
  0
DICTIONARY
  5
C
100
AcDbDictionary
280
0
281
1
  3
ACAD_GROUP
350
D
  3
ACAD_MLINESTYLE
350
17
  3
ACAD_LAYOUT
350
1A
  3
ACAD_PLOTSETTINGS
350
19
  3
ACAD_PLOTSTYLENAME
350
E
  0
DICTIONARY
  5
D
102
{ACAD_REACTORS
330
C
102
}
100
AcDbDictionary
280
0
281
1
  0
ACDBDICTIONARYWDFLT
  5
E
102
{ACAD_REACTORS
330
C
102
}
100
AcDbDictionary
281
1
  3
Normal
350
F
100
AcDbDictionaryWithDefault
340
F
  0
DICTIONARY
  5
17
102
{ACAD_REACTORS
330
C
102
}
100
AcDbDictionary
280
0
281
1
  3
Standard
350
18
  0
DICTIONARY
  5
19
102
{ACAD_REACTORS
330
C
102
}
100
AcDbDictionary
281
1
  0
DICTIONARY
  5
1A
102
{ACAD_REACTORS
330
C
102
}
100
AcDbDictionary
281
1
  3
Model
350
264
  3
Layout1
350
265
  0
ACDBPLACEHOLDER
  5
F
102
{ACAD_REACTORS
330
E
102
}
  0
MLINESTYLE
  5
18
102
{ACAD_REACTORS
330
17
102
}
100
AcDbMlineStyle
  2
STANDARD
 70
0
  3

 62
256
 51
90.0
 52
90.0
 71
2
 49
0.5
 62
256
  6
BYLAYER
 49
-0.5
 62
256
  6
BYLAYER
  0
LAYOUT
  5
264
102
{ACAD_REACTORS
330
1A
102
}
100
AcDbPlotSettings
  1

  2
none_device
  4

  6

 40
0.0
 41
0.0
 42
0.0
 43
0.0
 44
210.0
 45
297.0
 46
0.0
 47
0.0
 48
0.0
 49
0.0
140
0.0
141
0.0
142
1.0
143
1.0
 70
1024
 72
1
 73
0
 74
0
  7

 75
0
147
1.0
148
0.0
149
0.0
100
AcDbLayout
  1
Model
 70
0
 71
0
 10
0.0
 20
0.0
 11
210.0
 21
297.0
 12
0.0
 22
0.0
 32
0.0
 14
0.0
 24
0.0
 34
0.0
 15
0.0
 25
0.0
 35
0.0
146
0.0
 13
0.0
 23
0.0
 33
0.0
 16
1.0
 26
0.0
 36
0.0
 17
0.0
 27
1.0
 37
0.0
 76
0
330
210
345
0
346
0
  0
LAYOUT
  5
265
102
{ACAD_REACTORS
330
1A
102
}
100
AcDbPlotSettings
  1

  2
none_device
  4

  6

 40
0.0
 41
0.0
 42
0.0
 43
0.0
 44
210.0
 45
297.0
 46
0.0
 47
0.0
 48
0.0
 49
0.0
140
0.0
141
0.0
142
1.0
143
1.0
 70
0
 72
1
 73
0
 74
0
  7

 75
0
147
1.0
148
0.0
149
0.0
100
AcDbLayout
  1
Layout1
 70
0
 71
1
 10
0.0
 20
0.0
 11
210.0
 21
297.0
 12
0.0
 22
0.0
 32
0.0
 14
0.0
 24
0.0
 34
0.0
 15
0.0
 25
0.0
 35
0.0
146
0.0
 13
0.0
 23
0.0
 33
0.0
 16
1.0
 26
0.0
 36
0.0
 17
0.0
 27
1.0
 37
0.0
 76
0
330
211
345
0
346
0
  0
ENDSEC
  0
EOF
