999
DXF file: C:\Users\sesa63760\Dev\_Creo\CAD\MCADID0003613_3D-CAD\drw0001_2.dxf
999
Pro/ENGINEER 2019471 by Parametric Technology Corporation
  0
SECTION
  2
HEADER
  9
$ACADVER
  1
AC1024
  9
$DWGCODEPAGE
  3
ANSI_1252
  9
$EXTMAX
 10
104.74360791
 20
148.1373883299
 30
0.0
  9
$EXTMIN
 10
0.0
 20
0.0
 30
0.0
  9
$LIMMIN
 10
0.0
 20
0.0
  9
$LIMMAX
 10
104.74360791
 20
148.1373883299
  9
$VIEWCTR
 10
52.371803955
 20
74.068694165
  9
$VIEWSIZE
 40
148.1373883299
  9
$CLAYER
  8
0
  9
$LTSCALE
 40
9.6563630911
  9
$CELTYPE
  6
BYLAYER
  9
$DIMSCALE
 40
1.0
  9
$DIMASZ
 40
1.2469477132
  9
$DIMEXO
 40
1.0
  9
$DIMDLI
 40
6.6716690448
  9
$DIMEXE
 40
1.0
  9
$DIMCEN
 40
1.5801321422
  9
$DIMLFAC
 40
1.0
  9
$DIMBLK
  1
_FILLED
  9
$DIMALT
 70
0
  9
$DIMALTF
 40
0.0393700787
  9
$DIMTXT
 40
1.7457267985
  9
$DIMTOL
 70
1
  9
$DIMLIM
 70
0
  9
$DIMTFAC
 40
1.0
  9
$DIMTP
 40
0.01
  9
$DIMTM
 40
0.01
  9
$DIMGAP
 40
0.625
  9
$DIMDSEP
 70
46
  9
$AUNITS
 70
0
  9
$PDMODE
 70
3
  9
$PDSIZE
 40
0.3125
  9
$HANDSEED
  5
266
  9
$TILEMODE
 70
1
  9
$MEASUREMENT
 70
1
  9
$INSUNITS
 70
4
  0
ENDSEC
  0
SECTION
  2
CLASSES
  0
CLASS
  1
ACDBDICTIONARYWDFLT
  2
AcDbDictionaryWithDefault
  3
AutoCAD 2000
 90
0
 91
1
280
0
281
0
  0
CLASS
  1
ACDBPLACEHOLDER
  2
AcDbPlaceHolder
  3
AutoCAD 2000
 90
0
 91
1
280
0
281
0
  0
CLASS
  1
LAYOUT
  2
AcDbLayout
  3
AutoCAD 2000
 90
0
 91
0
280
0
281
0
  0
ENDSEC
  0
SECTION
  2
TABLES
  0
TABLE
  2
VPORT
  5
8
100
AcDbSymbolTable
 70
2
  0
VPORT
  5
1F4
100
AcDbSymbolTableRecord
100
AcDbViewportTableRecord
  2
*ACTIVE
 70
0
 10
0.0
 20
0.0
 11
1.0
 21
1.0
 12
52.371803955
 22
74.068694165
 13
0.0
 23
0.0
 14
1.0
 24
1.0
 15
0.0
 25
0.0
 16
0.0
 26
0.0
 36
1.0
 17
0.0
 27
0.0
 37
0.0
 40
148.1373883299
 41
0.7070707071
 42
50.0
 43
0.0
 44
0.0
 50
0.0
 51
0.0
 71
0
 72
100
 73
1
 74
1
 75
0
 76
0
 77
0
 78
0
  0
ENDTAB
  0
TABLE
  2
LTYPE
  5
5
100
AcDbSymbolTable
 70
6
  0
LTYPE
  5
14
100
AcDbSymbolTableRecord
100
AcDbLinetypeTableRecord
  2
BYBLOCK
 70
0
  3

 72
65
 73
0
 40
0.0
  0
LTYPE
  5
15
100
AcDbSymbolTableRecord
100
AcDbLinetypeTableRecord
  2
BYLAYER
 70
0
  3

 72
65
 73
0
 40
0.0
  0
LTYPE
  5
16
100
AcDbSymbolTableRecord
100
AcDbLinetypeTableRecord
  2
CONTINUOUS
 70
64
  3
Solid line
 72
65
 73
0
 40
0.0
  0
LTYPE
  5
1F5
100
AcDbSymbolTableRecord
100
AcDbLinetypeTableRecord
  2
CENTER
 70
64
  3
____ _ ____ _ ____ _ ____ _ ____ _ ____ _ ____
 72
65
 73
4
 40
0.6
 49
0.375
 74
0
 49
-0.075
 74
0
 49
0.075
 74
0
 49
-0.075
 74
0
  0
LTYPE
  5
1F6
100
AcDbSymbolTableRecord
100
AcDbLinetypeTableRecord
  2
HIDDEN
 70
64
  3
- - - - - - - - - - - - - - - - - - - -
 72
65
 73
2
 40
0.2
 49
0.1
 74
0
 49
-0.1
 74
0
  0
LTYPE
  5
1F7
100
AcDbSymbolTableRecord
100
AcDbLinetypeTableRecord
  2
PHANTOM
 70
64
  3
_____ _ _ _____ _ _ _____ _ _ _____
 72
65
 73
6
 40
0.8
 49
0.45
 74
0
 49
-0.05
 74
0
 49
0.1
 74
0
 49
-0.05
 74
0
 49
0.1
 74
0
 49
-0.05
 74
0
  0
LTYPE
  5
1F8
100
AcDbSymbolTableRecord
100
AcDbLinetypeTableRecord
  2
DOT
 70
64
  3
. . . . . . . . . . . . . . . . . . . .
 72
65
 73
2
 40
0.2
 49
0.1
 74
0
 49
-0.1
 74
0
  0
LTYPE
  5
1F9
100
AcDbSymbolTableRecord
100
AcDbLinetypeTableRecord
  2
DASHED
 70
64
  3
- - - - - - - - - - - - - - - - - - - -
 72
65
 73
2
 40
0.2
 49
0.1
 74
0
 49
-0.1
 74
0
  0
ENDTAB
  0
TABLE
  2
LAYER
  5
2
100
AcDbSymbolTable
 70
36
  0
LAYER
  5
10
100
AcDbSymbolTableRecord
100
AcDbLayerTableRecord
  2
0
 70
0
 62
7
  6
CONTINUOUS
370
-3
390
F
  0
LAYER
  5
1FA
100
AcDbSymbolTableRecord
100
AcDbLayerTableRecord
  2
DEFAULT_1
 70
0
 62
7
  6
CENTER
370
-3
390
F
  0
LAYER
  5
1FB
100
AcDbSymbolTableRecord
100
AcDbLayerTableRecord
  2
DEFAULT_2
 70
0
 62
7
  6
HIDDEN
370
-3
390
F
  0
LAYER
  5
1FC
100
AcDbSymbolTableRecord
100
AcDbLayerTableRecord
  2
DEFAULT_3
 70
0
 62
7
  6
PHANTOM
370
-3
390
F
  0
LAYER
  5
1FD
100
AcDbSymbolTableRecord
100
AcDbLayerTableRecord
  2
00_COMPONENTS
 70
0
 62
7
  6
CONTINUOUS
370
-3
390
F
  0
LAYER
  5
1FE
100
AcDbSymbolTableRecord
100
AcDbLayerTableRecord
  2
01_1_DEFAULT_DATUMS
 70
0
 62
7
  6
CONTINUOUS
370
-3
390
F
  0
LAYER
  5
1FF
100
AcDbSymbolTableRecord
100
AcDbLayerTableRecord
  2
01_PLANES
 70
0
 62
7
  6
CONTINUOUS
370
-3
390
F
  0
LAYER
  5
200
100
AcDbSymbolTableRecord
100
AcDbLayerTableRecord
  2
02_COORD_SYS
 70
0
 62
7
  6
CONTINUOUS
370
-3
390
F
  0
LAYER
  5
201
100
AcDbSymbolTableRecord
100
AcDbLayerTableRecord
  2
03_AXES
 70
0
 62
7
  6
CONTINUOUS
370
-3
390
F
  0
LAYER
  5
202
100
AcDbSymbolTableRecord
100
AcDbLayerTableRecord
  2
04_POINTS
 70
0
 62
7
  6
CONTINUOUS
370
-3
390
F
  0
LAYER
  5
203
100
AcDbSymbolTableRecord
100
AcDbLayerTableRecord
  2
05_CURVES
 70
0
 62
7
  6
CONTINUOUS
370
-3
390
F
  0
LAYER
  5
204
100
AcDbSymbolTableRecord
100
AcDbLayerTableRecord
  2
06_SURFS
 70
0
 62
7
  6
CONTINUOUS
370
-3
390
F
  0
LAYER
  5
205
100
AcDbSymbolTableRecord
100
AcDbLayerTableRecord
  2
07_COSMETICS
 70
0
 62
7
  6
CONTINUOUS
370
-3
390
F
  0
LAYER
  5
206
100
AcDbSymbolTableRecord
100
AcDbLayerTableRecord
  2
10_NOTES
 70
0
 62
7
  6
CONTINUOUS
370
-3
390
F
  0
LAYER
  5
207
100
AcDbSymbolTableRecord
100
AcDbLayerTableRecord
  2
11_NOTES_PUB
 70
0
 62
7
  6
CONTINUOUS
370
-3
390
F
  0
LAYER
  5
208
100
AcDbSymbolTableRecord
100
AcDbLayerTableRecord
  2
13_REF_GTOL
 70
0
 62
7
  6
CONTINUOUS
370
-3
390
F
  0
LAYER
  5
209
100
AcDbSymbolTableRecord
100
AcDbLayerTableRecord
  2
16_MISC
 70
0
 62
7
  6
CONTINUOUS
370
-3
390
F
  0
LAYER
  5
20A
100
AcDbSymbolTableRecord
100
AcDbLayerTableRecord
  2
17_NO_PRINT
 70
0
 62
7
  6
CONTINUOUS
370
-3
390
F
  0
LAYER
  5
20B
100
AcDbSymbolTableRecord
100
AcDbLayerTableRecord
  2
18_DATUM_CAMS_JOINTS
 70
0
 62
7
  6
CONTINUOUS
370
-3
390
F
  0
LAYER
  5
20C
100
AcDbSymbolTableRecord
100
AcDbLayerTableRecord
  2
19_DATUM_FUNCTIONAL
 70
0
 62
7
  6
CONTINUOUS
370
-3
390
F
  0
LAYER
  5
20D
100
AcDbSymbolTableRecord
100
AcDbLayerTableRecord
  2
20_DATUM_KINEMATIC_SCHEME
 70
0
 62
7
  6
CONTINUOUS
370
-3
390
F
  0
ENDTAB
  0
TABLE
  2
STYLE
  5
3
100
AcDbSymbolTable
 70
1
  0
STYLE
  5
11
100
AcDbSymbolTableRecord
100
AcDbTextStyleTableRecord
  2
STANDARD
 70
0
 40
0.0
 41
1.0
 50
0.0
 71
0
 42
0.2
  3
ARIAL.TTF
  4

  0
STYLE
  5
20E
100
AcDbSymbolTableRecord
100
AcDbTextStyleTableRecord
  2
TEXTSTYLE_1
 70
0
 40
0.0
 41
0.8
 50
0.0
 71
0
 42
0.2
  3
gdt
  4

  0
ENDTAB
  0
TABLE
  2
VIEW
  5
6
100
AcDbSymbolTable
 70
0
  0
ENDTAB
  0
TABLE
  2
UCS
  5
7
100
AcDbSymbolTable
 70
0
  0
ENDTAB
  0
TABLE
  2
APPID
  5
9
100
AcDbSymbolTable
 70
1
  0
APPID
  5
20F
100
AcDbSymbolTableRecord
100
AcDbRegAppTableRecord
  2
ACAD
 70
0
  0
ENDTAB
  0
TABLE
  2
BLOCK_RECORD
  5
1
100
AcDbSymbolTable
 70
0
  0
BLOCK_RECORD
  5
210
100
AcDbSymbolTableRecord
100
AcDbBlockTableRecord
  2
*Model_Space
  0
BLOCK_RECORD
  5
211
100
AcDbSymbolTableRecord
100
AcDbBlockTableRecord
  2
*Paper_Space
  0
BLOCK_RECORD
  5
212
100
AcDbSymbolTableRecord
100
AcDbBlockTableRecord
  2
_FILLED
  0
ENDTAB
  0
TABLE
  2
DIMSTYLE
  5
A
100
AcDbSymbolTable
 70
1
100
AcDbDimStyleTable
 71
0
  0
DIMSTYLE
105
213
100
AcDbSymbolTableRecord
100
AcDbDimStyleTableRecord
  2
STANDARD
 70
0
  3

  4

 40
1.0
 41
1.2469477132
 42
1.0
 43
0.38
 44
1.0
 45
0.0
 46
0.0
 47
0.01
 48
0.01
140
1.7457267985
141
0.09
142
0.0
143
25.4
144
1.0
145
0.0
146
1.0
147
0.625
 71
1
 72
0
 73
0
 74
0
 75
0
 76
0
 77
1
 78
8
 79
2
170
0
171
1
172
0
173
0
174
0
175
0
176
0
177
0
178
0
270
2
179
2
271
2
272
2
273
2
274
2
275
0
280
0
281
0
282
0
283
1
284
8
285
0
286
0
287
3
288
0
340
11
278
46
341
212
342
212
343
212
344
212
  0
ENDTAB
  0
ENDSEC
  0
SECTION
  2
BLOCKS
  0
BLOCK
  5
20
100
AcDbEntity
  8
0
100
AcDbBlockBegin
  2
*Model_Space
 70
0
 10
0.0
 20
0.0
 30
0.0
  3
*Model_Space
  1

  0
ENDBLK
  5
21
100
AcDbEntity
  8
0
100
AcDbBlockEnd
  0
BLOCK
  5
1C
100
AcDbEntity
  8
0
100
AcDbBlockBegin
  2
*Paper_Space
 70
0
 10
0.0
 20
0.0
 30
0.0
  3
*Paper_Space
  1

  0
ENDBLK
  5
1D
100
AcDbEntity
  8
0
100
AcDbBlockEnd
  0
BLOCK
  5
214
100
AcDbEntity
  8
0
100
AcDbBlockBegin
  2
_FILLED
 70
64
 10
0.0
 20
0.0
  3
_FILLED
  1

  0
SOLID
  5
215
100
AcDbEntity
  8
0
  6
BYBLOCK
 62
0
100
AcDbTrace
 10
0.0
 20
0.0
 11
-1.0
 21
0.25
 12
-1.0
 22
-0.25
 13
-1.0
 23
-0.25
  0
ENDBLK
  5
216
100
AcDbEntity
  8
0
  6
BYBLOCK
 62
0
100
AcDbBlockEnd
  0
ENDSEC
  0
SECTION
  2
ENTITIES
  0
LINE
  5
217
100
AcDbEntity
  8
0
100
AcDbLine
 62
7
  6
BYLAYER
 10
11.4844342263
 20
58.796843407
 11
11.4844342263
 21
88.7965887846
  0
LINE
  5
218
100
AcDbEntity
  8
0
100
AcDbLine
 62
7
  6
BYLAYER
 10
24.4844342263
 20
88.7965887846
 11
24.4844342263
 21
58.796843407
  0
LINE
  5
219
100
AcDbEntity
  8
0
100
AcDbLine
 62
7
  6
BYLAYER
 10
41.7963092263
 20
88.7967160958
 11
40.9844342263
 21
87.9848410958
  0
LINE
  5
21A
100
AcDbEntity
  8
0
100
AcDbLine
 62
7
  6
BYLAYER
 10
49.5921293808
 20
53.012106405
 11
53.8767390717
 21
53.012106405
  0
LINE
  5
21B
100
AcDbEntity
  8
0
100
AcDbLine
 62
7
  6
BYLAYER
 10
59.5921293808
 20
53.012106405
 11
63.8767390717
 21
53.012106405
  0
LINE
  5
21C
100
AcDbEntity
  8
0
100
AcDbLine
 62
7
  6
BYLAYER
 10
40.9844342263
 20
59.6085910958
 11
41.7963092263
 21
58.7967160958
  0
LINE
  5
21D
100
AcDbEntity
  8
0
100
AcDbLine
 62
7
  6
BYLAYER
 10
38.9844342263
 20
59.6085910958
 11
38.9844342263
 21
87.9848410958
  0
LINE
  5
21E
100
AcDbEntity
  8
0
100
AcDbLine
 62
7
  6
BYLAYER
 10
40.9844342263
 20
87.9848410958
 11
40.9844342263
 21
59.6085910958
  0
LINE
  5
21F
100
AcDbEntity
  8
0
100
AcDbLine
 62
7
  6
BYLAYER
 10
49.5921293808
 20
94.5813257866
 11
47.9844342263
 21
91.7967160958
  0
LINE
  5
220
100
AcDbEntity
  8
0
100
AcDbLine
 62
7
  6
BYLAYER
 10
94.7097233859
 20
66.793670139
 11
89.7856846208
 21
65.9254292506
  0
LINE
  5
221
100
AcDbEntity
  8
0
100
AcDbLine
 62
7
  6
BYLAYER
 10
24.4844342263
 20
58.7967160958
 11
11.4844342263
 21
58.7967160958
  0
LINE
  5
222
100
AcDbEntity
  8
0
100
AcDbLine
 62
7
  6
BYLAYER
 10
41.7963092263
 20
58.7967160958
 11
47.9844342263
 21
58.7967160958
  0
LINE
  5
223
100
AcDbEntity
  8
0
100
AcDbLine
 62
7
  6
BYLAYER
 10
55.4844342263
 20
58.7967160958
 11
57.9844342263
 21
58.7967160958
  0
LINE
  5
224
100
AcDbEntity
  8
0
100
AcDbLine
 62
7
  6
BYLAYER
 10
65.4844342263
 20
58.7967160958
 11
72.1725592263
 21
58.7967160958
  0
LINE
  5
225
100
AcDbEntity
  8
0
100
AcDbLine
 62
7
  6
BYLAYER
 10
38.9844342263
 20
59.6085910958
 11
40.9844342263
 21
59.6085910958
  0
LINE
  5
226
100
AcDbEntity
  8
0
100
AcDbLine
 62
7
  6
BYLAYER
 10
72.9844342263
 20
59.6085910958
 11
79.4844342263
 21
59.6085910958
  0
LINE
  5
227
100
AcDbEntity
  8
0
100
AcDbLine
 62
7
  6
BYLAYER
 10
47.9844342263
 20
55.7967160958
 11
49.5921293808
 21
53.012106405
  0
LINE
  5
228
100
AcDbEntity
  8
0
100
AcDbLine
 62
7
  6
BYLAYER
 10
41.7963092263
 20
58.7967160958
 11
41.7963092263
 21
88.7967160958
  0
LINE
  5
229
100
AcDbEntity
  8
0
100
AcDbLine
 62
7
  6
BYLAYER
 10
49.5921293808
 20
63.4044112504
 11
53.8767390717
 21
63.4044112504
  0
LINE
  5
22A
100
AcDbEntity
  8
0
100
AcDbLine
 62
7
  6
BYLAYER
 10
59.5921293808
 20
63.4044112504
 11
63.8767390717
 21
63.4044112504
  0
LINE
  5
22B
100
AcDbEntity
  8
0
100
AcDbLine
 62
7
  6
BYLAYER
 10
47.9844342263
 20
55.7967160958
 11
47.9844342263
 21
91.7967160958
  0
LINE
  5
22C
100
AcDbEntity
  8
0
100
AcDbLine
 62
7
  6
BYLAYER
 10
59.5921293808
 20
94.5813257866
 11
57.9844342263
 21
91.7967160958
  0
LINE
  5
22D
100
AcDbEntity
  8
0
100
AcDbLine
 62
7
  6
BYLAYER
 10
57.9844342263
 20
55.7967160958
 11
59.5921293808
 21
53.012106405
  0
LINE
  5
22E
100
AcDbEntity
  8
0
100
AcDbLine
 62
7
  6
BYLAYER
 10
83.3844342263
 20
71.2967160958
 11
79.4844342263
 21
71.2967160958
  0
LINE
  5
22F
100
AcDbEntity
  8
0
100
AcDbLine
 62
7
  6
BYLAYER
 10
55.4844342263
 20
91.7967160958
 11
55.4844342263
 21
55.7967160958
  0
LINE
  5
230
100
AcDbEntity
  8
0
100
AcDbLine
 62
7
  6
BYLAYER
 10
83.4844342263
 20
76.2967160958
 11
79.4844342263
 21
76.2967160958
  0
LINE
  5
231
100
AcDbEntity
  8
0
100
AcDbLine
 62
7
  6
BYLAYER
 10
57.9844342263
 20
55.7967160958
 11
57.9844342263
 21
91.7967160958
  0
LINE
  5
232
100
AcDbEntity
  8
0
100
AcDbLine
 62
7
  6
BYLAYER
 10
65.4844342263
 20
91.7967160958
 11
65.4844342263
 21
55.7967160958
  0
LINE
  5
233
100
AcDbEntity
  8
0
100
AcDbLine
 62
7
  6
BYLAYER
 10
53.8767390717
 20
53.012106405
 11
55.4844342263
 21
55.7967160958
  0
LINE
  5
234
100
AcDbEntity
  8
0
100
AcDbLine
 62
7
  6
BYLAYER
 10
49.5921293808
 20
84.1890209412
 11
53.8767390717
 21
84.1890209412
  0
LINE
  5
235
100
AcDbEntity
  8
0
100
AcDbLine
 62
7
  6
BYLAYER
 10
59.5921293808
 20
84.1890209412
 11
63.8767390717
 21
84.1890209412
  0
LINE
  5
236
100
AcDbEntity
  8
0
100
AcDbLine
 62
7
  6
BYLAYER
 10
55.4844342263
 20
91.7967160958
 11
53.8767390717
 21
94.5813257866
  0
LINE
  5
237
100
AcDbEntity
  8
0
100
AcDbLine
 62
7
  6
BYLAYER
 10
79.4844342263
 20
87.9848410958
 11
72.9844342263
 21
87.9848410958
  0
LINE
  5
238
100
AcDbEntity
  8
0
100
AcDbLine
 62
7
  6
BYLAYER
 10
40.9844342263
 20
87.9848410958
 11
38.9844342263
 21
87.9848410958
  0
LINE
  5
239
100
AcDbEntity
  8
0
100
AcDbLine
 62
7
  6
BYLAYER
 10
72.1725592263
 20
88.7967160958
 11
65.4844342263
 21
88.7967160958
  0
LINE
  5
23A
100
AcDbEntity
  8
0
100
AcDbLine
 62
7
  6
BYLAYER
 10
57.9844342263
 20
88.7967160958
 11
55.4844342263
 21
88.7967160958
  0
LINE
  5
23B
100
AcDbEntity
  8
0
100
AcDbLine
 62
7
  6
BYLAYER
 10
47.9844342263
 20
88.7967160958
 11
41.7963092263
 21
88.7967160958
  0
LINE
  5
23C
100
AcDbEntity
  8
0
100
AcDbLine
 62
7
  6
BYLAYER
 10
24.4844342263
 20
88.7967160958
 11
11.4844342263
 21
88.7967160958
  0
LINE
  5
23D
100
AcDbEntity
  8
0
100
AcDbLine
 62
7
  6
BYLAYER
 10
72.1725592263
 20
88.7967160958
 11
72.1725592263
 21
58.7967160958
  0
LINE
  5
23E
100
AcDbEntity
  8
0
100
AcDbLine
 62
7
  6
BYLAYER
 10
72.9844342263
 20
59.6085910958
 11
72.9844342263
 21
87.9848410958
  0
LINE
  5
23F
100
AcDbEntity
  8
0
100
AcDbLine
 62
7
  6
BYLAYER
 10
63.8767390717
 20
53.012106405
 11
65.4844342263
 21
55.7967160958
  0
LINE
  5
240
100
AcDbEntity
  8
0
100
AcDbLine
 62
7
  6
BYLAYER
 10
49.5921293808
 20
94.5813257866
 11
53.8767390717
 21
94.5813257866
  0
LINE
  5
241
100
AcDbEntity
  8
0
100
AcDbLine
 62
7
  6
BYLAYER
 10
59.5921293808
 20
94.5813257866
 11
63.8767390717
 21
94.5813257866
  0
LINE
  5
242
100
AcDbEntity
  8
0
100
AcDbLine
 62
7
  6
BYLAYER
 10
65.4844342263
 20
91.7967160958
 11
63.8767390717
 21
94.5813257866
  0
LINE
  5
243
100
AcDbEntity
  8
0
100
AcDbLine
 62
7
  6
BYLAYER
 10
72.1725592263
 20
58.7967160958
 11
72.9844342263
 21
59.6085910958
  0
LINE
  5
244
100
AcDbEntity
  8
0
100
AcDbLine
 62
7
  6
BYLAYER
 10
72.9844342263
 20
87.9848410958
 11
72.1725592263
 21
88.7967160958
  0
LINE
  5
245
100
AcDbEntity
  8
0
100
AcDbLine
 62
7
  6
BYLAYER
 10
79.4844342263
 20
87.9848410958
 11
79.4844342263
 21
59.6085910958
  0
LINE
  5
246
100
AcDbEntity
  8
0
100
AcDbLine
 62
7
  6
BYLAYER
 10
83.3844342263
 20
73.7967160958
 11
83.3844342263
 21
71.2967160958
  0
LINE
  5
247
100
AcDbEntity
  8
0
100
AcDbLine
 62
7
  6
BYLAYER
 10
83.4844342263
 20
76.2967160958
 11
83.4844342263
 21
73.796438318
  0
ARC
  5
248
100
AcDbEntity
  8
0
100
AcDbCircle
 62
7
  6
BYLAYER
 10
83.3844342263
 20
64.7967160958
 40
11.5
100
AcDbArc
 50
10.0
 51
89.5017698261
  0
ARC
  5
249
100
AcDbEntity
  8
0
100
AcDbCircle
 62
7
  6
BYLAYER
 10
83.3844342263
 20
64.7967160958
 40
9.0000859796
100
AcDbArc
 50
89.3633867771
 51
90.0
  0
ARC
  5
24A
100
AcDbEntity
  8
0
100
AcDbCircle
 62
7
  6
BYLAYER
 10
83.3844342263
 20
64.7967160958
 40
6.5
100
AcDbArc
 50
10.0
 51
90.0
  0
ARC
  5
24B
100
AcDbEntity
  8
0
100
AcDbCircle
 62
7
  6
BYLAYER
 10
79.4844342263
 20
79.2967160958
 40
1.5
100
AcDbArc
 50
270.0
 51
90.0
  0
SPLINE
  5
24C
100
AcDbEntity
  8
0
100
AcDbSpline
 62
7
  6
BYLAYER
 70
0
 71
3
 72
13
 73
9
 74
0
 42
0.0000001
 43
0.0000001
 44
0.0000000001
 40
0.0
 40
0.0
 40
0.0
 40
0.0
 40
0.1199420365
 40
0.2405199864
 40
0.3622867307
 40
0.4856960444
 40
0.7384479117
 40
1.0
 40
1.0
 40
1.0
 40
1.0
 10
55.4844342263
 20
58.2082588277
 30
0.0
 10
55.4844342263
 20
57.9883032115
 30
0.0
 10
55.4657404546
 20
57.5470019935
 30
0.0
 10
55.3822028243
 20
56.8871830717
 30
0.0
 10
55.2449626685
 20
56.2299350586
 30
0.0
 10
54.9926104169
 20
55.3516457922
 30
0.0
 10
54.5571767305
 20
54.2629414013
 30
0.0
 10
54.1165626248
 20
53.4274929839
 30
0.0
 10
53.8767390717
 20
53.012106405
 30
0.0
  0
SPLINE
  5
24D
100
AcDbEntity
  8
0
100
AcDbSpline
 62
7
  6
BYLAYER
 70
0
 71
3
 72
13
 73
9
 74
0
 42
0.0000001
 43
0.0000001
 44
0.0000000001
 40
0.0
 40
0.0
 40
0.0
 40
0.0
 40
0.2615521428
 40
0.5143040742
 40
0.6377134237
 40
0.7594801292
 40
0.8800580001
 40
1.0
 40
1.0
 40
1.0
 40
1.0
 10
49.5921293808
 20
84.1890209412
 30
0.0
 10
49.3523057784
 20
84.6044076055
 30
0.0
 10
48.9116920732
 20
85.4398565193
 30
0.0
 10
48.4762585501
 20
86.5285611442
 30
0.0
 10
48.2239047429
 20
87.4068501192
 30
0.0
 10
48.0866658022
 20
88.064098236
 30
0.0
 10
48.0031276071
 20
88.7239167794
 30
0.0
 10
47.9844342263
 20
89.1652178155
 30
0.0
 10
47.9844342263
 20
89.3851733639
 30
0.0
  0
SPLINE
  5
24E
100
AcDbEntity
  8
0
100
AcDbSpline
 62
7
  6
BYLAYER
 70
0
 71
3
 72
11
 73
7
 74
0
 42
0.0000001
 43
0.0000001
 44
0.0000000001
 40
0.0
 40
0.0
 40
0.0
 40
0.0
 40
0.2499908913
 40
0.4999851166
 40
0.7499878191
 40
1.0
 40
1.0
 40
1.0
 40
1.0
 10
55.4844342263
 20
73.7967160958
 30
0.0
 10
55.4844342263
 20
72.9176401069
 30
0.0
 10
55.409684081
 20
71.1585994854
 30
0.0
 10
55.0822408475
 20
68.539194768
 30
0.0
 10
54.5675273997
 20
65.9506029517
 30
0.0
 10
54.1205716467
 20
64.2490720675
 30
0.0
 10
53.8767390717
 20
63.4044112504
 30
0.0
  0
SPLINE
  5
24F
100
AcDbEntity
  8
0
100
AcDbSpline
 62
7
  6
BYLAYER
 70
0
 71
3
 72
13
 73
9
 74
0
 42
0.0000001
 43
0.0000001
 44
0.0000000001
 40
0.0
 40
0.0
 40
0.0
 40
0.0
 40
0.2615521428
 40
0.5143040742
 40
0.6377134237
 40
0.7594801292
 40
0.8800580001
 40
1.0
 40
1.0
 40
1.0
 40
1.0
 10
53.8767390717
 20
63.4044112504
 30
0.0
 10
54.1165626741
 20
62.9890245861
 30
0.0
 10
54.5571763794
 20
62.1535756723
 30
0.0
 10
54.9926099024
 20
61.0648710474
 30
0.0
 10
55.2449637096
 20
60.1865820724
 30
0.0
 10
55.3822026503
 20
59.5293339556
 30
0.0
 10
55.4657408454
 20
58.8695154122
 30
0.0
 10
55.4844342263
 20
58.4282143761
 30
0.0
 10
55.4844342263
 20
58.2082588277
 30
0.0
  0
SPLINE
  5
250
100
AcDbEntity
  8
0
100
AcDbSpline
 62
7
  6
BYLAYER
 70
0
 71
3
 72
13
 73
9
 74
0
 42
0.0000001
 43
0.0000001
 44
0.0000000001
 40
0.0
 40
0.0
 40
0.0
 40
0.0
 40
0.1199420365
 40
0.2405199864
 40
0.3622867307
 40
0.4856960444
 40
0.7384479117
 40
1.0
 40
1.0
 40
1.0
 40
1.0
 10
55.4844342263
 20
89.3851733639
 30
0.0
 10
55.4844342263
 20
89.1652177477
 30
0.0
 10
55.4657404546
 20
88.7239165297
 30
0.0
 10
55.3822028243
 20
88.0640976079
 30
0.0
 10
55.2449626685
 20
87.4068495948
 30
0.0
 10
54.9926104169
 20
86.5285603284
 30
0.0
 10
54.5571767305
 20
85.4398559376
 30
0.0
 10
54.1165626248
 20
84.6044075201
 30
0.0
 10
53.8767390717
 20
84.1890209412
 30
0.0
  0
SPLINE
  5
251
100
AcDbEntity
  8
0
100
AcDbSpline
 62
7
  6
BYLAYER
 70
0
 71
3
 72
11
 73
7
 74
0
 42
0.0000001
 43
0.0000001
 44
0.0000000001
 40
0.0
 40
0.0
 40
0.0
 40
0.0
 40
0.2500122644
 40
0.5000150193
 40
0.7500092299
 40
1.0
 40
1.0
 40
1.0
 40
1.0
 10
53.8767390717
 20
84.1890209412
 30
0.0
 10
54.1205717272
 20
83.3443598452
 30
0.0
 10
54.5675267691
 20
81.6428282924
 30
0.0
 10
55.0822409387
 20
79.0542362202
 30
0.0
 10
55.409684223
 20
76.4348317924
 30
0.0
 10
55.4844342263
 20
74.6757916548
 30
0.0
 10
55.4844342263
 20
73.7967160958
 30
0.0
  0
SPLINE
  5
252
100
AcDbEntity
  8
0
100
AcDbSpline
 62
7
  6
BYLAYER
 70
0
 71
3
 72
13
 73
9
 74
0
 42
0.0000001
 43
0.0000001
 44
0.0000000001
 40
0.0
 40
0.0
 40
0.0
 40
0.0
 40
0.2615521428
 40
0.5143040742
 40
0.6377134237
 40
0.7594801292
 40
0.8800580001
 40
1.0
 40
1.0
 40
1.0
 40
1.0
 10
49.5921293808
 20
53.012106405
 30
0.0
 10
49.3523057784
 20
53.4274930692
 30
0.0
 10
48.9116920732
 20
54.2629419831
 30
0.0
 10
48.4762585501
 20
55.351646608
 30
0.0
 10
48.2239047429
 20
56.229935583
 30
0.0
 10
48.0866658022
 20
56.8871836998
 30
0.0
 10
48.0031276071
 20
57.5470022432
 30
0.0
 10
47.9844342263
 20
57.9883032793
 30
0.0
 10
47.9844342263
 20
58.2082588277
 30
0.0
  0
SPLINE
  5
253
100
AcDbEntity
  8
0
100
AcDbSpline
 62
7
  6
BYLAYER
 70
0
 71
3
 72
13
 73
9
 74
0
 42
0.0000001
 43
0.0000001
 44
0.0000000001
 40
0.0
 40
0.0
 40
0.0
 40
0.0
 40
0.2615521428
 40
0.5143040742
 40
0.6377134237
 40
0.7594801292
 40
0.8800580001
 40
1.0
 40
1.0
 40
1.0
 40
1.0
 10
53.8767390717
 20
94.5813257866
 30
0.0
 10
54.1165626741
 20
94.1659391224
 30
0.0
 10
54.5571763794
 20
93.3304902085
 30
0.0
 10
54.9926099024
 20
92.2417855837
 30
0.0
 10
55.2449637096
 20
91.3634966086
 30
0.0
 10
55.3822026503
 20
90.7062484918
 30
0.0
 10
55.4657408454
 20
90.0464299484
 30
0.0
 10
55.4844342263
 20
89.6051289123
 30
0.0
 10
55.4844342263
 20
89.3851733639
 30
0.0
  0
SPLINE
  5
254
100
AcDbEntity
  8
0
100
AcDbSpline
 62
7
  6
BYLAYER
 70
0
 71
3
 72
11
 73
7
 74
0
 42
0.0000001
 43
0.0000001
 44
0.0000000001
 40
0.0
 40
0.0
 40
0.0
 40
0.0
 40
0.2499908913
 40
0.4999851166
 40
0.7499878191
 40
1.0
 40
1.0
 40
1.0
 40
1.0
 10
47.9844342263
 20
73.7967160958
 30
0.0
 10
47.9844342263
 20
74.6757920847
 30
0.0
 10
48.0591843715
 20
76.4348327062
 30
0.0
 10
48.3866276051
 20
79.0542374236
 30
0.0
 10
48.9013410528
 20
81.6428292399
 30
0.0
 10
49.3482968058
 20
83.3443601241
 30
0.0
 10
49.5921293808
 20
84.1890209412
 30
0.0
  0
SPLINE
  5
255
100
AcDbEntity
  8
0
100
AcDbSpline
 62
7
  6
BYLAYER
 70
0
 71
3
 72
11
 73
7
 74
0
 42
0.0000001
 43
0.0000001
 44
0.0000000001
 40
0.0
 40
0.0
 40
0.0
 40
0.0
 40
0.2500122644
 40
0.5000150193
 40
0.7500092299
 40
1.0
 40
1.0
 40
1.0
 40
1.0
 10
49.5921293808
 20
63.4044112504
 30
0.0
 10
49.3482967253
 20
64.2490723464
 30
0.0
 10
48.9013416835
 20
65.9506038992
 30
0.0
 10
48.3866275139
 20
68.5391959714
 30
0.0
 10
48.0591842295
 20
71.1586003992
 30
0.0
 10
47.9844342263
 20
72.9176405368
 30
0.0
 10
47.9844342263
 20
73.7967160958
 30
0.0
  0
SPLINE
  5
256
100
AcDbEntity
  8
0
100
AcDbSpline
 62
7
  6
BYLAYER
 70
0
 71
3
 72
13
 73
9
 74
0
 42
0.0000001
 43
0.0000001
 44
0.0000000001
 40
0.0
 40
0.0
 40
0.0
 40
0.0
 40
0.1199420365
 40
0.2405199864
 40
0.3622867307
 40
0.4856960444
 40
0.7384479117
 40
1.0
 40
1.0
 40
1.0
 40
1.0
 10
47.9844342263
 20
89.3851733639
 30
0.0
 10
47.9844342263
 20
89.6051289801
 30
0.0
 10
48.0031279979
 20
90.0464301981
 30
0.0
 10
48.0866656282
 20
90.7062491199
 30
0.0
 10
48.223905784
 20
91.363497133
 30
0.0
 10
48.4762580356
 20
92.2417863994
 30
0.0
 10
48.911691722
 20
93.3304907903
 30
0.0
 10
49.3523058277
 20
94.1659392077
 30
0.0
 10
49.5921293808
 20
94.5813257866
 30
0.0
  0
SPLINE
  5
257
100
AcDbEntity
  8
0
100
AcDbSpline
 62
7
  6
BYLAYER
 70
0
 71
3
 72
13
 73
9
 74
0
 42
0.0000001
 43
0.0000001
 44
0.0000000001
 40
0.0
 40
0.0
 40
0.0
 40
0.0
 40
0.1199420365
 40
0.2405199864
 40
0.3622867307
 40
0.4856960444
 40
0.7384479117
 40
1.0
 40
1.0
 40
1.0
 40
1.0
 10
47.9844342263
 20
58.2082588277
 30
0.0
 10
47.9844342263
 20
58.4282144439
 30
0.0
 10
48.0031279979
 20
58.8695156619
 30
0.0
 10
48.0866656282
 20
59.5293345837
 30
0.0
 10
48.223905784
 20
60.1865825968
 30
0.0
 10
48.4762580356
 20
61.0648718632
 30
0.0
 10
48.911691722
 20
62.1535762541
 30
0.0
 10
49.3523058277
 20
62.9890246715
 30
0.0
 10
49.5921293808
 20
63.4044112504
 30
0.0
  0
SPLINE
  5
258
100
AcDbEntity
  8
0
100
AcDbSpline
 62
7
  6
BYLAYER
 70
0
 71
3
 72
13
 73
9
 74
0
 42
0.0000001
 43
0.0000001
 44
0.0000000001
 40
0.0
 40
0.0
 40
0.0
 40
0.0
 40
0.1199420365
 40
0.2405199864
 40
0.3622867307
 40
0.4856960444
 40
0.7384479117
 40
1.0
 40
1.0
 40
1.0
 40
1.0
 10
65.4844342263
 20
58.2082588277
 30
0.0
 10
65.4844342263
 20
57.9883032115
 30
0.0
 10
65.4657404546
 20
57.5470019935
 30
0.0
 10
65.3822028243
 20
56.8871830717
 30
0.0
 10
65.2449626685
 20
56.2299350586
 30
0.0
 10
64.9926104169
 20
55.3516457922
 30
0.0
 10
64.5571767305
 20
54.2629414013
 30
0.0
 10
64.1165626248
 20
53.4274929839
 30
0.0
 10
63.8767390717
 20
53.012106405
 30
0.0
  0
SPLINE
  5
259
100
AcDbEntity
  8
0
100
AcDbSpline
 62
7
  6
BYLAYER
 70
0
 71
3
 72
13
 73
9
 74
0
 42
0.0000001
 43
0.0000001
 44
0.0000000001
 40
0.0
 40
0.0
 40
0.0
 40
0.0
 40
0.2615521428
 40
0.5143040742
 40
0.6377134237
 40
0.7594801292
 40
0.8800580001
 40
1.0
 40
1.0
 40
1.0
 40
1.0
 10
59.5921293808
 20
84.1890209412
 30
0.0
 10
59.3523057784
 20
84.6044076055
 30
0.0
 10
58.9116920732
 20
85.4398565193
 30
0.0
 10
58.4762585501
 20
86.5285611442
 30
0.0
 10
58.2239047429
 20
87.4068501192
 30
0.0
 10
58.0866658022
 20
88.064098236
 30
0.0
 10
58.0031276071
 20
88.7239167794
 30
0.0
 10
57.9844342263
 20
89.1652178155
 30
0.0
 10
57.9844342263
 20
89.3851733639
 30
0.0
  0
SPLINE
  5
25A
100
AcDbEntity
  8
0
100
AcDbSpline
 62
7
  6
BYLAYER
 70
0
 71
3
 72
11
 73
7
 74
0
 42
0.0000001
 43
0.0000001
 44
0.0000000001
 40
0.0
 40
0.0
 40
0.0
 40
0.0
 40
0.2499908913
 40
0.4999851166
 40
0.7499878191
 40
1.0
 40
1.0
 40
1.0
 40
1.0
 10
65.4844342263
 20
73.7967160958
 30
0.0
 10
65.4844342263
 20
72.9176401069
 30
0.0
 10
65.409684081
 20
71.1585994854
 30
0.0
 10
65.0822408475
 20
68.539194768
 30
0.0
 10
64.5675273997
 20
65.9506029517
 30
0.0
 10
64.1205716467
 20
64.2490720675
 30
0.0
 10
63.8767390717
 20
63.4044112504
 30
0.0
  0
SPLINE
  5
25B
100
AcDbEntity
  8
0
100
AcDbSpline
 62
7
  6
BYLAYER
 70
0
 71
3
 72
13
 73
9
 74
0
 42
0.0000001
 43
0.0000001
 44
0.0000000001
 40
0.0
 40
0.0
 40
0.0
 40
0.0
 40
0.2615521428
 40
0.5143040742
 40
0.6377134237
 40
0.7594801292
 40
0.8800580001
 40
1.0
 40
1.0
 40
1.0
 40
1.0
 10
63.8767390717
 20
63.4044112504
 30
0.0
 10
64.1165626741
 20
62.9890245861
 30
0.0
 10
64.5571763794
 20
62.1535756723
 30
0.0
 10
64.9926099024
 20
61.0648710474
 30
0.0
 10
65.2449637096
 20
60.1865820724
 30
0.0
 10
65.3822026503
 20
59.5293339556
 30
0.0
 10
65.4657408454
 20
58.8695154122
 30
0.0
 10
65.4844342263
 20
58.4282143761
 30
0.0
 10
65.4844342263
 20
58.2082588277
 30
0.0
  0
SPLINE
  5
25C
100
AcDbEntity
  8
0
100
AcDbSpline
 62
7
  6
BYLAYER
 70
0
 71
3
 72
13
 73
9
 74
0
 42
0.0000001
 43
0.0000001
 44
0.0000000001
 40
0.0
 40
0.0
 40
0.0
 40
0.0
 40
0.1199420365
 40
0.2405199864
 40
0.3622867307
 40
0.4856960444
 40
0.7384479117
 40
1.0
 40
1.0
 40
1.0
 40
1.0
 10
65.4844342263
 20
89.3851733639
 30
0.0
 10
65.4844342263
 20
89.1652177477
 30
0.0
 10
65.4657404546
 20
88.7239165297
 30
0.0
 10
65.3822028243
 20
88.0640976079
 30
0.0
 10
65.2449626685
 20
87.4068495948
 30
0.0
 10
64.9926104169
 20
86.5285603284
 30
0.0
 10
64.5571767305
 20
85.4398559376
 30
0.0
 10
64.1165626248
 20
84.6044075201
 30
0.0
 10
63.8767390717
 20
84.1890209412
 30
0.0
  0
SPLINE
  5
25D
100
AcDbEntity
  8
0
100
AcDbSpline
 62
7
  6
BYLAYER
 70
0
 71
3
 72
11
 73
7
 74
0
 42
0.0000001
 43
0.0000001
 44
0.0000000001
 40
0.0
 40
0.0
 40
0.0
 40
0.0
 40
0.2500122644
 40
0.5000150193
 40
0.7500092299
 40
1.0
 40
1.0
 40
1.0
 40
1.0
 10
63.8767390717
 20
84.1890209412
 30
0.0
 10
64.1205717272
 20
83.3443598452
 30
0.0
 10
64.5675267691
 20
81.6428282924
 30
0.0
 10
65.0822409387
 20
79.0542362202
 30
0.0
 10
65.409684223
 20
76.4348317924
 30
0.0
 10
65.4844342263
 20
74.6757916548
 30
0.0
 10
65.4844342263
 20
73.7967160958
 30
0.0
  0
SPLINE
  5
25E
100
AcDbEntity
  8
0
100
AcDbSpline
 62
7
  6
BYLAYER
 70
0
 71
3
 72
13
 73
9
 74
0
 42
0.0000001
 43
0.0000001
 44
0.0000000001
 40
0.0
 40
0.0
 40
0.0
 40
0.0
 40
0.2615521428
 40
0.5143040742
 40
0.6377134237
 40
0.7594801292
 40
0.8800580001
 40
1.0
 40
1.0
 40
1.0
 40
1.0
 10
59.5921293808
 20
53.012106405
 30
0.0
 10
59.3523057784
 20
53.4274930692
 30
0.0
 10
58.9116920732
 20
54.2629419831
 30
0.0
 10
58.4762585501
 20
55.351646608
 30
0.0
 10
58.2239047429
 20
56.229935583
 30
0.0
 10
58.0866658022
 20
56.8871836998
 30
0.0
 10
58.0031276071
 20
57.5470022432
 30
0.0
 10
57.9844342263
 20
57.9883032793
 30
0.0
 10
57.9844342263
 20
58.2082588277
 30
0.0
  0
SPLINE
  5
25F
100
AcDbEntity
  8
0
100
AcDbSpline
 62
7
  6
BYLAYER
 70
0
 71
3
 72
13
 73
9
 74
0
 42
0.0000001
 43
0.0000001
 44
0.0000000001
 40
0.0
 40
0.0
 40
0.0
 40
0.0
 40
0.2615521428
 40
0.5143040742
 40
0.6377134237
 40
0.7594801292
 40
0.8800580001
 40
1.0
 40
1.0
 40
1.0
 40
1.0
 10
63.8767390717
 20
94.5813257866
 30
0.0
 10
64.1165626741
 20
94.1659391224
 30
0.0
 10
64.5571763794
 20
93.3304902085
 30
0.0
 10
64.9926099024
 20
92.2417855837
 30
0.0
 10
65.2449637096
 20
91.3634966086
 30
0.0
 10
65.3822026503
 20
90.7062484918
 30
0.0
 10
65.4657408454
 20
90.0464299484
 30
0.0
 10
65.4844342263
 20
89.6051289123
 30
0.0
 10
65.4844342263
 20
89.3851733639
 30
0.0
  0
SPLINE
  5
260
100
AcDbEntity
  8
0
100
AcDbSpline
 62
7
  6
BYLAYER
 70
0
 71
3
 72
11
 73
7
 74
0
 42
0.0000001
 43
0.0000001
 44
0.0000000001
 40
0.0
 40
0.0
 40
0.0
 40
0.0
 40
0.2499908913
 40
0.4999851166
 40
0.7499878191
 40
1.0
 40
1.0
 40
1.0
 40
1.0
 10
57.9844342263
 20
73.7967160958
 30
0.0
 10
57.9844342263
 20
74.6757920847
 30
0.0
 10
58.0591843715
 20
76.4348327062
 30
0.0
 10
58.3866276051
 20
79.0542374236
 30
0.0
 10
58.9013410528
 20
81.6428292399
 30
0.0
 10
59.3482968058
 20
83.3443601241
 30
0.0
 10
59.5921293808
 20
84.1890209412
 30
0.0
  0
SPLINE
  5
261
100
AcDbEntity
  8
0
100
AcDbSpline
 62
7
  6
BYLAYER
 70
0
 71
3
 72
11
 73
7
 74
0
 42
0.0000001
 43
0.0000001
 44
0.0000000001
 40
0.0
 40
0.0
 40
0.0
 40
0.0
 40
0.2500122644
 40
0.5000150193
 40
0.7500092299
 40
1.0
 40
1.0
 40
1.0
 40
1.0
 10
59.5921293808
 20
63.4044112504
 30
0.0
 10
59.3482967253
 20
64.2490723464
 30
0.0
 10
58.9013416835
 20
65.9506038992
 30
0.0
 10
58.3866275139
 20
68.5391959714
 30
0.0
 10
58.0591842295
 20
71.1586003992
 30
0.0
 10
57.9844342263
 20
72.9176405368
 30
0.0
 10
57.9844342263
 20
73.7967160958
 30
0.0
  0
SPLINE
  5
262
100
AcDbEntity
  8
0
100
AcDbSpline
 62
7
  6
BYLAYER
 70
0
 71
3
 72
13
 73
9
 74
0
 42
0.0000001
 43
0.0000001
 44
0.0000000001
 40
0.0
 40
0.0
 40
0.0
 40
0.0
 40
0.1199420365
 40
0.2405199864
 40
0.3622867307
 40
0.4856960444
 40
0.7384479117
 40
1.0
 40
1.0
 40
1.0
 40
1.0
 10
57.9844342263
 20
89.3851733639
 30
0.0
 10
57.9844342263
 20
89.6051289801
 30
0.0
 10
58.0031279979
 20
90.0464301981
 30
0.0
 10
58.0866656282
 20
90.7062491199
 30
0.0
 10
58.223905784
 20
91.363497133
 30
0.0
 10
58.4762580356
 20
92.2417863994
 30
0.0
 10
58.911691722
 20
93.3304907903
 30
0.0
 10
59.3523058277
 20
94.1659392077
 30
0.0
 10
59.5921293808
 20
94.5813257866
 30
0.0
  0
SPLINE
  5
263
100
AcDbEntity
  8
0
100
AcDbSpline
 62
7
  6
BYLAYER
 70
0
 71
3
 72
13
 73
9
 74
0
 42
0.0000001
 43
0.0000001
 44
0.0000000001
 40
0.0
 40
0.0
 40
0.0
 40
0.0
 40
0.1199420365
 40
0.2405199864
 40
0.3622867307
 40
0.4856960444
 40
0.7384479117
 40
1.0
 40
1.0
 40
1.0
 40
1.0
 10
57.9844342263
 20
58.2082588277
 30
0.0
 10
57.9844342263
 20
58.4282144439
 30
0.0
 10
58.0031279979
 20
58.8695156619
 30
0.0
 10
58.0866656282
 20
59.5293345837
 30
0.0
 10
58.223905784
 20
60.1865825968
 30
0.0
 10
58.4762580356
 20
61.0648718632
 30
0.0
 10
58.911691722
 20
62.1535762541
 30
0.0
 10
59.3523058277
 20
62.9890246715
 30
0.0
 10
59.5921293808
 20
63.4044112504
 30
0.0
  0
ENDSEC
  0
SECTION
  2
OBJECTS
  0
DICTIONARY
  5
C
100
AcDbDictionary
280
0
281
1
  3
ACAD_GROUP
350
D
  3
ACAD_MLINESTYLE
350
17
  3
ACAD_LAYOUT
350
1A
  3
ACAD_PLOTSETTINGS
350
19
  3
ACAD_PLOTSTYLENAME
350
E
  0
DICTIONARY
  5
D
102
{ACAD_REACTORS
330
C
102
}
100
AcDbDictionary
280
0
281
1
  0
ACDBDICTIONARYWDFLT
  5
E
102
{ACAD_REACTORS
330
C
102
}
100
AcDbDictionary
281
1
  3
Normal
350
F
100
AcDbDictionaryWithDefault
340
F
  0
DICTIONARY
  5
17
102
{ACAD_REACTORS
330
C
102
}
100
AcDbDictionary
280
0
281
1
  3
Standard
350
18
  0
DICTIONARY
  5
19
102
{ACAD_REACTORS
330
C
102
}
100
AcDbDictionary
281
1
  0
DICTIONARY
  5
1A
102
{ACAD_REACTORS
330
C
102
}
100
AcDbDictionary
281
1
  3
Model
350
264
  3
Layout1
350
265
  0
ACDBPLACEHOLDER
  5
F
102
{ACAD_REACTORS
330
E
102
}
  0
MLINESTYLE
  5
18
102
{ACAD_REACTORS
330
17
102
}
100
AcDbMlineStyle
  2
STANDARD
 70
0
  3

 62
256
 51
90.0
 52
90.0
 71
2
 49
0.5
 62
256
  6
BYLAYER
 49
-0.5
 62
256
  6
BYLAYER
  0
LAYOUT
  5
264
102
{ACAD_REACTORS
330
1A
102
}
100
AcDbPlotSettings
  1

  2
none_device
  4

  6

 40
0.0
 41
0.0
 42
0.0
 43
0.0
 44
210.0
 45
297.0
 46
0.0
 47
0.0
 48
0.0
 49
0.0
140
0.0
141
0.0
142
1.0
143
1.0
 70
1024
 72
1
 73
0
 74
0
  7

 75
0
147
1.0
148
0.0
149
0.0
100
AcDbLayout
  1
Model
 70
0
 71
0
 10
0.0
 20
0.0
 11
210.0
 21
297.0
 12
0.0
 22
0.0
 32
0.0
 14
0.0
 24
0.0
 34
0.0
 15
0.0
 25
0.0
 35
0.0
146
0.0
 13
0.0
 23
0.0
 33
0.0
 16
1.0
 26
0.0
 36
0.0
 17
0.0
 27
1.0
 37
0.0
 76
0
330
210
345
0
346
0
  0
LAYOUT
  5
265
102
{ACAD_REACTORS
330
1A
102
}
100
AcDbPlotSettings
  1

  2
none_device
  4

  6

 40
0.0
 41
0.0
 42
0.0
 43
0.0
 44
210.0
 45
297.0
 46
0.0
 47
0.0
 48
0.0
 49
0.0
140
0.0
141
0.0
142
1.0
143
1.0
 70
0
 72
1
 73
0
 74
0
  7

 75
0
147
1.0
148
0.0
149
0.0
100
AcDbLayout
  1
Layout1
 70
0
 71
1
 10
0.0
 20
0.0
 11
210.0
 21
297.0
 12
0.0
 22
0.0
 32
0.0
 14
0.0
 24
0.0
 34
0.0
 15
0.0
 25
0.0
 35
0.0
146
0.0
 13
0.0
 23
0.0
 33
0.0
 16
1.0
 26
0.0
 36
0.0
 17
0.0
 27
1.0
 37
0.0
 76
0
330
211
345
0
346
0
  0
ENDSEC
  0
EOF
