999
DXF file: C:\Users\sesa63760\Dev\_Creo\CAD\MCADID0004334_3D-CAD\drw0001_6.dxf
999
Pro/ENGINEER 2019471 by Parametric Technology Corporation
  0
SECTION
  2
HEADER
  9
$ACADVER
  1
AC1024
  9
$DWGCODEPAGE
  3
ANSI_1252
  9
$EXTMAX
 10
96.0209900793
 20
135.8011145407
 30
0.0
  9
$EXTMIN
 10
0.0
 20
0.0
 30
0.0
  9
$LIMMIN
 10
0.0
 20
0.0
  9
$LIMMAX
 10
96.0209900793
 20
135.8011145407
  9
$VIEWCTR
 10
48.0104950396
 20
67.9005572704
  9
$VIEWSIZE
 40
135.8011145407
  9
$CLAYER
  8
0
  9
$LTSCALE
 40
8.8522207997
  9
$CELTYPE
  6
BYLAYER
  9
$DIMSCALE
 40
1.0
  9
$DIMASZ
 40
1.1431070248
  9
$DIMEXO
 40
1.0
  9
$DIMDLI
 40
6.1160798252
  9
$DIMEXE
 40
1.0
  9
$DIMCEN
 40
1.4485452218
  9
$DIMLFAC
 40
1.0
  9
$DIMBLK
  1
_FILLED
  9
$DIMALT
 70
0
  9
$DIMALTF
 40
0.0393700787
  9
$DIMTXT
 40
1.6003498347
  9
$DIMTOL
 70
1
  9
$DIMLIM
 70
0
  9
$DIMTFAC
 40
1.0
  9
$DIMTP
 40
0.01
  9
$DIMTM
 40
0.01
  9
$DIMGAP
 40
0.625
  9
$DIMDSEP
 70
46
  9
$AUNITS
 70
0
  9
$PDMODE
 70
3
  9
$PDSIZE
 40
0.3125
  9
$HANDSEED
  5
27F
  9
$TILEMODE
 70
1
  9
$MEASUREMENT
 70
1
  9
$INSUNITS
 70
4
  0
ENDSEC
  0
SECTION
  2
CLASSES
  0
CLASS
  1
ACDBDICTIONARYWDFLT
  2
AcDbDictionaryWithDefault
  3
AutoCAD 2000
 90
0
 91
1
280
0
281
0
  0
CLASS
  1
ACDBPLACEHOLDER
  2
AcDbPlaceHolder
  3
AutoCAD 2000
 90
0
 91
1
280
0
281
0
  0
CLASS
  1
LAYOUT
  2
AcDbLayout
  3
AutoCAD 2000
 90
0
 91
0
280
0
281
0
  0
ENDSEC
  0
SECTION
  2
TABLES
  0
TABLE
  2
VPORT
  5
8
100
AcDbSymbolTable
 70
2
  0
VPORT
  5
1F4
100
AcDbSymbolTableRecord
100
AcDbViewportTableRecord
  2
*ACTIVE
 70
0
 10
0.0
 20
0.0
 11
1.0
 21
1.0
 12
48.0104950396
 22
67.9005572704
 13
0.0
 23
0.0
 14
1.0
 24
1.0
 15
0.0
 25
0.0
 16
0.0
 26
0.0
 36
1.0
 17
0.0
 27
0.0
 37
0.0
 40
135.8011145407
 41
0.7070707071
 42
50.0
 43
0.0
 44
0.0
 50
0.0
 51
0.0
 71
0
 72
100
 73
1
 74
1
 75
0
 76
0
 77
0
 78
0
  0
ENDTAB
  0
TABLE
  2
LTYPE
  5
5
100
AcDbSymbolTable
 70
6
  0
LTYPE
  5
14
100
AcDbSymbolTableRecord
100
AcDbLinetypeTableRecord
  2
BYBLOCK
 70
0
  3

 72
65
 73
0
 40
0.0
  0
LTYPE
  5
15
100
AcDbSymbolTableRecord
100
AcDbLinetypeTableRecord
  2
BYLAYER
 70
0
  3

 72
65
 73
0
 40
0.0
  0
LTYPE
  5
16
100
AcDbSymbolTableRecord
100
AcDbLinetypeTableRecord
  2
CONTINUOUS
 70
64
  3
Solid line
 72
65
 73
0
 40
0.0
  0
LTYPE
  5
1F5
100
AcDbSymbolTableRecord
100
AcDbLinetypeTableRecord
  2
CENTER
 70
64
  3
____ _ ____ _ ____ _ ____ _ ____ _ ____ _ ____
 72
65
 73
4
 40
0.6
 49
0.375
 74
0
 49
-0.075
 74
0
 49
0.075
 74
0
 49
-0.075
 74
0
  0
LTYPE
  5
1F6
100
AcDbSymbolTableRecord
100
AcDbLinetypeTableRecord
  2
HIDDEN
 70
64
  3
- - - - - - - - - - - - - - - - - - - -
 72
65
 73
2
 40
0.2
 49
0.1
 74
0
 49
-0.1
 74
0
  0
LTYPE
  5
1F7
100
AcDbSymbolTableRecord
100
AcDbLinetypeTableRecord
  2
PHANTOM
 70
64
  3
_____ _ _ _____ _ _ _____ _ _ _____
 72
65
 73
6
 40
0.8
 49
0.45
 74
0
 49
-0.05
 74
0
 49
0.1
 74
0
 49
-0.05
 74
0
 49
0.1
 74
0
 49
-0.05
 74
0
  0
LTYPE
  5
1F8
100
AcDbSymbolTableRecord
100
AcDbLinetypeTableRecord
  2
DOT
 70
64
  3
. . . . . . . . . . . . . . . . . . . .
 72
65
 73
2
 40
0.2
 49
0.1
 74
0
 49
-0.1
 74
0
  0
LTYPE
  5
1F9
100
AcDbSymbolTableRecord
100
AcDbLinetypeTableRecord
  2
DASHED
 70
64
  3
- - - - - - - - - - - - - - - - - - - -
 72
65
 73
2
 40
0.2
 49
0.1
 74
0
 49
-0.1
 74
0
  0
ENDTAB
  0
TABLE
  2
LAYER
  5
2
100
AcDbSymbolTable
 70
36
  0
LAYER
  5
10
100
AcDbSymbolTableRecord
100
AcDbLayerTableRecord
  2
0
 70
0
 62
7
  6
CONTINUOUS
370
-3
390
F
  0
LAYER
  5
1FA
100
AcDbSymbolTableRecord
100
AcDbLayerTableRecord
  2
DEFAULT_1
 70
0
 62
7
  6
CENTER
370
-3
390
F
  0
LAYER
  5
1FB
100
AcDbSymbolTableRecord
100
AcDbLayerTableRecord
  2
DEFAULT_2
 70
0
 62
7
  6
HIDDEN
370
-3
390
F
  0
LAYER
  5
1FC
100
AcDbSymbolTableRecord
100
AcDbLayerTableRecord
  2
DEFAULT_3
 70
0
 62
7
  6
PHANTOM
370
-3
390
F
  0
LAYER
  5
1FD
100
AcDbSymbolTableRecord
100
AcDbLayerTableRecord
  2
00_COMPONENTS
 70
0
 62
7
  6
CONTINUOUS
370
-3
390
F
  0
LAYER
  5
1FE
100
AcDbSymbolTableRecord
100
AcDbLayerTableRecord
  2
01_1_DEFAULT_DATUMS
 70
0
 62
7
  6
CONTINUOUS
370
-3
390
F
  0
LAYER
  5
1FF
100
AcDbSymbolTableRecord
100
AcDbLayerTableRecord
  2
01_PLANES
 70
0
 62
7
  6
CONTINUOUS
370
-3
390
F
  0
LAYER
  5
200
100
AcDbSymbolTableRecord
100
AcDbLayerTableRecord
  2
02_COORD_SYS
 70
0
 62
7
  6
CONTINUOUS
370
-3
390
F
  0
LAYER
  5
201
100
AcDbSymbolTableRecord
100
AcDbLayerTableRecord
  2
03_AXES
 70
0
 62
7
  6
CONTINUOUS
370
-3
390
F
  0
LAYER
  5
202
100
AcDbSymbolTableRecord
100
AcDbLayerTableRecord
  2
04_POINTS
 70
0
 62
7
  6
CONTINUOUS
370
-3
390
F
  0
LAYER
  5
203
100
AcDbSymbolTableRecord
100
AcDbLayerTableRecord
  2
05_CURVES
 70
0
 62
7
  6
CONTINUOUS
370
-3
390
F
  0
LAYER
  5
204
100
AcDbSymbolTableRecord
100
AcDbLayerTableRecord
  2
06_SURFS
 70
0
 62
7
  6
CONTINUOUS
370
-3
390
F
  0
LAYER
  5
205
100
AcDbSymbolTableRecord
100
AcDbLayerTableRecord
  2
07_COSMETICS
 70
0
 62
7
  6
CONTINUOUS
370
-3
390
F
  0
LAYER
  5
206
100
AcDbSymbolTableRecord
100
AcDbLayerTableRecord
  2
10_NOTES
 70
0
 62
7
  6
CONTINUOUS
370
-3
390
F
  0
LAYER
  5
207
100
AcDbSymbolTableRecord
100
AcDbLayerTableRecord
  2
11_NOTES_PUB
 70
0
 62
7
  6
CONTINUOUS
370
-3
390
F
  0
LAYER
  5
208
100
AcDbSymbolTableRecord
100
AcDbLayerTableRecord
  2
13_REF_GTOL
 70
0
 62
7
  6
CONTINUOUS
370
-3
390
F
  0
LAYER
  5
209
100
AcDbSymbolTableRecord
100
AcDbLayerTableRecord
  2
16_MISC
 70
0
 62
7
  6
CONTINUOUS
370
-3
390
F
  0
LAYER
  5
20A
100
AcDbSymbolTableRecord
100
AcDbLayerTableRecord
  2
17_NO_PRINT
 70
0
 62
7
  6
CONTINUOUS
370
-3
390
F
  0
LAYER
  5
20B
100
AcDbSymbolTableRecord
100
AcDbLayerTableRecord
  2
18_DATUM_CAMS_JOINTS
 70
0
 62
7
  6
CONTINUOUS
370
-3
390
F
  0
LAYER
  5
20C
100
AcDbSymbolTableRecord
100
AcDbLayerTableRecord
  2
19_DATUM_FUNCTIONAL
 70
0
 62
7
  6
CONTINUOUS
370
-3
390
F
  0
LAYER
  5
20D
100
AcDbSymbolTableRecord
100
AcDbLayerTableRecord
  2
20_DATUM_KINEMATIC_SCHEME
 70
0
 62
7
  6
CONTINUOUS
370
-3
390
F
  0
ENDTAB
  0
TABLE
  2
STYLE
  5
3
100
AcDbSymbolTable
 70
1
  0
STYLE
  5
11
100
AcDbSymbolTableRecord
100
AcDbTextStyleTableRecord
  2
STANDARD
 70
0
 40
0.0
 41
1.0
 50
0.0
 71
0
 42
0.2
  3
ARIAL.TTF
  4

  0
STYLE
  5
20E
100
AcDbSymbolTableRecord
100
AcDbTextStyleTableRecord
  2
TEXTSTYLE_1
 70
0
 40
0.0
 41
0.8
 50
0.0
 71
0
 42
0.2
  3
gdt
  4

  0
ENDTAB
  0
TABLE
  2
VIEW
  5
6
100
AcDbSymbolTable
 70
0
  0
ENDTAB
  0
TABLE
  2
UCS
  5
7
100
AcDbSymbolTable
 70
0
  0
ENDTAB
  0
TABLE
  2
APPID
  5
9
100
AcDbSymbolTable
 70
1
  0
APPID
  5
20F
100
AcDbSymbolTableRecord
100
AcDbRegAppTableRecord
  2
ACAD
 70
0
  0
ENDTAB
  0
TABLE
  2
BLOCK_RECORD
  5
1
100
AcDbSymbolTable
 70
0
  0
BLOCK_RECORD
  5
210
100
AcDbSymbolTableRecord
100
AcDbBlockTableRecord
  2
*Model_Space
  0
BLOCK_RECORD
  5
211
100
AcDbSymbolTableRecord
100
AcDbBlockTableRecord
  2
*Paper_Space
  0
BLOCK_RECORD
  5
212
100
AcDbSymbolTableRecord
100
AcDbBlockTableRecord
  2
_FILLED
  0
ENDTAB
  0
TABLE
  2
DIMSTYLE
  5
A
100
AcDbSymbolTable
 70
1
100
AcDbDimStyleTable
 71
0
  0
DIMSTYLE
105
213
100
AcDbSymbolTableRecord
100
AcDbDimStyleTableRecord
  2
STANDARD
 70
0
  3

  4

 40
1.0
 41
1.1431070248
 42
1.0
 43
0.38
 44
1.0
 45
0.0
 46
0.0
 47
0.01
 48
0.01
140
1.6003498347
141
0.09
142
0.0
143
25.4
144
1.0
145
0.0
146
1.0
147
0.625
 71
1
 72
0
 73
0
 74
0
 75
0
 76
0
 77
1
 78
8
 79
2
170
0
171
1
172
0
173
0
174
0
175
0
176
0
177
0
178
0
270
2
179
2
271
2
272
2
273
2
274
2
275
0
280
0
281
0
282
0
283
1
284
8
285
0
286
0
287
3
288
0
340
11
278
46
341
212
342
212
343
212
344
212
  0
ENDTAB
  0
ENDSEC
  0
SECTION
  2
BLOCKS
  0
BLOCK
  5
20
100
AcDbEntity
  8
0
100
AcDbBlockBegin
  2
*Model_Space
 70
0
 10
0.0
 20
0.0
 30
0.0
  3
*Model_Space
  1

  0
ENDBLK
  5
21
100
AcDbEntity
  8
0
100
AcDbBlockEnd
  0
BLOCK
  5
1C
100
AcDbEntity
  8
0
100
AcDbBlockBegin
  2
*Paper_Space
 70
0
 10
0.0
 20
0.0
 30
0.0
  3
*Paper_Space
  1

  0
ENDBLK
  5
1D
100
AcDbEntity
  8
0
100
AcDbBlockEnd
  0
BLOCK
  5
214
100
AcDbEntity
  8
0
100
AcDbBlockBegin
  2
_FILLED
 70
64
 10
0.0
 20
0.0
  3
_FILLED
  1

  0
SOLID
  5
215
100
AcDbEntity
  8
0
  6
BYBLOCK
 62
0
100
AcDbTrace
 10
0.0
 20
0.0
 11
-1.0
 21
0.25
 12
-1.0
 22
-0.25
 13
-1.0
 23
-0.25
  0
ENDBLK
  5
216
100
AcDbEntity
  8
0
  6
BYBLOCK
 62
0
100
AcDbBlockEnd
  0
ENDSEC
  0
SECTION
  2
ENTITIES
  0
LINE
  5
217
100
AcDbEntity
  8
0
100
AcDbLine
 62
7
  6
BYLAYER
 10
54.1449808531
 20
11.219798325
 11
43.5382015706
 21
11.219798325
  0
LINE
  5
218
100
AcDbEntity
  8
0
100
AcDbLine
 62
7
  6
BYLAYER
 10
43.5380620398
 20
12.7446529707
 11
54.1451203839
 21
12.7446529707
  0
LINE
  5
219
100
AcDbEntity
  8
0
100
AcDbLine
 62
7
  6
BYLAYER
 10
54.7406608372
 20
13.1834722521
 11
42.9425215865
 21
13.1834722521
  0
LINE
  5
21A
100
AcDbEntity
  8
0
100
AcDbLine
 62
7
  6
BYLAYER
 10
42.9425215865
 20
19.2837379765
 11
54.7406608372
 21
19.2837379765
  0
LINE
  5
21B
100
AcDbEntity
  8
0
100
AcDbLine
 62
7
  6
BYLAYER
 10
43.2806756321
 20
19.5251732954
 11
54.4025067916
 21
19.5251732954
  0
LINE
  5
21C
100
AcDbEntity
  8
0
100
AcDbLine
 62
7
  6
BYLAYER
 10
59.344016593
 20
21.2313162157
 11
38.3391658308
 21
21.2313162157
  0
LINE
  5
21D
100
AcDbEntity
  8
0
100
AcDbLine
 62
7
  6
BYLAYER
 10
43.5380620398
 20
12.7446529707
 11
42.9425215865
 21
13.1834722521
  0
LINE
  5
21E
100
AcDbEntity
  8
0
100
AcDbLine
 62
7
  6
BYLAYER
 10
59.5019616195
 20
21.7463782294
 11
50.4391202258
 21
21.7463782294
  0
LINE
  5
21F
100
AcDbEntity
  8
0
100
AcDbLine
 62
7
  6
BYLAYER
 10
47.244062198
 20
21.7463782294
 11
38.1812208043
 21
21.7463782294
  0
LINE
  5
220
100
AcDbEntity
  8
0
100
AcDbLine
 62
7
  6
BYLAYER
 10
38.3391548393
 20
21.2313162157
 11
38.176302707
 21
21.3941683481
  0
LINE
  5
221
100
AcDbEntity
  8
0
100
AcDbLine
 62
7
  6
BYLAYER
 10
33.4947741078
 20
120.4262625862
 11
33.5903432854
 21
120.6492573339
  0
LINE
  5
222
100
AcDbEntity
  8
0
100
AcDbLine
 62
7
  6
BYLAYER
 10
44.459202726
 20
32.6098866949
 11
53.2239796977
 21
32.6098866949
  0
LINE
  5
223
100
AcDbEntity
  8
0
100
AcDbLine
 62
7
  6
BYLAYER
 10
54.4026513907
 20
19.5251732954
 11
54.7406608372
 21
19.2837379765
  0
LINE
  5
224
100
AcDbEntity
  8
0
100
AcDbLine
 62
7
  6
BYLAYER
 10
33.6865912119
 20
33.2313162157
 11
33.9885481921
 21
33.2313162157
  0
LINE
  5
225
100
AcDbEntity
  8
0
100
AcDbLine
 62
7
  6
BYLAYER
 10
42.4576936403
 20
33.2313162157
 11
55.2254887834
 21
33.2313162157
  0
LINE
  5
226
100
AcDbEntity
  8
0
100
AcDbLine
 62
7
  6
BYLAYER
 10
63.6946342317
 20
33.2313162157
 11
63.9965912119
 21
33.2313162157
  0
LINE
  5
227
100
AcDbEntity
  8
0
100
AcDbLine
 62
7
  6
BYLAYER
 10
33.9885481921
 20
33.2353162157
 11
63.6946342317
 21
33.2353162157
  0
LINE
  5
228
100
AcDbEntity
  8
0
100
AcDbLine
 62
7
  6
BYLAYER
 10
49.2434058818
 20
33.5289459685
 11
48.439776542
 21
33.5289459685
  0
LINE
  5
229
100
AcDbEntity
  8
0
100
AcDbLine
 62
7
  6
BYLAYER
 10
48.439776542
 20
41.6653162157
 11
49.2434058818
 21
41.6653162157
  0
LINE
  5
22A
100
AcDbEntity
  8
0
100
AcDbLine
 62
7
  6
BYLAYER
 10
34.2415912119
 20
41.7414630941
 11
63.4415912119
 21
41.7414630941
  0
LINE
  5
22B
100
AcDbEntity
  8
0
100
AcDbLine
 62
7
  6
BYLAYER
 10
33.4947741078
 20
41.9390833844
 11
34.2415912119
 21
41.9390833844
  0
LINE
  5
22C
100
AcDbEntity
  8
0
100
AcDbLine
 62
7
  6
BYLAYER
 10
63.4415912119
 20
41.9390833844
 11
64.188408316
 21
41.9390833844
  0
LINE
  5
22D
100
AcDbEntity
  8
0
100
AcDbLine
 62
7
  6
BYLAYER
 10
63.7454477721
 20
41.9551924355
 11
63.4415912119
 21
41.9551924355
  0
LINE
  5
22E
100
AcDbEntity
  8
0
100
AcDbLine
 62
7
  6
BYLAYER
 10
34.2415912119
 20
41.9551924355
 11
33.9377346516
 21
41.9551924355
  0
LINE
  5
22F
100
AcDbEntity
  8
0
100
AcDbLine
 62
7
  6
BYLAYER
 10
33.4947741078
 20
33.7290903
 11
33.4947741078
 21
120.4262625862
  0
LINE
  5
230
100
AcDbEntity
  8
0
100
AcDbLine
 62
7
  6
BYLAYER
 10
33.6865912119
 20
33.2313162157
 11
33.6865912119
 21
33.3382442531
  0
LINE
  5
231
100
AcDbEntity
  8
0
100
AcDbLine
 62
7
  6
BYLAYER
 10
33.9377346516
 20
41.9551924355
 11
33.9377346516
 21
117.5566117646
  0
LINE
  5
232
100
AcDbEntity
  8
0
100
AcDbLine
 62
7
  6
BYLAYER
 10
33.9377346516
 20
117.6832660177
 11
33.9377346516
 21
117.7229270826
  0
LINE
  5
233
100
AcDbEntity
  8
0
100
AcDbLine
 62
7
  6
BYLAYER
 10
34.2415912119
 20
41.7416165151
 11
34.2415912119
 21
41.9551924355
  0
LINE
  5
234
100
AcDbEntity
  8
0
100
AcDbLine
 62
7
  6
BYLAYER
 10
34.2415912119
 20
117.5566117646
 11
34.2415912119
 21
117.6832660177
  0
LINE
  5
235
100
AcDbEntity
  8
0
100
AcDbLine
 62
7
  6
BYLAYER
 10
34.3001331658
 20
33.2353162157
 11
34.3001331658
 21
41.7339124502
  0
LINE
  5
236
100
AcDbEntity
  8
0
100
AcDbLine
 62
7
  6
BYLAYER
 10
34.3001331658
 20
117.7303633121
 11
34.3001331658
 21
120.7836111878
  0
LINE
  5
237
100
AcDbEntity
  8
0
100
AcDbLine
 62
7
  6
BYLAYER
 10
38.1763024102
 20
21.3941470935
 11
38.3415912119
 21
33.2313162157
  0
LINE
  5
238
100
AcDbEntity
  8
0
100
AcDbLine
 62
7
  6
BYLAYER
 10
42.9425215865
 20
13.1834722521
 11
42.9425215865
 21
19.2837379765
  0
LINE
  5
239
100
AcDbEntity
  8
0
100
AcDbLine
 62
7
  6
BYLAYER
 10
43.5380620398
 20
11.219798325
 11
43.5380620398
 21
12.7446529707
  0
LINE
  5
23A
100
AcDbEntity
  8
0
100
AcDbLine
 62
7
  6
BYLAYER
 10
43.5863491036
 20
19.5251732954
 11
43.5863491036
 21
21.2313162157
  0
LINE
  5
23B
100
AcDbEntity
  8
0
100
AcDbLine
 62
7
  6
BYLAYER
 10
48.439776542
 20
33.5289459685
 11
48.439776542
 21
41.6653162157
  0
LINE
  5
23C
100
AcDbEntity
  8
0
100
AcDbLine
 62
7
  6
BYLAYER
 10
48.439776542
 20
117.7979201118
 11
48.439776542
 21
121.6769809023
  0
LINE
  5
23D
100
AcDbEntity
  8
0
100
AcDbLine
 62
7
  6
BYLAYER
 10
49.2434058818
 20
121.6769809023
 11
49.2434058818
 21
117.7979201118
  0
LINE
  5
23E
100
AcDbEntity
  8
0
100
AcDbLine
 62
7
  6
BYLAYER
 10
49.2434058818
 20
41.6653162157
 11
49.2434058818
 21
33.5289459685
  0
LINE
  5
23F
100
AcDbEntity
  8
0
100
AcDbLine
 62
7
  6
BYLAYER
 10
54.0968333201
 20
19.5251732954
 11
54.0968333201
 21
21.2313162157
  0
LINE
  5
240
100
AcDbEntity
  8
0
100
AcDbLine
 62
7
  6
BYLAYER
 10
54.1451203839
 20
11.219798325
 11
54.1451203839
 21
12.7446529707
  0
LINE
  5
241
100
AcDbEntity
  8
0
100
AcDbLine
 62
7
  6
BYLAYER
 10
54.7406608372
 20
13.1834722521
 11
54.7406608372
 21
19.2837379765
  0
LINE
  5
242
100
AcDbEntity
  8
0
100
AcDbLine
 62
7
  6
BYLAYER
 10
59.5068800135
 20
21.3941470935
 11
59.3415912119
 21
33.2313162157
  0
LINE
  5
243
100
AcDbEntity
  8
0
100
AcDbLine
 62
7
  6
BYLAYER
 10
63.3830492579
 20
33.2353162157
 11
63.3830492579
 21
41.7339124502
  0
LINE
  5
244
100
AcDbEntity
  8
0
100
AcDbLine
 62
7
  6
BYLAYER
 10
63.3830492579
 20
117.7303633121
 11
63.3830492579
 21
120.783607449
  0
LINE
  5
245
100
AcDbEntity
  8
0
100
AcDbLine
 62
7
  6
BYLAYER
 10
63.4415912119
 20
117.6832660177
 11
63.4415912119
 21
117.5566117646
  0
LINE
  5
246
100
AcDbEntity
  8
0
100
AcDbLine
 62
7
  6
BYLAYER
 10
63.4415912119
 20
41.9551924355
 11
63.4415912119
 21
41.7416165151
  0
LINE
  5
247
100
AcDbEntity
  8
0
100
AcDbLine
 62
7
  6
BYLAYER
 10
63.7454477721
 20
117.7229270826
 11
63.7454477721
 21
117.6832660177
  0
LINE
  5
248
100
AcDbEntity
  8
0
100
AcDbLine
 62
7
  6
BYLAYER
 10
63.7454477721
 20
117.5566117646
 11
63.7454477721
 21
41.9551924355
  0
LINE
  5
249
100
AcDbEntity
  8
0
100
AcDbLine
 62
7
  6
BYLAYER
 10
63.9965912119
 20
33.3382521137
 11
63.9965912119
 21
33.2313162157
  0
LINE
  5
24A
100
AcDbEntity
  8
0
100
AcDbLine
 62
7
  6
BYLAYER
 10
64.188408316
 20
33.7290903
 11
64.188408316
 21
120.4262625862
  0
LINE
  5
24B
100
AcDbEntity
  8
0
100
AcDbLine
 62
7
  6
BYLAYER
 10
64.0928391384
 20
120.6492573339
 11
64.188408316
 21
120.4262625862
  0
LINE
  5
24C
100
AcDbEntity
  8
0
100
AcDbLine
 62
7
  6
BYLAYER
 10
43.280531033
 20
19.5251732954
 11
42.9425215865
 21
19.2837379765
  0
LINE
  5
24D
100
AcDbEntity
  8
0
100
AcDbLine
 62
7
  6
BYLAYER
 10
59.3440275844
 20
21.2313162157
 11
59.5068797168
 21
21.3941683481
  0
LINE
  5
24E
100
AcDbEntity
  8
0
100
AcDbLine
 62
7
  6
BYLAYER
 10
54.1451203839
 20
12.7446529707
 11
54.7406608372
 21
13.1834722521
  0
LINE
  5
24F
100
AcDbEntity
  8
0
100
AcDbLine
 62
7
  6
BYLAYER
 10
33.9377346516
 20
117.5566117646
 11
34.2415912119
 21
117.5566117646
  0
LINE
  5
250
100
AcDbEntity
  8
0
100
AcDbLine
 62
7
  6
BYLAYER
 10
63.4415912119
 20
117.5566117646
 11
63.7454477721
 21
117.5566117646
  0
LINE
  5
251
100
AcDbEntity
  8
0
100
AcDbLine
 62
7
  6
BYLAYER
 10
63.7454477721
 20
117.6832660177
 11
63.4415912119
 21
117.6832660177
  0
LINE
  5
252
100
AcDbEntity
  8
0
100
AcDbLine
 62
7
  6
BYLAYER
 10
34.2415912119
 20
117.6832660177
 11
33.9377346516
 21
117.6832660177
  0
LINE
  5
253
100
AcDbEntity
  8
0
100
AcDbLine
 62
7
  6
BYLAYER
 10
33.9377346516
 20
117.7229270826
 11
63.7454477721
 21
117.7229270826
  0
LINE
  5
254
100
AcDbEntity
  8
0
100
AcDbLine
 62
7
  6
BYLAYER
 10
48.439776542
 20
117.7979201118
 11
49.2434058818
 21
117.7979201118
  0
LINE
  5
255
100
AcDbEntity
  8
0
100
AcDbLine
 62
7
  6
BYLAYER
 10
48.439776542
 20
121.6769809023
 11
49.2434058818
 21
121.6769809023
  0
LINE
  5
256
100
AcDbEntity
  8
0
100
AcDbLine
 62
7
  6
BYLAYER
 10
53.4355757045
 20
121.9827989729
 11
44.2476067192
 21
121.9827989729
  0
LINE
  5
257
100
AcDbEntity
  8
0
100
AcDbLine
 62
7
  6
BYLAYER
 10
46.4645757784
 20
122.0793731005
 11
51.2186066453
 21
122.0793731005
  0
LINE
  5
258
100
AcDbEntity
  8
0
100
AcDbLine
 62
7
  6
BYLAYER
 10
46.7800810149
 20
122.0881182182
 11
50.9031014089
 21
122.0881182182
  0
ARC
  5
259
100
AcDbEntity
  8
0
100
AcDbCircle
 62
7
  6
BYLAYER
 10
40.276412839
 20
31.0049265615
 40
90.9971096998
100
AcDbArc
 50
87.500833177
 51
87.9167893192
  0
ARC
  5
25A
100
AcDbEntity
  8
0
100
AcDbCircle
 62
7
  6
BYLAYER
 10
57.4058458686
 20
31.0308103111
 40
90.971209479
100
AcDbArc
 50
92.0832218803
 51
92.4992962398
  0
ARC
  5
25B
100
AcDbEntity
  8
0
100
AcDbCircle
 62
7
  6
BYLAYER
 10
48.8415912119
 20
42.0174657341
 40
80.0971860524
100
AcDbArc
 50
91.7005959602
 51
100.9766705603
  0
ARC
  5
25C
100
AcDbEntity
  8
0
100
AcDbCircle
 62
7
  6
BYLAYER
 10
48.8415912119
 20
42.0174657341
 40
80.0971860524
100
AcDbArc
 50
79.0233294397
 51
88.2994040398
  0
ARC
  5
25D
100
AcDbEntity
  8
0
100
AcDbCircle
 62
7
  6
BYLAYER
 10
48.8415912119
 20
42.0174657341
 40
80.0971860524
100
AcDbArc
 50
91.4748193276
 51
91.6024362998
  0
ARC
  5
25E
100
AcDbEntity
  8
0
100
AcDbCircle
 62
7
  6
BYLAYER
 10
48.8415912119
 20
42.0174657341
 40
80.0971860524
100
AcDbArc
 50
88.3975637687
 51
88.5251806724
  0
ARC
  5
25F
100
AcDbEntity
  8
0
100
AcDbCircle
 62
7
  6
BYLAYER
 10
63.2171761616
 20
59.1719665055
 40
17.438842941
100
AcDbArc
 50
270.5449886609
 51
270.7547972178
  0
ARC
  5
260
100
AcDbEntity
  8
0
100
AcDbCircle
 62
7
  6
BYLAYER
 10
34.466006248
 20
59.1719649725
 40
17.438841408
100
AcDbArc
 50
269.2452027866
 51
269.4550113376
  0
ARC
  5
261
100
AcDbEntity
  8
0
100
AcDbCircle
 62
7
  6
BYLAYER
 10
48.8415912119
 20
118.6113162157
 40
5.97
100
AcDbArc
 50
34.1438090086
 51
145.8561909914
  0
ARC
  5
262
100
AcDbEntity
  8
0
100
AcDbCircle
 62
7
  6
BYLAYER
 10
48.8415912119
 20
118.6113162157
 40
5.47
100
AcDbArc
 50
38.2725393675
 51
141.7274606325
  0
ARC
  5
263
100
AcDbEntity
  8
0
100
AcDbCircle
 62
7
  6
BYLAYER
 10
63.6989225922
 20
33.7248019395
 40
0.4895045085
100
AcDbArc
 50
269.4980473144
 51
360.0
  0
ARC
  5
264
100
AcDbEntity
  8
0
100
AcDbCircle
 62
7
  6
BYLAYER
 10
33.9842598315
 20
33.7248019395
 40
0.4895045085
100
AcDbArc
 50
180.0
 51
270.5019526856
  0
SPLINE
  5
265
100
AcDbEntity
  8
0
100
AcDbSpline
 62
7
  6
BYLAYER
 70
0
 71
3
 72
9
 73
5
 74
0
 42
0.0000001
 43
0.0000001
 44
0.0000000001
 40
0.0
 40
0.0
 40
0.0
 40
0.0
 40
0.4999971728
 40
1.0
 40
1.0
 40
1.0
 40
1.0
 10
47.244062198
 20
21.7463782294
 30
0.0
 10
47.5085551631
 20
21.7093077948
 30
0.0
 10
48.0401567244
 20
21.6524153954
 30
0.0
 10
48.5745100274
 20
21.6338715356
 30
0.0
 10
48.8415912119
 20
21.6338715356
 30
0.0
  0
SPLINE
  5
266
100
AcDbEntity
  8
0
100
AcDbSpline
 62
7
  6
BYLAYER
 70
0
 71
3
 72
9
 73
5
 74
0
 42
0.0000001
 43
0.0000001
 44
0.0000000001
 40
0.0
 40
0.0
 40
0.0
 40
0.0
 40
0.5000028272
 40
1.0
 40
1.0
 40
1.0
 40
1.0
 10
48.8415912119
 20
21.6338715356
 30
0.0
 10
49.1086723963
 20
21.6338715356
 30
0.0
 10
49.6430256993
 20
21.6524153954
 30
0.0
 10
50.1746272606
 20
21.7093077948
 30
0.0
 10
50.4391202258
 20
21.7463782294
 30
0.0
  0
SPLINE
  5
267
100
AcDbEntity
  8
0
100
AcDbSpline
 62
7
  6
BYLAYER
 70
0
 71
3
 72
16
 73
12
 74
0
 42
0.0000001
 43
0.0000001
 44
0.0000000001
 40
0.0
 40
0.0
 40
0.0
 40
0.0
 40
0.0625047942
 40
0.1250104987
 40
0.1875128752
 40
0.2500159028
 40
0.3750135453
 40
0.5000120866
 40
0.6250104723
 40
0.7500085334
 40
1.0
 40
1.0
 40
1.0
 40
1.0
 10
50.4391202258
 20
21.7463782294
 30
0.0
 10
50.5404266854
 20
21.957536252
 30
0.0
 10
50.7277364974
 20
22.3872405466
 30
0.0
 10
50.9770854876
 20
23.0442691528
 30
0.0
 10
51.203211453
 20
23.7096052808
 30
0.0
 10
51.4806869427
 20
24.604398074
 30
0.0
 10
51.7920247366
 20
25.7334549263
 30
0.0
 10
52.1263984634
 20
27.0982973476
 30
0.0
 10
52.4315013171
 20
28.4699491842
 30
0.0
 10
52.8078179594
 20
30.305251963
 30
0.0
 10
53.0625932527
 20
31.6871888907
 30
0.0
 10
53.2239796977
 20
32.6098866949
 30
0.0
  0
SPLINE
  5
268
100
AcDbEntity
  8
0
100
AcDbSpline
 62
7
  6
BYLAYER
 70
0
 71
3
 72
16
 73
12
 74
0
 42
0.0000001
 43
0.0000001
 44
0.0000000001
 40
0.0
 40
0.0
 40
0.0
 40
0.0
 40
0.0625047943
 40
0.1250104988
 40
0.1875128753
 40
0.2500159028
 40
0.3750135453
 40
0.5000120866
 40
0.6250104723
 40
0.7500085334
 40
1.0
 40
1.0
 40
1.0
 40
1.0
 10
47.244062198
 20
21.7463782294
 30
0.0
 10
47.1427557383
 20
21.9575362521
 30
0.0
 10
46.9554459258
 20
22.3872405466
 30
0.0
 10
46.7060969361
 20
23.0442691532
 30
0.0
 10
46.4799709708
 20
23.7096052812
 30
0.0
 10
46.2024954809
 20
24.6043980742
 30
0.0
 10
45.8911576871
 20
25.7334549263
 30
0.0
 10
45.5567839604
 20
27.0982973475
 30
0.0
 10
45.2516811066
 20
28.4699491841
 30
0.0
 10
44.8753644643
 20
30.3052519628
 30
0.0
 10
44.6205891711
 20
31.6871888907
 30
0.0
 10
44.459202726
 20
32.6098866949
 30
0.0
  0
SPLINE
  5
269
100
AcDbEntity
  8
0
100
AcDbSpline
 62
7
  6
BYLAYER
 70
0
 71
3
 72
28
 73
24
 74
0
 42
0.0000001
 43
0.0000001
 44
0.0000000001
 40
0.0
 40
0.0
 40
0.0
 40
0.0
 40
0.0078210323
 40
0.0156463445
 40
0.0234604892
 40
0.0312851786
 40
0.0469260142
 40
0.0625680666
 40
0.0782096093
 40
0.0938510221
 40
0.1251331539
 40
0.1564142534
 40
0.1876941565
 40
0.2189726948
 40
0.2502497068
 40
0.3127984624
 40
0.3753390533
 40
0.4378701822
 40
0.5003905178
 40
0.6253930988
 40
0.7503361099
 40
0.8752087271
 40
1.0
 40
1.0
 40
1.0
 40
1.0
 10
48.4366907203
 20
33.5289459685
 30
0.0
 10
48.422067046
 20
33.5234868231
 30
0.0
 10
48.3906119315
 20
33.5197942636
 30
0.0
 10
48.3442669867
 20
33.5145022893
 30
0.0
 10
48.2975961542
 20
33.5100751928
 30
0.0
 10
48.2353965427
 20
33.5049133536
 30
0.0
 10
48.1575732295
 20
33.4988375595
 30
0.0
 10
48.0641647471
 20
33.49210379
 30
0.0
 10
47.970732997
 20
33.4856424666
 30
0.0
 10
47.8461416312
 20
33.4773213668
 30
0.0
 10
47.6903851131
 20
33.4672292518
 30
0.0
 10
47.5034621366
 20
33.4554357859
 30
0.0
 10
47.3165307592
 20
33.4438915885
 30
0.0
 10
47.1295951915
 20
33.4325497135
 30
0.0
 10
46.8803514423
 20
33.4176863998
 30
0.0
 10
46.5687980449
 20
33.3995586422
 30
0.0
 10
46.1949311436
 20
33.3785238577
 30
0.0
 10
45.8210753255
 20
33.3583156167
 30
0.0
 10
45.3226735167
 20
33.3325981932
 30
0.0
 10
44.6997452125
 20
33.3029853454
 30
0.0
 10
43.9522805628
 20
33.2726501638
 30
0.0
 10
43.2049970134
 20
33.2488955809
 30
0.0
 10
42.7068002108
 20
33.2386336031
 30
0.0
 10
42.4577605678
 20
33.2353162157
 30
0.0
  0
SPLINE
  5
26A
100
AcDbEntity
  8
0
100
AcDbSpline
 62
7
  6
BYLAYER
 70
0
 71
3
 72
28
 73
24
 74
0
 42
0.0000001
 43
0.0000001
 44
0.0000000001
 40
0.0
 40
0.0
 40
0.0
 40
0.0
 40
0.1247912994
 40
0.249663936
 40
0.3746069631
 40
0.499609558
 40
0.5621299003
 40
0.6246610355
 40
0.6872016327
 40
0.7497503946
 40
0.7810274097
 40
0.8123059512
 40
0.8435858574
 40
0.8748669601
 40
0.9061490956
 40
0.9217905075
 40
0.9374320588
 40
0.9530740968
 40
0.9687149297
 40
0.9765395616
 40
0.9843539903
 40
0.9921788698
 40
1.0
 40
1.0
 40
1.0
 40
1.0
 10
55.2254221073
 20
33.2353162157
 30
0.0
 10
54.9763820212
 20
33.2386336076
 30
0.0
 10
54.4781843458
 20
33.2488955825
 30
0.0
 10
53.7308995025
 20
33.2726502323
 30
0.0
 10
52.9834335834
 20
33.302985475
 30
0.0
 10
52.3605042346
 20
33.3325984644
 30
0.0
 10
51.8621015886
 20
33.3583158773
 30
0.0
 10
51.4882451492
 20
33.3785242121
 30
0.0
 10
51.1143776229
 20
33.3995590041
 30
0.0
 10
50.8028237085
 20
33.4176868356
 30
0.0
 10
50.5535795438
 20
33.4325501746
 30
0.0
 10
50.366643664
 20
33.4438920621
 30
0.0
 10
50.179711976
 20
33.4554363039
 30
0.0
 10
49.992788692
 20
33.4672298623
 30
0.0
 10
49.8370318935
 20
33.4773216515
 30
0.0
 10
49.712440358
 20
33.4856434386
 30
0.0
 10
49.6190084002
 20
33.4921037965
 30
0.0
 10
49.5255999468
 20
33.498839458
 30
0.0
 10
49.4477763573
 20
33.5049120335
 30
0.0
 10
49.3855767756
 20
33.5100798685
 30
0.0
 10
49.3389051738
 20
33.5144963961
 30
0.0
 10
49.2925619587
 20
33.5198022938
 30
0.0
 10
49.261106104
 20
33.5234867461
 30
0.0
 10
49.2464822237
 20
33.5289459685
 30
0.0
  0
SPLINE
  5
26B
100
AcDbEntity
  8
0
100
AcDbSpline
 62
7
  6
BYLAYER
 70
0
 71
3
 72
9
 73
5
 74
0
 42
0.0000001
 43
0.0000001
 44
0.0000000001
 40
0.0
 40
0.0
 40
0.0
 40
0.0
 40
0.5001992444
 40
1.0
 40
1.0
 40
1.0
 40
1.0
 10
49.2434058818
 20
121.6769809023
 30
0.0
 10
49.9426973981
 20
121.7207165098
 30
0.0
 10
51.34058596
 20
121.8102728355
 30
0.0
 10
52.7394166667
 20
121.8850328419
 30
0.0
 10
53.4388537733
 20
121.9154840894
 30
0.0
  0
SPLINE
  5
26C
100
AcDbEntity
  8
0
100
AcDbSpline
 62
7
  6
BYLAYER
 70
0
 71
3
 72
9
 73
5
 74
0
 42
0.0000001
 43
0.0000001
 44
0.0000000001
 40
0.0
 40
0.0
 40
0.0
 40
0.0
 40
0.4998007567
 40
1.0
 40
1.0
 40
1.0
 40
1.0
 10
44.2443290241
 20
121.915484886
 30
0.0
 10
44.9437661421
 20
121.8850350839
 30
0.0
 10
46.3425967436
 20
121.8102746031
 30
0.0
 10
47.74048508
 20
121.7207165064
 30
0.0
 10
48.439776542
 20
121.6769809023
 30
0.0
  0
SPLINE
  5
26D
100
AcDbEntity
  8
0
100
AcDbSpline
 62
7
  6
BYLAYER
 70
0
 71
3
 72
18
 73
14
 74
0
 42
0.0000001
 43
0.0000001
 44
0.0000000001
 40
0.0
 40
0.0
 40
0.0
 40
0.0
 40
0.0076385017
 40
0.0227564288
 40
0.046195744
 40
0.0780426654
 40
0.1182279819
 40
0.1664872439
 40
0.2858009254
 40
0.432974736
 40
0.6041808009
 40
0.7950926677
 40
1.0
 40
1.0
 40
1.0
 40
1.0
 10
64.188408316
 20
41.7838050366
 30
0.0
 10
64.1881660045
 20
41.7819210012
 30
0.0
 10
64.1826981736
 20
41.7781482015
 30
0.0
 10
64.1723065609
 20
41.774763301
 30
0.0
 10
64.1549630362
 20
41.7706889616
 30
0.0
 10
64.1316403615
 20
41.7668865247
 30
0.0
 10
64.1019248525
 20
41.7630466176
 30
0.0
 10
64.0505475963
 20
41.7577535028
 30
0.0
 10
63.9724741702
 20
41.7518514123
 30
0.0
 10
63.8637913633
 20
41.7459137262
 30
0.0
 10
63.737232584
 20
41.7409155551
 30
0.0
 10
63.5962753452
 20
41.7370373378
 30
0.0
 10
63.4978557702
 20
41.7353084464
 30
0.0
 10
63.4469035434
 20
41.7346367658
 30
0.0
  0
SPLINE
  5
26E
100
AcDbEntity
  8
0
100
AcDbSpline
 62
7
  6
BYLAYER
 70
0
 71
3
 72
18
 73
14
 74
0
 42
0.0000001
 43
0.0000001
 44
0.0000000001
 40
0.0
 40
0.0
 40
0.0
 40
0.0
 40
0.2049073339
 40
0.3958192007
 40
0.5670252606
 40
0.7141990668
 40
0.8335127507
 40
0.881772015
 40
0.9219573331
 40
0.9538042553
 40
0.977243571
 40
0.9923614983
 40
1.0
 40
1.0
 40
1.0
 40
1.0
 10
34.2362788878
 20
41.7346367657
 30
0.0
 10
34.1853266601
 20
41.7353084464
 30
0.0
 10
34.0869070837
 20
41.7370373377
 30
0.0
 10
33.9459498443
 20
41.7409155549
 30
0.0
 10
33.819391066
 20
41.7459137258
 30
0.0
 10
33.7107082598
 20
41.7518514119
 30
0.0
 10
33.6326348329
 20
41.7577535025
 30
0.0
 10
33.5812575746
 20
41.7630466172
 30
0.0
 10
33.5515420642
 20
41.7668865244
 30
0.0
 10
33.5282193885
 20
41.7706889614
 30
0.0
 10
33.5108758632
 20
41.7747633009
 30
0.0
 10
33.5004842503
 20
41.7781482014
 30
0.0
 10
33.4950164192
 20
41.7819210012
 30
0.0
 10
33.4947741078
 20
41.7838050366
 30
0.0
  0
ELLIPSE
  5
26F
100
AcDbEntity
  8
0
100
AcDbEllipse
 62
7
  6
BYLAYER
 10
48.8415912119
 20
34.0965339286
 30
0.0
 11
11.4497881749
 21
0.0
 31
0.0
 40
0.1405425363
 41
-1.1780268875
 42
-0.5676776361
  0
ELLIPSE
  5
270
100
AcDbEntity
  8
0
100
AcDbEllipse
 62
7
  6
BYLAYER
 10
48.8415912119
 20
34.0965339286
 30
0.0
 11
11.4497881749
 21
0.0
 31
0.0
 40
0.1405425363
 41
-2.5739150175
 42
-1.9635657661
  0
ELLIPSE
  5
271
100
AcDbEntity
  8
0
100
AcDbEllipse
 62
7
  6
BYLAYER
 10
34.4770786799
 20
41.9992471538
 30
0.0
 11
0.9823265297
 21
-0.0
 31
0.0
 40
0.0536585366
 41
-3.1349064497
 42
-2.1520206241
  0
ELLIPSE
  5
272
100
AcDbEntity
  8
0
100
AcDbEllipse
 62
7
  6
BYLAYER
 10
34.4770786799
 20
117.5120986456
 30
0.0
 11
0.9823265297
 21
0.0
 31
0.0
 40
0.0542168675
 41
2.1520206241
 42
3.1349064497
  0
ELLIPSE
  5
273
100
AcDbEntity
  8
0
100
AcDbEllipse
 62
7
  6
BYLAYER
 10
63.2061037439
 20
41.9992471538
 30
0.0
 11
0.9823265297
 21
0.0
 31
0.0
 40
0.0536585366
 41
-0.9895720295
 42
-0.0066862039
  0
ELLIPSE
  5
274
100
AcDbEntity
  8
0
100
AcDbEllipse
 62
7
  6
BYLAYER
 10
63.2061037439
 20
117.5120986456
 30
0.0
 11
0.9823265297
 21
0.0
 31
0.0
 40
0.0542168675
 41
0.0066862039
 42
0.9895720295
  0
ELLIPSE
  5
275
100
AcDbEntity
  8
0
100
AcDbEllipse
 62
7
  6
BYLAYER
 10
63.2061037439
 20
117.6450306159
 30
0.0
 11
0.9823265297
 21
0.0
 31
0.0
 40
0.0465706236
 41
6.2898715111
 42
7.2727573366
  0
ELLIPSE
  5
276
100
AcDbEntity
  8
0
100
AcDbEllipse
 62
7
  6
BYLAYER
 10
48.8415912119
 20
113.6646969707
 30
0.0
 11
80.7280144746
 21
0.0
 31
0.0
 40
0.0512
 41
1.5757737356
 42
1.7519139408
  0
ELLIPSE
  5
277
100
AcDbEntity
  8
0
100
AcDbEllipse
 62
7
  6
BYLAYER
 10
48.8415912119
 20
113.6646969707
 30
0.0
 11
80.7280144746
 21
0.0
 31
0.0
 40
0.0512
 41
1.3896787128
 42
1.565818918
  0
ELLIPSE
  5
278
100
AcDbEntity
  8
0
100
AcDbEllipse
 62
7
  6
BYLAYER
 10
63.2061037439
 20
117.6808908714
 30
0.0
 11
0.9823265297
 21
-0.0
 31
0.0
 40
0.0512
 41
7.2727573366
 42
7.6728640199
  0
ELLIPSE
  5
279
100
AcDbEntity
  8
0
100
AcDbEllipse
 62
7
  6
BYLAYER
 10
34.4770786799
 20
117.6808908714
 30
0.0
 11
0.9823265297
 21
0.0
 31
0.0
 40
0.0512
 41
8.035099248
 42
8.4352059313
  0
ELLIPSE
  5
27A
100
AcDbEntity
  8
0
100
AcDbEllipse
 62
7
  6
BYLAYER
 10
34.4770786799
 20
117.6450306159
 30
0.0
 11
0.9823265297
 21
0.0
 31
0.0
 40
0.0465706236
 41
8.4352059313
 42
9.4180917569
  0
ELLIPSE
  5
27B
100
AcDbEntity
  8
0
100
AcDbEllipse
 62
7
  6
BYLAYER
 10
48.8415912119
 20
45.862133482
 30
0.0
 11
80.7280144746
 21
-0.0
 31
0.0
 40
0.0519877676
 41
-1.565818918
 42
-1.3896787128
  0
ELLIPSE
  5
27C
100
AcDbEntity
  8
0
100
AcDbEllipse
 62
7
  6
BYLAYER
 10
48.8415912119
 20
45.862133482
 30
0.0
 11
80.7280144746
 21
0.0
 31
0.0
 40
0.0519877676
 41
-1.7519139408
 42
-1.5757737356
  0
ENDSEC
  0
SECTION
  2
OBJECTS
  0
DICTIONARY
  5
C
100
AcDbDictionary
280
0
281
1
  3
ACAD_GROUP
350
D
  3
ACAD_MLINESTYLE
350
17
  3
ACAD_LAYOUT
350
1A
  3
ACAD_PLOTSETTINGS
350
19
  3
ACAD_PLOTSTYLENAME
350
E
  0
DICTIONARY
  5
D
102
{ACAD_REACTORS
330
C
102
}
100
AcDbDictionary
280
0
281
1
  0
ACDBDICTIONARYWDFLT
  5
E
102
{ACAD_REACTORS
330
C
102
}
100
AcDbDictionary
281
1
  3
Normal
350
F
100
AcDbDictionaryWithDefault
340
F
  0
DICTIONARY
  5
17
102
{ACAD_REACTORS
330
C
102
}
100
AcDbDictionary
280
0
281
1
  3
Standard
350
18
  0
DICTIONARY
  5
19
102
{ACAD_REACTORS
330
C
102
}
100
AcDbDictionary
281
1
  0
DICTIONARY
  5
1A
102
{ACAD_REACTORS
330
C
102
}
100
AcDbDictionary
281
1
  3
Model
350
27D
  3
Layout1
350
27E
  0
ACDBPLACEHOLDER
  5
F
102
{ACAD_REACTORS
330
E
102
}
  0
MLINESTYLE
  5
18
102
{ACAD_REACTORS
330
17
102
}
100
AcDbMlineStyle
  2
STANDARD
 70
0
  3

 62
256
 51
90.0
 52
90.0
 71
2
 49
0.5
 62
256
  6
BYLAYER
 49
-0.5
 62
256
  6
BYLAYER
  0
LAYOUT
  5
27D
102
{ACAD_REACTORS
330
1A
102
}
100
AcDbPlotSettings
  1

  2
none_device
  4

  6

 40
0.0
 41
0.0
 42
0.0
 43
0.0
 44
210.0
 45
297.0
 46
0.0
 47
0.0
 48
0.0
 49
0.0
140
0.0
141
0.0
142
1.0
143
1.0
 70
1024
 72
1
 73
0
 74
0
  7

 75
0
147
1.0
148
0.0
149
0.0
100
AcDbLayout
  1
Model
 70
0
 71
0
 10
0.0
 20
0.0
 11
210.0
 21
297.0
 12
0.0
 22
0.0
 32
0.0
 14
0.0
 24
0.0
 34
0.0
 15
0.0
 25
0.0
 35
0.0
146
0.0
 13
0.0
 23
0.0
 33
0.0
 16
1.0
 26
0.0
 36
0.0
 17
0.0
 27
1.0
 37
0.0
 76
0
330
210
345
0
346
0
  0
LAYOUT
  5
27E
102
{ACAD_REACTORS
330
1A
102
}
100
AcDbPlotSettings
  1

  2
none_device
  4

  6

 40
0.0
 41
0.0
 42
0.0
 43
0.0
 44
210.0
 45
297.0
 46
0.0
 47
0.0
 48
0.0
 49
0.0
140
0.0
141
0.0
142
1.0
143
1.0
 70
0
 72
1
 73
0
 74
0
  7

 75
0
147
1.0
148
0.0
149
0.0
100
AcDbLayout
  1
Layout1
 70
0
 71
1
 10
0.0
 20
0.0
 11
210.0
 21
297.0
 12
0.0
 22
0.0
 32
0.0
 14
0.0
 24
0.0
 34
0.0
 15
0.0
 25
0.0
 35
0.0
146
0.0
 13
0.0
 23
0.0
 33
0.0
 16
1.0
 26
0.0
 36
0.0
 17
0.0
 27
1.0
 37
0.0
 76
0
330
211
345
0
346
0
  0
ENDSEC
  0
EOF
