999
DXF file: C:\Users\sesa63760\Dev\_Creo\CAD\MCADID0003635_3D-CAD\drw0001_4.dxf
999
Pro/ENGINEER 2019471 by Parametric Technology Corporation
  0
SECTION
  2
HEADER
  9
$ACADVER
  1
AC1024
  9
$DWGCODEPAGE
  3
ANSI_1252
  9
$EXTMAX
 10
78.3396192137
 20
110.7946043165
 30
0.0
  9
$EXTMIN
 10
0.0
 20
0.0
 30
0.0
  9
$LIMMIN
 10
0.0
 20
0.0
  9
$LIMMAX
 10
78.3396192137
 20
110.7946043165
  9
$VIEWCTR
 10
39.1698096069
 20
55.3973021583
  9
$VIEWSIZE
 40
110.7946043165
  9
$CLAYER
  8
0
  9
$LTSCALE
 40
7.2221667999
  9
$CELTYPE
  6
BYLAYER
  9
$DIMSCALE
 40
1.0
  9
$DIMASZ
 40
0.9326145144
  9
$DIMEXO
 40
1.0
  9
$DIMDLI
 40
4.9898606981
  9
$DIMEXE
 40
1.0
  9
$DIMCEN
 40
1.1818091127
  9
$DIMLFAC
 40
1.0
  9
$DIMBLK
  1
_FILLED
  9
$DIMALT
 70
0
  9
$DIMALTF
 40
0.0393700787
  9
$DIMTXT
 40
1.3056603202
  9
$DIMTOL
 70
1
  9
$DIMLIM
 70
0
  9
$DIMTFAC
 40
1.0
  9
$DIMTP
 40
0.01
  9
$DIMTM
 40
0.01
  9
$DIMGAP
 40
0.625
  9
$DIMDSEP
 70
46
  9
$AUNITS
 70
0
  9
$PDMODE
 70
3
  9
$PDSIZE
 40
0.3125
  9
$HANDSEED
  5
278
  9
$TILEMODE
 70
1
  9
$MEASUREMENT
 70
1
  9
$INSUNITS
 70
4
  0
ENDSEC
  0
SECTION
  2
CLASSES
  0
CLASS
  1
ACDBDICTIONARYWDFLT
  2
AcDbDictionaryWithDefault
  3
AutoCAD 2000
 90
0
 91
1
280
0
281
0
  0
CLASS
  1
ACDBPLACEHOLDER
  2
AcDbPlaceHolder
  3
AutoCAD 2000
 90
0
 91
1
280
0
281
0
  0
CLASS
  1
LAYOUT
  2
AcDbLayout
  3
AutoCAD 2000
 90
0
 91
0
280
0
281
0
  0
ENDSEC
  0
SECTION
  2
TABLES
  0
TABLE
  2
VPORT
  5
8
100
AcDbSymbolTable
 70
2
  0
VPORT
  5
1F4
100
AcDbSymbolTableRecord
100
AcDbViewportTableRecord
  2
*ACTIVE
 70
0
 10
0.0
 20
0.0
 11
1.0
 21
1.0
 12
39.1698096069
 22
55.3973021583
 13
0.0
 23
0.0
 14
1.0
 24
1.0
 15
0.0
 25
0.0
 16
0.0
 26
0.0
 36
1.0
 17
0.0
 27
0.0
 37
0.0
 40
110.7946043165
 41
0.7070707071
 42
50.0
 43
0.0
 44
0.0
 50
0.0
 51
0.0
 71
0
 72
100
 73
1
 74
1
 75
0
 76
0
 77
0
 78
0
  0
ENDTAB
  0
TABLE
  2
LTYPE
  5
5
100
AcDbSymbolTable
 70
6
  0
LTYPE
  5
14
100
AcDbSymbolTableRecord
100
AcDbLinetypeTableRecord
  2
BYBLOCK
 70
0
  3

 72
65
 73
0
 40
0.0
  0
LTYPE
  5
15
100
AcDbSymbolTableRecord
100
AcDbLinetypeTableRecord
  2
BYLAYER
 70
0
  3

 72
65
 73
0
 40
0.0
  0
LTYPE
  5
16
100
AcDbSymbolTableRecord
100
AcDbLinetypeTableRecord
  2
CONTINUOUS
 70
64
  3
Solid line
 72
65
 73
0
 40
0.0
  0
LTYPE
  5
1F5
100
AcDbSymbolTableRecord
100
AcDbLinetypeTableRecord
  2
CENTER
 70
64
  3
____ _ ____ _ ____ _ ____ _ ____ _ ____ _ ____
 72
65
 73
4
 40
0.6
 49
0.375
 74
0
 49
-0.075
 74
0
 49
0.075
 74
0
 49
-0.075
 74
0
  0
LTYPE
  5
1F6
100
AcDbSymbolTableRecord
100
AcDbLinetypeTableRecord
  2
HIDDEN
 70
64
  3
- - - - - - - - - - - - - - - - - - - -
 72
65
 73
2
 40
0.2
 49
0.1
 74
0
 49
-0.1
 74
0
  0
LTYPE
  5
1F7
100
AcDbSymbolTableRecord
100
AcDbLinetypeTableRecord
  2
PHANTOM
 70
64
  3
_____ _ _ _____ _ _ _____ _ _ _____
 72
65
 73
6
 40
0.8
 49
0.45
 74
0
 49
-0.05
 74
0
 49
0.1
 74
0
 49
-0.05
 74
0
 49
0.1
 74
0
 49
-0.05
 74
0
  0
LTYPE
  5
1F8
100
AcDbSymbolTableRecord
100
AcDbLinetypeTableRecord
  2
DOT
 70
64
  3
. . . . . . . . . . . . . . . . . . . .
 72
65
 73
2
 40
0.2
 49
0.1
 74
0
 49
-0.1
 74
0
  0
LTYPE
  5
1F9
100
AcDbSymbolTableRecord
100
AcDbLinetypeTableRecord
  2
DASHED
 70
64
  3
- - - - - - - - - - - - - - - - - - - -
 72
65
 73
2
 40
0.2
 49
0.1
 74
0
 49
-0.1
 74
0
  0
ENDTAB
  0
TABLE
  2
LAYER
  5
2
100
AcDbSymbolTable
 70
36
  0
LAYER
  5
10
100
AcDbSymbolTableRecord
100
AcDbLayerTableRecord
  2
0
 70
0
 62
7
  6
CONTINUOUS
370
-3
390
F
  0
LAYER
  5
1FA
100
AcDbSymbolTableRecord
100
AcDbLayerTableRecord
  2
DEFAULT_1
 70
0
 62
7
  6
CENTER
370
-3
390
F
  0
LAYER
  5
1FB
100
AcDbSymbolTableRecord
100
AcDbLayerTableRecord
  2
DEFAULT_2
 70
0
 62
7
  6
HIDDEN
370
-3
390
F
  0
LAYER
  5
1FC
100
AcDbSymbolTableRecord
100
AcDbLayerTableRecord
  2
DEFAULT_3
 70
0
 62
7
  6
PHANTOM
370
-3
390
F
  0
LAYER
  5
1FD
100
AcDbSymbolTableRecord
100
AcDbLayerTableRecord
  2
00_COMPONENTS
 70
0
 62
7
  6
CONTINUOUS
370
-3
390
F
  0
LAYER
  5
1FE
100
AcDbSymbolTableRecord
100
AcDbLayerTableRecord
  2
01_1_DEFAULT_DATUMS
 70
0
 62
7
  6
CONTINUOUS
370
-3
390
F
  0
LAYER
  5
1FF
100
AcDbSymbolTableRecord
100
AcDbLayerTableRecord
  2
01_PLANES
 70
0
 62
7
  6
CONTINUOUS
370
-3
390
F
  0
LAYER
  5
200
100
AcDbSymbolTableRecord
100
AcDbLayerTableRecord
  2
02_COORD_SYS
 70
0
 62
7
  6
CONTINUOUS
370
-3
390
F
  0
LAYER
  5
201
100
AcDbSymbolTableRecord
100
AcDbLayerTableRecord
  2
03_AXES
 70
0
 62
7
  6
CONTINUOUS
370
-3
390
F
  0
LAYER
  5
202
100
AcDbSymbolTableRecord
100
AcDbLayerTableRecord
  2
04_POINTS
 70
0
 62
7
  6
CONTINUOUS
370
-3
390
F
  0
LAYER
  5
203
100
AcDbSymbolTableRecord
100
AcDbLayerTableRecord
  2
05_CURVES
 70
0
 62
7
  6
CONTINUOUS
370
-3
390
F
  0
LAYER
  5
204
100
AcDbSymbolTableRecord
100
AcDbLayerTableRecord
  2
06_SURFS
 70
0
 62
7
  6
CONTINUOUS
370
-3
390
F
  0
LAYER
  5
205
100
AcDbSymbolTableRecord
100
AcDbLayerTableRecord
  2
07_COSMETICS
 70
0
 62
7
  6
CONTINUOUS
370
-3
390
F
  0
LAYER
  5
206
100
AcDbSymbolTableRecord
100
AcDbLayerTableRecord
  2
10_NOTES
 70
0
 62
7
  6
CONTINUOUS
370
-3
390
F
  0
LAYER
  5
207
100
AcDbSymbolTableRecord
100
AcDbLayerTableRecord
  2
11_NOTES_PUB
 70
0
 62
7
  6
CONTINUOUS
370
-3
390
F
  0
LAYER
  5
208
100
AcDbSymbolTableRecord
100
AcDbLayerTableRecord
  2
13_REF_GTOL
 70
0
 62
7
  6
CONTINUOUS
370
-3
390
F
  0
LAYER
  5
209
100
AcDbSymbolTableRecord
100
AcDbLayerTableRecord
  2
16_MISC
 70
0
 62
7
  6
CONTINUOUS
370
-3
390
F
  0
LAYER
  5
20A
100
AcDbSymbolTableRecord
100
AcDbLayerTableRecord
  2
17_NO_PRINT
 70
0
 62
7
  6
CONTINUOUS
370
-3
390
F
  0
LAYER
  5
20B
100
AcDbSymbolTableRecord
100
AcDbLayerTableRecord
  2
18_DATUM_CAMS_JOINTS
 70
0
 62
7
  6
CONTINUOUS
370
-3
390
F
  0
LAYER
  5
20C
100
AcDbSymbolTableRecord
100
AcDbLayerTableRecord
  2
19_DATUM_FUNCTIONAL
 70
0
 62
7
  6
CONTINUOUS
370
-3
390
F
  0
LAYER
  5
20D
100
AcDbSymbolTableRecord
100
AcDbLayerTableRecord
  2
20_DATUM_KINEMATIC_SCHEME
 70
0
 62
7
  6
CONTINUOUS
370
-3
390
F
  0
ENDTAB
  0
TABLE
  2
STYLE
  5
3
100
AcDbSymbolTable
 70
1
  0
STYLE
  5
11
100
AcDbSymbolTableRecord
100
AcDbTextStyleTableRecord
  2
STANDARD
 70
0
 40
0.0
 41
1.0
 50
0.0
 71
0
 42
0.2
  3
ARIAL.TTF
  4

  0
STYLE
  5
20E
100
AcDbSymbolTableRecord
100
AcDbTextStyleTableRecord
  2
TEXTSTYLE_1
 70
0
 40
0.0
 41
0.8
 50
0.0
 71
0
 42
0.2
  3
gdt
  4

  0
ENDTAB
  0
TABLE
  2
VIEW
  5
6
100
AcDbSymbolTable
 70
0
  0
ENDTAB
  0
TABLE
  2
UCS
  5
7
100
AcDbSymbolTable
 70
0
  0
ENDTAB
  0
TABLE
  2
APPID
  5
9
100
AcDbSymbolTable
 70
1
  0
APPID
  5
20F
100
AcDbSymbolTableRecord
100
AcDbRegAppTableRecord
  2
ACAD
 70
0
  0
ENDTAB
  0
TABLE
  2
BLOCK_RECORD
  5
1
100
AcDbSymbolTable
 70
0
  0
BLOCK_RECORD
  5
210
100
AcDbSymbolTableRecord
100
AcDbBlockTableRecord
  2
*Model_Space
  0
BLOCK_RECORD
  5
211
100
AcDbSymbolTableRecord
100
AcDbBlockTableRecord
  2
*Paper_Space
  0
BLOCK_RECORD
  5
212
100
AcDbSymbolTableRecord
100
AcDbBlockTableRecord
  2
_FILLED
  0
ENDTAB
  0
TABLE
  2
DIMSTYLE
  5
A
100
AcDbSymbolTable
 70
1
100
AcDbDimStyleTable
 71
0
  0
DIMSTYLE
105
213
100
AcDbSymbolTableRecord
100
AcDbDimStyleTableRecord
  2
STANDARD
 70
0
  3

  4

 40
1.0
 41
0.9326145144
 42
1.0
 43
0.38
 44
1.0
 45
0.0
 46
0.0
 47
0.01
 48
0.01
140
1.3056603202
141
0.09
142
0.0
143
25.4
144
1.0
145
0.0
146
1.0
147
0.625
 71
1
 72
0
 73
0
 74
0
 75
0
 76
0
 77
1
 78
8
 79
2
170
0
171
1
172
0
173
0
174
0
175
0
176
0
177
0
178
0
270
2
179
2
271
2
272
2
273
2
274
2
275
0
280
0
281
0
282
0
283
1
284
8
285
0
286
0
287
3
288
0
340
11
278
46
341
212
342
212
343
212
344
212
  0
ENDTAB
  0
ENDSEC
  0
SECTION
  2
BLOCKS
  0
BLOCK
  5
20
100
AcDbEntity
  8
0
100
AcDbBlockBegin
  2
*Model_Space
 70
0
 10
0.0
 20
0.0
 30
0.0
  3
*Model_Space
  1

  0
ENDBLK
  5
21
100
AcDbEntity
  8
0
100
AcDbBlockEnd
  0
BLOCK
  5
1C
100
AcDbEntity
  8
0
100
AcDbBlockBegin
  2
*Paper_Space
 70
0
 10
0.0
 20
0.0
 30
0.0
  3
*Paper_Space
  1

  0
ENDBLK
  5
1D
100
AcDbEntity
  8
0
100
AcDbBlockEnd
  0
BLOCK
  5
214
100
AcDbEntity
  8
0
100
AcDbBlockBegin
  2
_FILLED
 70
64
 10
0.0
 20
0.0
  3
_FILLED
  1

  0
SOLID
  5
215
100
AcDbEntity
  8
0
  6
BYBLOCK
 62
0
100
AcDbTrace
 10
0.0
 20
0.0
 11
-1.0
 21
0.25
 12
-1.0
 22
-0.25
 13
-1.0
 23
-0.25
  0
ENDBLK
  5
216
100
AcDbEntity
  8
0
  6
BYBLOCK
 62
0
100
AcDbBlockEnd
  0
ENDSEC
  0
SECTION
  2
ENTITIES
  0
LINE
  5
217
100
AcDbEntity
  8
0
100
AcDbLine
 62
7
  6
BYLAYER
 10
50.455754925
 20
7.9332733813
 11
28.455939237
 21
7.9332733813
  0
LINE
  5
218
100
AcDbEntity
  8
0
100
AcDbLine
 62
7
  6
BYLAYER
 10
53.3209105905
 20
8.5332733813
 11
25.255847081
 21
8.5332733813
  0
LINE
  5
219
100
AcDbEntity
  8
0
100
AcDbLine
 62
7
  6
BYLAYER
 10
48.655847081
 20
12.2832733813
 11
51.155847081
 21
12.2832733813
  0
LINE
  5
21A
100
AcDbEntity
  8
0
100
AcDbLine
 62
7
  6
BYLAYER
 10
54.955847081
 20
14.6832733813
 11
54.2255716752
 21
14.6832733813
  0
LINE
  5
21B
100
AcDbEntity
  8
0
100
AcDbLine
 62
7
  6
BYLAYER
 10
24.955847081
 20
19.0332733813
 11
25.255847081
 21
19.0332733813
  0
LINE
  5
21C
100
AcDbEntity
  8
0
100
AcDbLine
 62
7
  6
BYLAYER
 10
53.5558462734
 20
101.5503549285
 11
53.5440522439
 21
101.5432263072
  0
LINE
  5
21D
100
AcDbEntity
  8
0
100
AcDbLine
 62
7
  6
BYLAYER
 10
25.255847081
 20
27.0332733813
 11
24.955847081
 21
27.0332733813
  0
LINE
  5
21E
100
AcDbEntity
  8
0
100
AcDbLine
 62
7
  6
BYLAYER
 10
24.955847081
 20
19.0332733813
 11
24.955847081
 21
27.0332733813
  0
LINE
  5
21F
100
AcDbEntity
  8
0
100
AcDbLine
 62
7
  6
BYLAYER
 10
24.955847081
 20
54.6332733813
 11
24.955847081
 21
101.6832733813
  0
LINE
  5
220
100
AcDbEntity
  8
0
100
AcDbLine
 62
7
  6
BYLAYER
 10
25.255847081
 20
8.5332733813
 11
25.255847081
 21
55.4332733813
  0
LINE
  5
221
100
AcDbEntity
  8
0
100
AcDbLine
 62
7
  6
BYLAYER
 10
25.455847081
 20
72.6832733813
 11
25.455847081
 21
102.1832733813
  0
LINE
  5
222
100
AcDbEntity
  8
0
100
AcDbLine
 62
7
  6
BYLAYER
 10
28.455847081
 20
8.5332733813
 11
28.455847081
 21
7.9332733813
  0
LINE
  5
223
100
AcDbEntity
  8
0
100
AcDbLine
 62
7
  6
BYLAYER
 10
24.955847081
 20
54.6332733813
 11
25.255847081
 21
54.6332733813
  0
LINE
  5
224
100
AcDbEntity
  8
0
100
AcDbLine
 62
7
  6
BYLAYER
 10
25.255847081
 20
55.4332733813
 11
24.955847081
 21
55.4332733813
  0
LINE
  5
225
100
AcDbEntity
  8
0
100
AcDbLine
 62
7
  6
BYLAYER
 10
54.2255716752
 20
55.8677515207
 11
54.955847081
 21
55.8677515207
  0
LINE
  5
226
100
AcDbEntity
  8
0
100
AcDbLine
 62
7
  6
BYLAYER
 10
50.255847081
 20
56.1332733813
 11
51.155847081
 21
56.1332733813
  0
LINE
  5
227
100
AcDbEntity
  8
0
100
AcDbLine
 62
7
  6
BYLAYER
 10
51.155847081
 20
56.9332733813
 11
50.255847081
 21
56.9332733813
  0
LINE
  5
228
100
AcDbEntity
  8
0
100
AcDbLine
 62
7
  6
BYLAYER
 10
54.2255716753
 20
55.86775152
 11
51.155847081
 21
56.1363176228
  0
LINE
  5
229
100
AcDbEntity
  8
0
100
AcDbLine
 62
7
  6
BYLAYER
 10
51.155847081
 20
56.9332733813
 11
54.2255716753
 21
56.6647072792
  0
LINE
  5
22A
100
AcDbEntity
  8
0
100
AcDbLine
 62
7
  6
BYLAYER
 10
54.955847081
 20
60.4921122294
 11
55.0215592088
 21
60.4921122294
  0
LINE
  5
22B
100
AcDbEntity
  8
0
100
AcDbLine
 62
7
  6
BYLAYER
 10
54.955847081
 20
61.0332733813
 11
50.255847081
 21
61.0332733813
  0
LINE
  5
22C
100
AcDbEntity
  8
0
100
AcDbLine
 62
7
  6
BYLAYER
 10
47.655847081
 20
11.2832733813
 11
47.655847081
 21
8.5332733813
  0
LINE
  5
22D
100
AcDbEntity
  8
0
100
AcDbLine
 62
7
  6
BYLAYER
 10
49.4199486962
 20
102.1832733813
 11
49.4199486962
 21
99.1832733813
  0
LINE
  5
22E
100
AcDbEntity
  8
0
100
AcDbLine
 62
7
  6
BYLAYER
 10
49.955847081
 20
99.6832733813
 11
49.955847081
 21
101.6832733813
  0
LINE
  5
22F
100
AcDbEntity
  8
0
100
AcDbLine
 62
7
  6
BYLAYER
 10
50.255847081
 20
56.1332733813
 11
50.255847081
 21
69.6332733813
  0
LINE
  5
230
100
AcDbEntity
  8
0
100
AcDbLine
 62
7
  6
BYLAYER
 10
50.455847081
 20
8.5332733813
 11
50.455847081
 21
7.9332733813
  0
LINE
  5
231
100
AcDbEntity
  8
0
100
AcDbLine
 62
7
  6
BYLAYER
 10
55.4179447946
 20
62.4832733813
 11
55.2541362466
 21
62.4832733813
  0
LINE
  5
232
100
AcDbEntity
  8
0
100
AcDbLine
 62
7
  6
BYLAYER
 10
55.2541362466
 20
63.5832733813
 11
55.4179447946
 21
63.5832733813
  0
LINE
  5
233
100
AcDbEntity
  8
0
100
AcDbLine
 62
7
  6
BYLAYER
 10
50.255847081
 20
65.0332733813
 11
51.155847081
 21
65.0332733813
  0
LINE
  5
234
100
AcDbEntity
  8
0
100
AcDbLine
 62
7
  6
BYLAYER
 10
51.155847081
 20
12.2832733813
 11
51.155847081
 21
69.1332733813
  0
LINE
  5
235
100
AcDbEntity
  8
0
100
AcDbLine
 62
7
  6
BYLAYER
 10
51.655847081
 20
101.0832733813
 11
51.655847081
 21
101.81370847
  0
LINE
  5
236
100
AcDbEntity
  8
0
100
AcDbLine
 62
7
  6
BYLAYER
 10
52.255847081
 20
101.81370847
 11
52.255847081
 21
101.0832733813
  0
LINE
  5
237
100
AcDbEntity
  8
0
100
AcDbLine
 62
7
  6
BYLAYER
 10
55.0215592088
 20
65.5744345332
 11
54.955847081
 21
65.5744345332
  0
LINE
  5
238
100
AcDbEntity
  8
0
100
AcDbLine
 62
7
  6
BYLAYER
 10
54.2255716752
 20
67.9677515207
 11
54.955847081
 21
67.9677515207
  0
LINE
  5
239
100
AcDbEntity
  8
0
100
AcDbLine
 62
7
  6
BYLAYER
 10
54.0465594794
 20
101.2776195372
 11
54.04649111
 21
101.6832733813
  0
LINE
  5
23A
100
AcDbEntity
  8
0
100
AcDbLine
 62
7
  6
BYLAYER
 10
54.2255716753
 20
67.96775152
 11
54.2255716499
 21
56.6647072814
  0
LINE
  5
23B
100
AcDbEntity
  8
0
100
AcDbLine
 62
7
  6
BYLAYER
 10
54.2255716753
 20
55.86775152
 11
54.2255716752
 21
14.6832733813
  0
LINE
  5
23C
100
AcDbEntity
  8
0
100
AcDbLine
 62
7
  6
BYLAYER
 10
54.455847081
 20
99.6832733813
 11
54.455847081
 21
69.1332733813
  0
LINE
  5
23D
100
AcDbEntity
  8
0
100
AcDbLine
 62
7
  6
BYLAYER
 10
54.605847081
 20
99.6832733813
 11
54.605847081
 21
100.8832733813
  0
LINE
  5
23E
100
AcDbEntity
  8
0
100
AcDbLine
 62
7
  6
BYLAYER
 10
54.955847081
 20
14.6832733813
 11
54.955847081
 21
67.9677515207
  0
LINE
  5
23F
100
AcDbEntity
  8
0
100
AcDbLine
 62
7
  6
BYLAYER
 10
54.955847081
 20
69.6332733813
 11
54.955847081
 21
101.6832733813
  0
LINE
  5
240
100
AcDbEntity
  8
0
100
AcDbLine
 62
7
  6
BYLAYER
 10
55.0215592088
 20
65.5744345332
 11
55.0215592088
 21
60.4921122294
  0
LINE
  5
241
100
AcDbEntity
  8
0
100
AcDbLine
 62
7
  6
BYLAYER
 10
50.255847081
 20
69.1332733813
 11
54.455847081
 21
69.1332733813
  0
LINE
  5
242
100
AcDbEntity
  8
0
100
AcDbLine
 62
7
  6
BYLAYER
 10
54.955847081
 20
69.6332733813
 11
50.255847081
 21
69.6332733813
  0
LINE
  5
243
100
AcDbEntity
  8
0
100
AcDbLine
 62
7
  6
BYLAYER
 10
54.2255716753
 20
67.96775152
 11
51.155847081
 21
68.2363176228
  0
LINE
  5
244
100
AcDbEntity
  8
0
100
AcDbLine
 62
7
  6
BYLAYER
 10
51.155847081
 20
69.0332733813
 11
54.2255716753
 21
68.7647072792
  0
LINE
  5
245
100
AcDbEntity
  8
0
100
AcDbLine
 62
7
  6
BYLAYER
 10
24.955847081
 20
72.6832733813
 11
54.955847081
 21
72.6832733813
  0
LINE
  5
246
100
AcDbEntity
  8
0
100
AcDbLine
 62
7
  6
BYLAYER
 10
53.6396658211
 20
11.3604361626
 11
54.2255716752
 21
14.6832733813
  0
LINE
  5
247
100
AcDbEntity
  8
0
100
AcDbLine
 62
7
  6
BYLAYER
 10
54.9436932834
 20
14.5443548392
 11
54.3577874294
 21
11.221517621
  0
LINE
  5
248
100
AcDbEntity
  8
0
100
AcDbLine
 62
7
  6
BYLAYER
 10
52.0921389006
 20
8.8549783835
 11
51.906402431
 21
8.5332733813
  0
LINE
  5
249
100
AcDbEntity
  8
0
100
AcDbLine
 62
7
  6
BYLAYER
 10
47.7901196794
 20
8.5332733813
 11
49.5479833802
 21
10.2911370821
  0
LINE
  5
24A
100
AcDbEntity
  8
0
100
AcDbLine
 62
7
  6
BYLAYER
 10
49.4199486962
 20
99.1832733813
 11
54.955847081
 21
99.1832733813
  0
LINE
  5
24B
100
AcDbEntity
  8
0
100
AcDbLine
 62
7
  6
BYLAYER
 10
54.6058419954
 20
99.6832733813
 11
49.9546433612
 21
99.6832733813
  0
LINE
  5
24C
100
AcDbEntity
  8
0
100
AcDbLine
 62
7
  6
BYLAYER
 10
49.955847081
 20
100.8832733813
 11
54.605847081
 21
100.8832733813
  0
LINE
  5
24D
100
AcDbEntity
  8
0
100
AcDbLine
 62
7
  6
BYLAYER
 10
51.655847081
 20
101.0832733813
 11
52.255847081
 21
101.0832733813
  0
LINE
  5
24E
100
AcDbEntity
  8
0
100
AcDbLine
 62
7
  6
BYLAYER
 10
24.955847081
 20
101.6832733813
 11
50.7477492663
 21
101.6832733813
  0
LINE
  5
24F
100
AcDbEntity
  8
0
100
AcDbLine
 62
7
  6
BYLAYER
 10
51.655847081
 20
101.6832733813
 11
52.255847081
 21
101.6832733813
  0
LINE
  5
250
100
AcDbEntity
  8
0
100
AcDbLine
 62
7
  6
BYLAYER
 10
53.1618786205
 20
101.6832733813
 11
54.955847081
 21
101.6832733813
  0
LINE
  5
251
100
AcDbEntity
  8
0
100
AcDbLine
 62
7
  6
BYLAYER
 10
52.6364682857
 20
101.81370847
 11
52.255847081
 21
101.81370847
  0
LINE
  5
252
100
AcDbEntity
  8
0
100
AcDbLine
 62
7
  6
BYLAYER
 10
51.655847081
 20
101.81370847
 11
51.2752258764
 21
101.81370847
  0
LINE
  5
253
100
AcDbEntity
  8
0
100
AcDbLine
 62
7
  6
BYLAYER
 10
25.455847081
 20
102.1832733813
 11
49.4558171104
 21
102.1832733813
  0
LINE
  5
254
100
AcDbEntity
  8
0
100
AcDbLine
 62
7
  6
BYLAYER
 10
49.4915070015
 20
102.1832733813
 11
54.455847081
 21
102.1832733813
  0
LINE
  5
255
100
AcDbEntity
  8
0
100
AcDbLine
 62
7
  6
BYLAYER
 10
50.3676419182
 20
101.5432263072
 11
50.3558478482
 21
101.550354953
  0
ARC
  5
256
100
AcDbEntity
  8
0
100
AcDbCircle
 62
7
  6
BYLAYER
 10
45.7517148257
 20
63.0332733813
 40
9.5183251079
100
AcDbArc
 50
356.6874170516
 51
3.3125829484
  0
ARC
  5
257
100
AcDbEntity
  8
0
100
AcDbCircle
 62
7
  6
BYLAYER
 10
47.455847081
 20
63.0332733813
 40
7.9810713567
100
AcDbArc
 50
341.4338994033
 51
356.0484409787
  0
ARC
  5
258
100
AcDbEntity
  8
0
100
AcDbCircle
 62
7
  6
BYLAYER
 10
47.455847081
 20
63.0332733813
 40
7.9810713567
100
AcDbArc
 50
3.9515590213
 51
18.5661005967
  0
ARC
  5
259
100
AcDbEntity
  8
0
100
AcDbCircle
 62
7
  6
BYLAYER
 10
51.955847081
 20
97.8720233813
 40
4.01125
100
AcDbArc
 50
48.6511525664
 51
66.491934765
  0
ARC
  5
25A
100
AcDbEntity
  8
0
100
AcDbCircle
 62
7
  6
BYLAYER
 10
51.955847081
 20
97.8720233813
 40
4.01125
100
AcDbArc
 50
113.5080652562
 51
119.9435129232
  0
ARC
  5
25B
100
AcDbEntity
  8
0
100
AcDbCircle
 62
7
  6
BYLAYER
 10
51.955847081
 20
97.8720233813
 40
4.0000158203
100
AcDbArc
 50
99.7968095851
 51
113.3938713325
  0
ARC
  5
25C
100
AcDbEntity
  8
0
100
AcDbCircle
 62
7
  6
BYLAYER
 10
51.955847081
 20
97.8720233813
 40
4.0000158203
100
AcDbArc
 50
66.6061286675
 51
80.2031904149
  0
ARC
  5
25D
100
AcDbEntity
  8
0
100
AcDbCircle
 62
7
  6
BYLAYER
 10
51.4033641702
 20
11.7424621534
 40
3.0
100
AcDbArc
 50
256.6041133284
 51
350.0000000053
  0
ARC
  5
25E
100
AcDbEntity
  8
0
100
AcDbCircle
 62
7
  6
BYLAYER
 10
51.155847081
 20
10.2832733813
 40
3.0
100
AcDbArc
 50
330.0000000001
 51
360.0
  0
ARC
  5
25F
100
AcDbEntity
  8
0
100
AcDbCircle
 62
7
  6
BYLAYER
 10
50.4254509016
 20
12.4741736536
 40
1.6000626914
100
AcDbArc
 50
287.7297026702
 51
62.8397742425
  0
ARC
  5
260
100
AcDbEntity
  8
0
100
AcDbCircle
 62
7
  6
BYLAYER
 10
51.055847081
 20
10.2832733813
 40
1.5
100
AcDbArc
 50
107.718591944
 51
256.6041129307
  0
ARC
  5
261
100
AcDbEntity
  8
0
100
AcDbCircle
 62
7
  6
BYLAYER
 10
48.655847081
 20
11.2832733813
 40
1.0
100
AcDbArc
 50
90.0
 51
180.0
  0
ARC
  5
262
100
AcDbEntity
  8
0
100
AcDbCircle
 62
7
  6
BYLAYER
 10
54.155847081
 20
67.9677515207
 40
0.8
100
AcDbArc
 50
0.0
 51
85.0
  0
ARC
  5
263
100
AcDbEntity
  8
0
100
AcDbCircle
 62
7
  6
BYLAYER
 10
54.155847081
 20
55.8677515207
 40
0.8
100
AcDbArc
 50
0.0000000007
 51
85.0
  0
ARC
  5
264
100
AcDbEntity
  8
0
100
AcDbCircle
 62
7
  6
BYLAYER
 10
54.155847081
 20
14.6832733813
 40
0.8
100
AcDbArc
 50
349.9999999999
 51
360.0
  0
ARC
  5
265
100
AcDbEntity
  8
0
100
AcDbCircle
 62
7
  6
BYLAYER
 10
50.355847081
 20
12.4741636113
 40
0.8
100
AcDbArc
 50
287.7195692403
 51
345.4272098882
  0
ARC
  5
266
100
AcDbEntity
  8
0
100
AcDbCircle
 62
7
  6
BYLAYER
 10
49.455847081
 20
101.6832733813
 40
0.5
100
AcDbArc
 50
0.0000000002
 51
90.0
  0
ARC
  5
267
100
AcDbEntity
  8
0
100
AcDbCircle
 62
7
  6
BYLAYER
 10
25.455847081
 20
101.6832733813
 40
0.5
100
AcDbArc
 50
90.0
 51
180.0
  0
ARC
  5
268
100
AcDbEntity
  8
0
100
AcDbCircle
 62
7
  6
BYLAYER
 10
54.455847081
 20
101.6832733813
 40
0.5
100
AcDbArc
 50
0.0000000005
 51
90.0
  0
ARC
  5
269
100
AcDbEntity
  8
0
100
AcDbCircle
 62
7
  6
BYLAYER
 10
54.455847081
 20
99.1832733813
 40
0.5
100
AcDbArc
 50
0.0
 51
90.0
  0
ARC
  5
26A
100
AcDbEntity
  8
0
100
AcDbCircle
 62
7
  6
BYLAYER
 10
54.455847081
 20
69.6332733813
 40
0.5
100
AcDbArc
 50
270.0
 51
360.0
  0
ARC
  5
26B
100
AcDbEntity
  8
0
100
AcDbCircle
 62
7
  6
BYLAYER
 10
53.3209105905
 20
9.0332733813
 40
0.5
100
AcDbArc
 50
270.0
 51
330.0000000004
  0
SPLINE
  5
26C
100
AcDbEntity
  8
0
100
AcDbSpline
 62
7
  6
BYLAYER
 70
0
 71
3
 72
19
 73
15
 74
0
 42
0.0000001
 43
0.0000001
 44
0.0000000001
 40
0.0
 40
0.0
 40
0.0
 40
0.0
 40
0.0096685734
 40
0.0169296442
 40
0.0261890054
 40
0.0510680295
 40
0.0846316895
 40
0.1267149879
 40
0.1769850115
 40
0.3004053351
 40
0.450335379
 40
0.6212777502
 40
0.8070328132
 40
1.0
 40
1.0
 40
1.0
 40
1.0
 10
54.2255789806
 20
56.66470664
 30
0.0
 10
54.2281592672
 20
56.6644808942
 30
0.0
 10
54.2320017449
 20
56.6609264648
 30
0.0
 10
54.2352523684
 20
56.6548624809
 30
0.0
 10
54.2392950879
 20
56.6444396199
 30
0.0
 10
54.2433369174
 20
56.6267381977
 30
0.0
 10
54.2472290157
 20
56.6000682378
 30
0.0
 10
54.2502802781
 20
56.5664648977
 30
0.0
 10
54.2534560436
 20
56.5087391125
 30
0.0
 10
54.2546452748
 20
56.4220215066
 30
0.0
 10
54.2525715811
 20
56.3030068771
 30
0.0
 10
54.2469460625
 20
56.1673895709
 30
0.0
 10
54.23797705
 20
56.0204044882
 30
0.0
 10
54.2300504907
 20
55.9192516812
 30
0.0
 10
54.2255789807
 20
55.8677508815
 30
0.0
  0
SPLINE
  5
26D
100
AcDbEntity
  8
0
100
AcDbSpline
 62
7
  6
BYLAYER
 70
0
 71
3
 72
23
 73
19
 74
0
 42
0.0000001
 43
0.0000001
 44
0.0000000001
 40
0.0
 40
0.0
 40
0.0
 40
0.0
 40
0.1995625557
 40
0.3891556948
 40
0.5619009766
 40
0.6401651817
 40
0.7121052988
 40
0.7770927309
 40
0.8345845462
 40
0.8840890711
 40
0.9251887146
 40
0.9575359161
 40
0.9703397686
 40
0.9808616667
 40
0.9890837082
 40
0.9949925189
 40
0.9985956604
 40
1.0
 40
1.0
 40
1.0
 40
1.0
 10
54.2255716752
 20
14.6832733813
 30
0.0
 10
54.2734978926
 20
14.6747580123
 30
0.0
 10
54.3669330103
 20
14.6580222911
 30
0.0
 10
54.5017711304
 20
14.6334557681
 30
0.0
 10
54.607435209
 20
14.6138310405
 30
0.0
 10
54.684835608
 20
14.5991887992
 30
0.0
 10
54.7363850098
 20
14.5893013271
 30
0.0
 10
54.7829312683
 20
14.5802267027
 30
0.0
 10
54.8240748753
 20
14.5720440792
 30
0.0
 10
54.8594713835
 20
14.5648247159
 30
0.0
 10
54.8888103009
 20
14.5586326595
 30
0.0
 10
54.9093636953
 20
14.5540854285
 30
0.0
 10
54.9225631024
 20
14.5509699543
 30
0.0
 10
54.9300665204
 20
14.5491000673
 30
0.0
 10
54.9357764828
 20
14.547550979
 30
0.0
 10
54.9401348785
 20
14.5462486461
 30
0.0
 10
54.942233397
 20
14.5453873291
 30
0.0
 10
54.9437527713
 20
14.5446921774
 30
0.0
 10
54.9436932834
 20
14.5443548392
 30
0.0
  0
SPLINE
  5
26E
100
AcDbEntity
  8
0
100
AcDbSpline
 62
7
  6
BYLAYER
 70
0
 71
3
 72
15
 73
11
 74
0
 42
0.0000001
 43
0.0000001
 44
0.0000000001
 40
0.0
 40
0.0
 40
0.0
 40
0.0
 40
0.1249607745
 40
0.2498998017
 40
0.3749408957
 40
0.5000232109
 40
0.62509972
 40
0.7501282271
 40
0.8750512554
 40
1.0
 40
1.0
 40
1.0
 40
1.0
 10
50.9127110126
 20
10.9501142733
 30
0.0
 10
50.8408650844
 20
10.9271676016
 30
0.0
 10
50.704007705
 20
10.8567792825
 30
0.0
 10
50.5423518661
 20
10.692918342
 30
0.0
 10
50.4430594263
 20
10.4849971386
 30
0.0
 10
50.4133030659
 20
10.2564452534
 30
0.0
 10
50.4601635594
 20
10.0307861451
 30
0.0
 10
50.5748018198
 20
9.8309410192
 30
0.0
 10
50.7482953634
 20
9.6797089962
 30
0.0
 10
50.89003988
 20
9.6198121397
 30
0.0
 10
50.9633997845
 20
9.6023302533
 30
0.0
  0
SPLINE
  5
26F
100
AcDbEntity
  8
0
100
AcDbSpline
 62
7
  6
BYLAYER
 70
0
 71
3
 72
15
 73
11
 74
0
 42
0.0000001
 43
0.0000001
 44
0.0000000001
 40
0.0
 40
0.0
 40
0.0
 40
0.0
 40
0.1248632407
 40
0.2497428698
 40
0.3746318848
 40
0.4995602316
 40
0.6245586157
 40
0.749639571
 40
0.8748145033
 40
1.0
 40
1.0
 40
1.0
 40
1.0
 10
50.9634014648
 20
9.6023373828
 30
0.0
 10
51.1083479153
 20
9.5678419233
 30
0.0
 10
51.4061894282
 20
9.5285845608
 30
0.0
 10
51.8550709586
 20
9.5602497412
 30
0.0
 10
52.2882711287
 20
9.6829744917
 30
0.0
 10
52.6882026575
 20
9.8900216534
 30
0.0
 10
53.0376081185
 20
10.1745199421
 30
0.0
 10
53.3231048566
 20
10.5235620356
 30
0.0
 10
53.5311354625
 20
10.9236964763
 30
0.0
 10
53.6136876339
 20
11.2133332243
 30
0.0
 10
53.6396524628
 20
11.3604385384
 30
0.0
  0
SPLINE
  5
270
100
AcDbEntity
  8
0
100
AcDbSpline
 62
7
  6
BYLAYER
 70
0
 71
3
 72
19
 73
15
 74
0
 42
0.0000001
 43
0.0000001
 44
0.0000000001
 40
0.0
 40
0.0
 40
0.0
 40
0.0
 40
0.0086442652
 40
0.0152174145
 40
0.0237265451
 40
0.0472156756
 40
0.0801072947
 40
0.1229021218
 40
0.1751998365
 40
0.3056958288
 40
0.4650621026
 40
0.6417694515
 40
0.8235175726
 40
1.0
 40
1.0
 40
1.0
 40
1.0
 10
50.7083323106
 20
8.8240967734
 30
0.0
 10
50.7106462167
 20
8.8235455408
 30
0.0
 10
50.7150575323
 20
8.8254570977
 30
0.0
 10
50.719769508
 20
8.8298064239
 30
0.0
 10
50.7266514441
 20
8.8379955293
 30
0.0
 10
50.735960217
 20
8.8532648938
 30
0.0
 10
50.7481966878
 20
8.8776828381
 30
0.0
 10
50.7621410716
 20
8.9100349401
 30
0.0
 10
50.7846780495
 20
8.9678839513
 30
0.0
 10
50.8152198432
 20
9.0569821845
 30
0.0
 10
50.8528688
 20
9.179735928
 30
0.0
 10
50.8915701867
 20
9.3168812142
 30
0.0
 10
50.9288089832
 20
9.4593001107
 30
0.0
 10
50.9522271331
 20
9.5550576526
 30
0.0
 10
50.9633972427
 20
9.6023185711
 30
0.0
  0
SPLINE
  5
271
100
AcDbEntity
  8
0
100
AcDbSpline
 62
7
  6
BYLAYER
 70
0
 71
3
 72
19
 73
15
 74
0
 42
0.0000001
 43
0.0000001
 44
0.0000000001
 40
0.0
 40
0.0
 40
0.0
 40
0.0
 40
0.1913836933
 40
0.3765963196
 40
0.5477220941
 40
0.6982704702
 40
0.8224615245
 40
0.8730894745
 40
0.9154743549
 40
0.9492521542
 40
0.9742234469
 40
0.983468944
 40
0.990664219
 40
1.0
 40
1.0
 40
1.0
 40
1.0
 10
50.9127230914
 20
10.9501111743
 30
0.0
 10
50.8967228107
 20
11.0006057707
 30
0.0
 10
50.8644155147
 20
11.0997083985
 30
0.0
 10
50.8150209852
 20
11.2430349276
 30
0.0
 10
50.7668258243
 20
11.3747990111
 30
0.0
 10
50.721781459
 20
11.4896957722
 30
0.0
 10
50.6864358707
 20
11.5725506816
 30
0.0
 10
50.6607000815
 20
11.6268885052
 30
0.0
 10
50.6446176625
 20
11.6580855583
 30
0.0
 10
50.6305113776
 20
11.6822919943
 30
0.0
 10
50.6198395936
 20
11.6978007355
 30
0.0
 10
50.6120208611
 20
11.706319874
 30
0.0
 10
50.6067423891
 20
11.7108693556
 30
0.0
 10
50.6018058862
 20
11.7128992022
 30
0.0
 10
50.5993446321
 20
11.7121127473
 30
0.0
  0
SPLINE
  5
272
100
AcDbEntity
  8
0
100
AcDbSpline
 62
7
  6
BYLAYER
 70
0
 71
3
 72
23
 73
19
 74
0
 42
0.0000001
 43
0.0000001
 44
0.0000000001
 40
0.0
 40
0.0
 40
0.0
 40
0.0
 40
0.0012774547
 40
0.0045583892
 40
0.010006569
 40
0.0176950529
 40
0.027685029
 40
0.0400343656
 40
0.0720366167
 40
0.1139718046
 40
0.1653971115
 40
0.2256910929
 40
0.2942316273
 40
0.3702650732
 40
0.4525130023
 40
0.6300132766
 40
0.8157594378
 40
1.0
 40
1.0
 40
1.0
 40
1.0
 10
54.3577739301
 20
11.2215200002
 30
0.0
 10
54.357828055
 20
11.2218268514
 30
0.0
 10
54.3564740554
 20
11.2224883524
 30
0.0
 10
54.3545385302
 20
11.2232862783
 30
0.0
 10
54.3505202778
 20
11.2245205678
 30
0.0
 10
54.3451660247
 20
11.2259931441
 30
0.0
 10
54.3380308257
 20
11.2277952436
 30
0.0
 10
54.3251532525
 20
11.2308630411
 30
0.0
 10
54.3045962546
 20
11.2354326519
 30
0.0
 10
54.274683795
 20
11.241752418
 30
0.0
 10
54.2379599387
 20
11.2492453055
 30
0.0
 10
54.1948369502
 20
11.2578200939
 30
0.0
 10
54.145788336
 20
11.2673734556
 30
0.0
 10
54.0914499644
 20
11.277774598
 30
0.0
 10
54.010969539
 20
11.2929662593
 30
0.0
 10
53.9041281322
 20
11.3127754124
 30
0.0
 10
53.7727441518
 20
11.3366721254
 30
0.0
 10
53.6839115633
 20
11.3525747222
 30
0.0
 10
53.6396658218
 20
11.3604361669
 30
0.0
  0
SPLINE
  5
273
100
AcDbEntity
  8
0
100
AcDbSpline
 62
7
  6
BYLAYER
 70
0
 71
3
 72
19
 73
15
 74
0
 42
0.0000001
 43
0.0000001
 44
0.0000000001
 40
0.0
 40
0.0
 40
0.0
 40
0.0
 40
0.0096685734
 40
0.0169296442
 40
0.0261890054
 40
0.0510680295
 40
0.0846316895
 40
0.1267149879
 40
0.1769850115
 40
0.3004053351
 40
0.450335379
 40
0.6212777502
 40
0.8070328132
 40
1.0
 40
1.0
 40
1.0
 40
1.0
 10
54.2255789806
 20
68.76470664
 30
0.0
 10
54.2281592672
 20
68.7644808942
 30
0.0
 10
54.2320017449
 20
68.7609264648
 30
0.0
 10
54.2352523684
 20
68.7548624809
 30
0.0
 10
54.2392950879
 20
68.7444396199
 30
0.0
 10
54.2433369174
 20
68.7267381977
 30
0.0
 10
54.2472290157
 20
68.7000682378
 30
0.0
 10
54.2502802781
 20
68.6664648977
 30
0.0
 10
54.2534560436
 20
68.6087391125
 30
0.0
 10
54.2546452748
 20
68.5220215066
 30
0.0
 10
54.2525715811
 20
68.4030068771
 30
0.0
 10
54.2469460625
 20
68.2673895709
 30
0.0
 10
54.23797705
 20
68.1204044882
 30
0.0
 10
54.2300504907
 20
68.0192516812
 30
0.0
 10
54.2255789807
 20
67.9677508815
 30
0.0
  0
SPLINE
  5
274
100
AcDbEntity
  8
0
100
AcDbSpline
 62
7
  6
BYLAYER
 70
0
 71
3
 72
13
 73
9
 74
0
 42
0.0000001
 43
0.0000001
 44
0.0000000001
 40
0.0
 40
0.0
 40
0.0
 40
0.0
 40
0.1024560747
 40
0.2090278253
 40
0.3224033785
 40
0.444244284
 40
0.7114502849
 40
1.0
 40
1.0
 40
1.0
 40
1.0
 10
54.3949317815
 20
102.1832733813
 30
0.0
 10
54.3720658472
 20
102.1832733813
 30
0.0
 10
54.3251822203
 20
102.1764748323
 30
0.0
 10
54.2586882518
 20
102.1470213283
 30
0.0
 10
54.1980082132
 20
102.0996797473
 30
0.0
 10
54.1256636553
 20
102.0131218025
 30
0.0
 10
54.0629629348
 20
101.8723214291
 30
0.0
 10
54.04649111
 20
101.7476713083
 30
0.0
 10
54.04649111
 20
101.6832733813
 30
0.0
  0
SPLINE
  5
275
100
AcDbEntity
  8
0
100
AcDbSpline
 62
7
  6
BYLAYER
 70
0
 71
3
 72
22
 73
18
 74
0
 42
0.0000001
 43
0.0000001
 44
0.0000000001
 40
0.0
 40
0.0
 40
0.0
 40
0.0
 40
0.0041585597
 40
0.0114598361
 40
0.0219048322
 40
0.035387154
 40
0.0517669121
 40
0.0708446432
 40
0.1162032378
 40
0.1696857563
 40
0.2297970819
 40
0.295278399
 40
0.3650313129
 40
0.514156548
 40
0.6718615332
 40
0.8348137332
 40
1.0
 40
1.0
 40
1.0
 40
1.0
 10
49.9546433612
 20
99.6832733813
 30
0.0
 10
49.9536277526
 20
99.6832733813
 30
0.0
 10
49.950974286
 20
99.6820303373
 30
0.0
 10
49.9464740844
 20
99.6792766445
 30
0.0
 10
49.9402881881
 20
99.6747442667
 30
0.0
 10
49.9325753705
 20
99.6686501676
 30
0.0
 10
49.92338848
 20
99.6609945963
 30
0.0
 10
49.9084387355
 20
99.6481111948
 30
0.0
 10
49.8869662114
 20
99.6289158323
 30
0.0
 10
49.8583428121
 20
99.6026929783
 30
0.0
 10
49.8263340871
 20
99.5728911058
 30
0.0
 10
49.7915909592
 20
99.5401966161
 30
0.0
 10
49.7411919487
 20
99.4924180336
 30
0.0
 10
49.6747088607
 20
99.4288691591
 30
0.0
 10
49.5919979231
 20
99.3493576475
 30
0.0
 10
49.5066012096
 20
99.2669803864
 30
0.0
 10
49.4489648614
 20
99.2113008446
 30
0.0
 10
49.4199486962
 20
99.1832733813
 30
0.0
  0
ENDSEC
  0
SECTION
  2
OBJECTS
  0
DICTIONARY
  5
C
100
AcDbDictionary
280
0
281
1
  3
ACAD_GROUP
350
D
  3
ACAD_MLINESTYLE
350
17
  3
ACAD_LAYOUT
350
1A
  3
ACAD_PLOTSETTINGS
350
19
  3
ACAD_PLOTSTYLENAME
350
E
  0
DICTIONARY
  5
D
102
{ACAD_REACTORS
330
C
102
}
100
AcDbDictionary
280
0
281
1
  0
ACDBDICTIONARYWDFLT
  5
E
102
{ACAD_REACTORS
330
C
102
}
100
AcDbDictionary
281
1
  3
Normal
350
F
100
AcDbDictionaryWithDefault
340
F
  0
DICTIONARY
  5
17
102
{ACAD_REACTORS
330
C
102
}
100
AcDbDictionary
280
0
281
1
  3
Standard
350
18
  0
DICTIONARY
  5
19
102
{ACAD_REACTORS
330
C
102
}
100
AcDbDictionary
281
1
  0
DICTIONARY
  5
1A
102
{ACAD_REACTORS
330
C
102
}
100
AcDbDictionary
281
1
  3
Model
350
276
  3
Layout1
350
277
  0
ACDBPLACEHOLDER
  5
F
102
{ACAD_REACTORS
330
E
102
}
  0
MLINESTYLE
  5
18
102
{ACAD_REACTORS
330
17
102
}
100
AcDbMlineStyle
  2
STANDARD
 70
0
  3

 62
256
 51
90.0
 52
90.0
 71
2
 49
0.5
 62
256
  6
BYLAYER
 49
-0.5
 62
256
  6
BYLAYER
  0
LAYOUT
  5
276
102
{ACAD_REACTORS
330
1A
102
}
100
AcDbPlotSettings
  1

  2
none_device
  4

  6

 40
0.0
 41
0.0
 42
0.0
 43
0.0
 44
210.0
 45
297.0
 46
0.0
 47
0.0
 48
0.0
 49
0.0
140
0.0
141
0.0
142
1.0
143
1.0
 70
1024
 72
1
 73
0
 74
0
  7

 75
0
147
1.0
148
0.0
149
0.0
100
AcDbLayout
  1
Model
 70
0
 71
0
 10
0.0
 20
0.0
 11
210.0
 21
297.0
 12
0.0
 22
0.0
 32
0.0
 14
0.0
 24
0.0
 34
0.0
 15
0.0
 25
0.0
 35
0.0
146
0.0
 13
0.0
 23
0.0
 33
0.0
 16
1.0
 26
0.0
 36
0.0
 17
0.0
 27
1.0
 37
0.0
 76
0
330
210
345
0
346
0
  0
LAYOUT
  5
277
102
{ACAD_REACTORS
330
1A
102
}
100
AcDbPlotSettings
  1

  2
none_device
  4

  6

 40
0.0
 41
0.0
 42
0.0
 43
0.0
 44
210.0
 45
297.0
 46
0.0
 47
0.0
 48
0.0
 49
0.0
140
0.0
141
0.0
142
1.0
143
1.0
 70
0
 72
1
 73
0
 74
0
  7

 75
0
147
1.0
148
0.0
149
0.0
100
AcDbLayout
  1
Layout1
 70
0
 71
1
 10
0.0
 20
0.0
 11
210.0
 21
297.0
 12
0.0
 22
0.0
 32
0.0
 14
0.0
 24
0.0
 34
0.0
 15
0.0
 25
0.0
 35
0.0
146
0.0
 13
0.0
 23
0.0
 33
0.0
 16
1.0
 26
0.0
 36
0.0
 17
0.0
 27
1.0
 37
0.0
 76
0
330
211
345
0
346
0
  0
ENDSEC
  0
EOF
