999
DXF file: C:\Users\sesa63760\Dev\_Creo\CAD\MCADID0004531_3D-CAD\drw0001_3.dxf
999
Pro/ENGINEER 2019471 by Parametric Technology Corporation
  0
SECTION
  2
HEADER
  9
$ACADVER
  1
AC1024
  9
$DWGCODEPAGE
  3
ANSI_1252
  9
$EXTMAX
 10
92.2765952744
 20
130.5054704595
 30
0.0
  9
$EXTMIN
 10
0.0
 20
0.0
 30
0.0
  9
$LIMMIN
 10
0.0
 20
0.0
  9
$LIMMAX
 10
92.2765952744
 20
130.5054704595
  9
$VIEWCTR
 10
46.1382976372
 20
65.2527352298
  9
$VIEWSIZE
 40
130.5054704595
  9
$CLAYER
  8
0
  9
$LTSCALE
 40
8.5070232596
  9
$CELTYPE
  6
BYLAYER
  9
$DIMSCALE
 40
1.0
  9
$DIMASZ
 40
1.0985308961
  9
$DIMEXO
 40
1.0
  9
$DIMDLI
 40
5.8775797066
  9
$DIMEXE
 40
1.0
  9
$DIMCEN
 40
1.3920583516
  9
$DIMLFAC
 40
1.0
  9
$DIMBLK
  1
_FILLED
  9
$DIMALT
 70
0
  9
$DIMALTF
 40
0.0393700787
  9
$DIMTXT
 40
1.5379432546
  9
$DIMTOL
 70
1
  9
$DIMLIM
 70
0
  9
$DIMTFAC
 40
1.0
  9
$DIMTP
 40
0.01
  9
$DIMTM
 40
0.01
  9
$DIMGAP
 40
0.625
  9
$DIMDSEP
 70
46
  9
$AUNITS
 70
0
  9
$PDMODE
 70
3
  9
$PDSIZE
 40
0.3125
  9
$HANDSEED
  5
26B
  9
$TILEMODE
 70
1
  9
$MEASUREMENT
 70
1
  9
$INSUNITS
 70
4
  0
ENDSEC
  0
SECTION
  2
CLASSES
  0
CLASS
  1
ACDBDICTIONARYWDFLT
  2
AcDbDictionaryWithDefault
  3
AutoCAD 2000
 90
0
 91
1
280
0
281
0
  0
CLASS
  1
ACDBPLACEHOLDER
  2
AcDbPlaceHolder
  3
AutoCAD 2000
 90
0
 91
1
280
0
281
0
  0
CLASS
  1
LAYOUT
  2
AcDbLayout
  3
AutoCAD 2000
 90
0
 91
0
280
0
281
0
  0
ENDSEC
  0
SECTION
  2
TABLES
  0
TABLE
  2
VPORT
  5
8
100
AcDbSymbolTable
 70
2
  0
VPORT
  5
1F4
100
AcDbSymbolTableRecord
100
AcDbViewportTableRecord
  2
*ACTIVE
 70
0
 10
0.0
 20
0.0
 11
1.0
 21
1.0
 12
46.1382976372
 22
65.2527352298
 13
0.0
 23
0.0
 14
1.0
 24
1.0
 15
0.0
 25
0.0
 16
0.0
 26
0.0
 36
1.0
 17
0.0
 27
0.0
 37
0.0
 40
130.5054704595
 41
0.7070707071
 42
50.0
 43
0.0
 44
0.0
 50
0.0
 51
0.0
 71
0
 72
100
 73
1
 74
1
 75
0
 76
0
 77
0
 78
0
  0
ENDTAB
  0
TABLE
  2
LTYPE
  5
5
100
AcDbSymbolTable
 70
6
  0
LTYPE
  5
14
100
AcDbSymbolTableRecord
100
AcDbLinetypeTableRecord
  2
BYBLOCK
 70
0
  3

 72
65
 73
0
 40
0.0
  0
LTYPE
  5
15
100
AcDbSymbolTableRecord
100
AcDbLinetypeTableRecord
  2
BYLAYER
 70
0
  3

 72
65
 73
0
 40
0.0
  0
LTYPE
  5
16
100
AcDbSymbolTableRecord
100
AcDbLinetypeTableRecord
  2
CONTINUOUS
 70
64
  3
Solid line
 72
65
 73
0
 40
0.0
  0
LTYPE
  5
1F5
100
AcDbSymbolTableRecord
100
AcDbLinetypeTableRecord
  2
CENTER
 70
64
  3
____ _ ____ _ ____ _ ____ _ ____ _ ____ _ ____
 72
65
 73
4
 40
0.6
 49
0.375
 74
0
 49
-0.075
 74
0
 49
0.075
 74
0
 49
-0.075
 74
0
  0
LTYPE
  5
1F6
100
AcDbSymbolTableRecord
100
AcDbLinetypeTableRecord
  2
HIDDEN
 70
64
  3
- - - - - - - - - - - - - - - - - - - -
 72
65
 73
2
 40
0.2
 49
0.1
 74
0
 49
-0.1
 74
0
  0
LTYPE
  5
1F7
100
AcDbSymbolTableRecord
100
AcDbLinetypeTableRecord
  2
PHANTOM
 70
64
  3
_____ _ _ _____ _ _ _____ _ _ _____
 72
65
 73
6
 40
0.8
 49
0.45
 74
0
 49
-0.05
 74
0
 49
0.1
 74
0
 49
-0.05
 74
0
 49
0.1
 74
0
 49
-0.05
 74
0
  0
LTYPE
  5
1F8
100
AcDbSymbolTableRecord
100
AcDbLinetypeTableRecord
  2
DOT
 70
64
  3
. . . . . . . . . . . . . . . . . . . .
 72
65
 73
2
 40
0.2
 49
0.1
 74
0
 49
-0.1
 74
0
  0
LTYPE
  5
1F9
100
AcDbSymbolTableRecord
100
AcDbLinetypeTableRecord
  2
DASHED
 70
64
  3
- - - - - - - - - - - - - - - - - - - -
 72
65
 73
2
 40
0.2
 49
0.1
 74
0
 49
-0.1
 74
0
  0
ENDTAB
  0
TABLE
  2
LAYER
  5
2
100
AcDbSymbolTable
 70
36
  0
LAYER
  5
10
100
AcDbSymbolTableRecord
100
AcDbLayerTableRecord
  2
0
 70
0
 62
7
  6
CONTINUOUS
370
-3
390
F
  0
LAYER
  5
1FA
100
AcDbSymbolTableRecord
100
AcDbLayerTableRecord
  2
DEFAULT_1
 70
0
 62
7
  6
CENTER
370
-3
390
F
  0
LAYER
  5
1FB
100
AcDbSymbolTableRecord
100
AcDbLayerTableRecord
  2
DEFAULT_2
 70
0
 62
7
  6
HIDDEN
370
-3
390
F
  0
LAYER
  5
1FC
100
AcDbSymbolTableRecord
100
AcDbLayerTableRecord
  2
DEFAULT_3
 70
0
 62
7
  6
PHANTOM
370
-3
390
F
  0
LAYER
  5
1FD
100
AcDbSymbolTableRecord
100
AcDbLayerTableRecord
  2
00_COMPONENTS
 70
0
 62
7
  6
CONTINUOUS
370
-3
390
F
  0
LAYER
  5
1FE
100
AcDbSymbolTableRecord
100
AcDbLayerTableRecord
  2
01_1_DEFAULT_DATUMS
 70
0
 62
7
  6
CONTINUOUS
370
-3
390
F
  0
LAYER
  5
1FF
100
AcDbSymbolTableRecord
100
AcDbLayerTableRecord
  2
01_PLANES
 70
0
 62
7
  6
CONTINUOUS
370
-3
390
F
  0
LAYER
  5
200
100
AcDbSymbolTableRecord
100
AcDbLayerTableRecord
  2
02_COORD_SYS
 70
0
 62
7
  6
CONTINUOUS
370
-3
390
F
  0
LAYER
  5
201
100
AcDbSymbolTableRecord
100
AcDbLayerTableRecord
  2
03_AXES
 70
0
 62
7
  6
CONTINUOUS
370
-3
390
F
  0
LAYER
  5
202
100
AcDbSymbolTableRecord
100
AcDbLayerTableRecord
  2
04_POINTS
 70
0
 62
7
  6
CONTINUOUS
370
-3
390
F
  0
LAYER
  5
203
100
AcDbSymbolTableRecord
100
AcDbLayerTableRecord
  2
05_CURVES
 70
0
 62
7
  6
CONTINUOUS
370
-3
390
F
  0
LAYER
  5
204
100
AcDbSymbolTableRecord
100
AcDbLayerTableRecord
  2
06_SURFS
 70
0
 62
7
  6
CONTINUOUS
370
-3
390
F
  0
LAYER
  5
205
100
AcDbSymbolTableRecord
100
AcDbLayerTableRecord
  2
07_COSMETICS
 70
0
 62
7
  6
CONTINUOUS
370
-3
390
F
  0
LAYER
  5
206
100
AcDbSymbolTableRecord
100
AcDbLayerTableRecord
  2
10_NOTES
 70
0
 62
7
  6
CONTINUOUS
370
-3
390
F
  0
LAYER
  5
207
100
AcDbSymbolTableRecord
100
AcDbLayerTableRecord
  2
11_NOTES_PUB
 70
0
 62
7
  6
CONTINUOUS
370
-3
390
F
  0
LAYER
  5
208
100
AcDbSymbolTableRecord
100
AcDbLayerTableRecord
  2
13_REF_GTOL
 70
0
 62
7
  6
CONTINUOUS
370
-3
390
F
  0
LAYER
  5
209
100
AcDbSymbolTableRecord
100
AcDbLayerTableRecord
  2
16_MISC
 70
0
 62
7
  6
CONTINUOUS
370
-3
390
F
  0
LAYER
  5
20A
100
AcDbSymbolTableRecord
100
AcDbLayerTableRecord
  2
17_NO_PRINT
 70
0
 62
7
  6
CONTINUOUS
370
-3
390
F
  0
LAYER
  5
20B
100
AcDbSymbolTableRecord
100
AcDbLayerTableRecord
  2
18_DATUM_CAMS_JOINTS
 70
0
 62
7
  6
CONTINUOUS
370
-3
390
F
  0
LAYER
  5
20C
100
AcDbSymbolTableRecord
100
AcDbLayerTableRecord
  2
19_DATUM_FUNCTIONAL
 70
0
 62
7
  6
CONTINUOUS
370
-3
390
F
  0
LAYER
  5
20D
100
AcDbSymbolTableRecord
100
AcDbLayerTableRecord
  2
20_DATUM_KINEMATIC_SCHEME
 70
0
 62
7
  6
CONTINUOUS
370
-3
390
F
  0
ENDTAB
  0
TABLE
  2
STYLE
  5
3
100
AcDbSymbolTable
 70
1
  0
STYLE
  5
11
100
AcDbSymbolTableRecord
100
AcDbTextStyleTableRecord
  2
STANDARD
 70
0
 40
0.0
 41
1.0
 50
0.0
 71
0
 42
0.2
  3
ARIAL.TTF
  4

  0
STYLE
  5
20E
100
AcDbSymbolTableRecord
100
AcDbTextStyleTableRecord
  2
TEXTSTYLE_1
 70
0
 40
0.0
 41
0.8
 50
0.0
 71
0
 42
0.2
  3
gdt
  4

  0
ENDTAB
  0
TABLE
  2
VIEW
  5
6
100
AcDbSymbolTable
 70
0
  0
ENDTAB
  0
TABLE
  2
UCS
  5
7
100
AcDbSymbolTable
 70
0
  0
ENDTAB
  0
TABLE
  2
APPID
  5
9
100
AcDbSymbolTable
 70
1
  0
APPID
  5
20F
100
AcDbSymbolTableRecord
100
AcDbRegAppTableRecord
  2
ACAD
 70
0
  0
ENDTAB
  0
TABLE
  2
BLOCK_RECORD
  5
1
100
AcDbSymbolTable
 70
0
  0
BLOCK_RECORD
  5
210
100
AcDbSymbolTableRecord
100
AcDbBlockTableRecord
  2
*Model_Space
  0
BLOCK_RECORD
  5
211
100
AcDbSymbolTableRecord
100
AcDbBlockTableRecord
  2
*Paper_Space
  0
BLOCK_RECORD
  5
212
100
AcDbSymbolTableRecord
100
AcDbBlockTableRecord
  2
_FILLED
  0
ENDTAB
  0
TABLE
  2
DIMSTYLE
  5
A
100
AcDbSymbolTable
 70
1
100
AcDbDimStyleTable
 71
0
  0
DIMSTYLE
105
213
100
AcDbSymbolTableRecord
100
AcDbDimStyleTableRecord
  2
STANDARD
 70
0
  3

  4

 40
1.0
 41
1.0985308961
 42
1.0
 43
0.38
 44
1.0
 45
0.0
 46
0.0
 47
0.01
 48
0.01
140
1.5379432546
141
0.09
142
0.0
143
25.4
144
1.0
145
0.0
146
1.0
147
0.625
 71
1
 72
0
 73
0
 74
0
 75
0
 76
0
 77
1
 78
8
 79
2
170
0
171
1
172
0
173
0
174
0
175
0
176
0
177
0
178
0
270
2
179
2
271
2
272
2
273
2
274
2
275
0
280
0
281
0
282
0
283
1
284
8
285
0
286
0
287
3
288
0
340
11
278
46
341
212
342
212
343
212
344
212
  0
ENDTAB
  0
ENDSEC
  0
SECTION
  2
BLOCKS
  0
BLOCK
  5
20
100
AcDbEntity
  8
0
100
AcDbBlockBegin
  2
*Model_Space
 70
0
 10
0.0
 20
0.0
 30
0.0
  3
*Model_Space
  1

  0
ENDBLK
  5
21
100
AcDbEntity
  8
0
100
AcDbBlockEnd
  0
BLOCK
  5
1C
100
AcDbEntity
  8
0
100
AcDbBlockBegin
  2
*Paper_Space
 70
0
 10
0.0
 20
0.0
 30
0.0
  3
*Paper_Space
  1

  0
ENDBLK
  5
1D
100
AcDbEntity
  8
0
100
AcDbBlockEnd
  0
BLOCK
  5
214
100
AcDbEntity
  8
0
100
AcDbBlockBegin
  2
_FILLED
 70
64
 10
0.0
 20
0.0
  3
_FILLED
  1

  0
SOLID
  5
215
100
AcDbEntity
  8
0
  6
BYBLOCK
 62
0
100
AcDbTrace
 10
0.0
 20
0.0
 11
-1.0
 21
0.25
 12
-1.0
 22
-0.25
 13
-1.0
 23
-0.25
  0
ENDBLK
  5
216
100
AcDbEntity
  8
0
  6
BYBLOCK
 62
0
100
AcDbBlockEnd
  0
ENDSEC
  0
SECTION
  2
ENTITIES
  0
LINE
  5
217
100
AcDbEntity
  8
0
100
AcDbLine
 62
7
  6
BYLAYER
 10
83.9161969807
 20
24.4624489801
 11
57.6661969807
 21
24.4624489801
  0
LINE
  5
218
100
AcDbEntity
  8
0
100
AcDbLine
 62
7
  6
BYLAYER
 10
38.1661969807
 20
24.4624489801
 11
10.9161969807
 21
24.4624489801
  0
LINE
  5
219
100
AcDbEntity
  8
0
100
AcDbLine
 62
7
  6
BYLAYER
 10
10.9161969807
 20
24.4643912259
 11
83.9161969807
 21
24.4643912259
  0
LINE
  5
21A
100
AcDbEntity
  8
0
100
AcDbLine
 62
7
  6
BYLAYER
 10
83.9161969807
 20
24.7418888966
 11
10.9161969807
 21
24.7418888966
  0
LINE
  5
21B
100
AcDbEntity
  8
0
100
AcDbLine
 62
7
  6
BYLAYER
 10
10.9161969807
 20
24.4624489801
 11
10.9161969807
 21
57.9531718756
  0
LINE
  5
21C
100
AcDbEntity
  8
0
100
AcDbLine
 62
7
  6
BYLAYER
 10
10.9161969807
 20
57.958527672
 11
10.9161969807
 21
65.9663334716
  0
LINE
  5
21D
100
AcDbEntity
  8
0
100
AcDbLine
 62
7
  6
BYLAYER
 10
10.9161969807
 20
26.0617641666
 11
83.9161969807
 21
26.0617641666
  0
LINE
  5
21E
100
AcDbEntity
  8
0
100
AcDbLine
 62
7
  6
BYLAYER
 10
10.9161969807
 20
26.459216965
 11
83.9161969807
 21
26.459216965
  0
LINE
  5
21F
100
AcDbEntity
  8
0
100
AcDbLine
 62
7
  6
BYLAYER
 10
49.9437714173
 20
29.4515351105
 11
83.9161969807
 21
29.4515351105
  0
LINE
  5
220
100
AcDbEntity
  8
0
100
AcDbLine
 62
7
  6
BYLAYER
 10
49.9437714173
 20
29.4682910452
 11
83.9161969807
 21
29.4682910452
  0
LINE
  5
221
100
AcDbEntity
  8
0
100
AcDbLine
 62
7
  6
BYLAYER
 10
83.9161969807
 20
29.9566533282
 11
69.9161969807
 21
29.9566533282
  0
LINE
  5
222
100
AcDbEntity
  8
0
100
AcDbLine
 62
7
  6
BYLAYER
 10
49.9437714173
 20
32.4649408473
 11
10.9161969807
 21
32.4649408473
  0
LINE
  5
223
100
AcDbEntity
  8
0
100
AcDbLine
 62
7
  6
BYLAYER
 10
33.5431079461
 20
91.0797768105
 11
33.5431079461
 21
72.7668147437
  0
LINE
  5
224
100
AcDbEntity
  8
0
100
AcDbLine
 62
7
  6
BYLAYER
 10
10.9161969807
 20
57.9531718756
 11
49.9437714173
 21
57.9531718756
  0
LINE
  5
225
100
AcDbEntity
  8
0
100
AcDbLine
 62
7
  6
BYLAYER
 10
69.9161969807
 20
57.9578770032
 11
83.9161969807
 21
57.9578770032
  0
LINE
  5
226
100
AcDbEntity
  8
0
100
AcDbLine
 62
7
  6
BYLAYER
 10
53.5561969807
 20
81.0284089253
 11
53.770839985
 21
81.2430519295
  0
LINE
  5
227
100
AcDbEntity
  8
0
100
AcDbLine
 62
7
  6
BYLAYER
 10
83.9161969807
 20
60.9545268053
 11
49.9437714173
 21
60.9545268053
  0
LINE
  5
228
100
AcDbEntity
  8
0
100
AcDbLine
 62
7
  6
BYLAYER
 10
49.9437714173
 20
60.97128274
 11
83.9161969807
 21
60.97128274
  0
LINE
  5
229
100
AcDbEntity
  8
0
100
AcDbLine
 62
7
  6
BYLAYER
 10
45.4161969807
 20
90.4614089253
 11
45.4161969807
 21
84.7985743332
  0
LINE
  5
22A
100
AcDbEntity
  8
0
100
AcDbLine
 62
7
  6
BYLAYER
 10
45.4161969807
 20
65.9614089253
 11
45.4161969807
 21
73.1242435173
  0
LINE
  5
22B
100
AcDbEntity
  8
0
100
AcDbLine
 62
7
  6
BYLAYER
 10
10.9161969807
 20
63.9695654867
 11
83.9161969807
 21
63.9695654867
  0
LINE
  5
22C
100
AcDbEntity
  8
0
100
AcDbLine
 62
7
  6
BYLAYER
 10
83.9161969807
 20
64.3670182851
 11
10.9161969807
 21
64.3670182851
  0
LINE
  5
22D
100
AcDbEntity
  8
0
100
AcDbLine
 62
7
  6
BYLAYER
 10
10.9161969807
 20
65.6868935551
 11
83.9161969807
 21
65.6868935551
  0
LINE
  5
22E
100
AcDbEntity
  8
0
100
AcDbLine
 62
7
  6
BYLAYER
 10
83.9161969807
 20
65.9643912259
 11
10.9161969807
 21
65.9643912259
  0
LINE
  5
22F
100
AcDbEntity
  8
0
100
AcDbLine
 62
7
  6
BYLAYER
 10
10.9161969807
 20
65.9663334716
 11
33.8972586833
 21
65.9663334716
  0
LINE
  5
230
100
AcDbEntity
  8
0
100
AcDbLine
 62
7
  6
BYLAYER
 10
61.9351352782
 20
65.9663334716
 11
83.9161969807
 21
65.9663334716
  0
LINE
  5
231
100
AcDbEntity
  8
0
100
AcDbLine
 62
7
  6
BYLAYER
 10
49.9437714173
 20
63.9695654867
 11
49.9437714173
 21
57.958527672
  0
LINE
  5
232
100
AcDbEntity
  8
0
100
AcDbLine
 62
7
  6
BYLAYER
 10
49.9437714173
 20
26.459216965
 11
49.9437714173
 21
57.9531718756
  0
LINE
  5
233
100
AcDbEntity
  8
0
100
AcDbLine
 62
7
  6
BYLAYER
 10
50.4161969807
 20
65.9614089253
 11
50.4161969807
 21
73.1242435173
  0
LINE
  5
234
100
AcDbEntity
  8
0
100
AcDbLine
 62
7
  6
BYLAYER
 10
50.4161969807
 20
84.7985743332
 11
50.4161969807
 21
90.4614089253
  0
LINE
  5
235
100
AcDbEntity
  8
0
100
AcDbLine
 62
7
  6
BYLAYER
 10
53.5561969807
 20
76.8944128407
 11
53.5561969807
 21
81.0284050098
  0
LINE
  5
236
100
AcDbEntity
  8
0
100
AcDbLine
 62
7
  6
BYLAYER
 10
53.9891969807
 20
77.4836619589
 11
53.9891969807
 21
80.4426393278
  0
LINE
  5
237
100
AcDbEntity
  8
0
100
AcDbLine
 62
7
  6
BYLAYER
 10
78.0561969807
 20
74.7114089253
 11
73.5561969807
 21
74.7114089253
  0
LINE
  5
238
100
AcDbEntity
  8
0
100
AcDbLine
 62
7
  6
BYLAYER
 10
73.5561969807
 20
76.4614089253
 11
65.2880355339
 21
76.4614089253
  0
LINE
  5
239
100
AcDbEntity
  8
0
100
AcDbLine
 62
7
  6
BYLAYER
 10
62.2892860154
 20
91.0797768105
 11
62.2892860154
 21
72.7668147437
  0
LINE
  5
23A
100
AcDbEntity
  8
0
100
AcDbLine
 62
7
  6
BYLAYER
 10
53.5561969807
 20
76.8944089253
 11
53.7719907052
 21
76.6786152008
  0
LINE
  5
23B
100
AcDbEntity
  8
0
100
AcDbLine
 62
7
  6
BYLAYER
 10
73.5561969807
 20
81.4614089253
 11
65.7060154746
 21
81.4614089253
  0
LINE
  5
23C
100
AcDbEntity
  8
0
100
AcDbLine
 62
7
  6
BYLAYER
 10
78.0561969807
 20
83.2114089253
 11
73.5561969807
 21
83.2114089253
  0
LINE
  5
23D
100
AcDbEntity
  8
0
100
AcDbLine
 62
7
  6
BYLAYER
 10
52.2241006454
 20
85.6517187235
 11
50.4161969807
 21
85.6517187235
  0
LINE
  5
23E
100
AcDbEntity
  8
0
100
AcDbLine
 62
7
  6
BYLAYER
 10
45.4161969807
 20
85.6517187235
 11
43.6082933742
 21
85.6517187235
  0
LINE
  5
23F
100
AcDbEntity
  8
0
100
AcDbLine
 62
7
  6
BYLAYER
 10
69.9161969807
 20
29.9566533282
 11
69.9161969807
 21
60.9545268053
  0
LINE
  5
240
100
AcDbEntity
  8
0
100
AcDbLine
 62
7
  6
BYLAYER
 10
73.5561969807
 20
74.7114782625
 11
73.5561969807
 21
83.2113395881
  0
LINE
  5
241
100
AcDbEntity
  8
0
100
AcDbLine
 62
7
  6
BYLAYER
 10
45.4161969807
 20
90.4614089253
 11
50.4161969807
 21
90.4614089253
  0
LINE
  5
242
100
AcDbEntity
  8
0
100
AcDbLine
 62
7
  6
BYLAYER
 10
78.0561969807
 20
83.2114089253
 11
78.0561969807
 21
74.7114089253
  0
LINE
  5
243
100
AcDbEntity
  8
0
100
AcDbLine
 62
7
  6
BYLAYER
 10
78.3061969807
 20
82.9614089253
 11
78.3061969807
 21
74.9614089253
  0
LINE
  5
244
100
AcDbEntity
  8
0
100
AcDbLine
 62
7
  6
BYLAYER
 10
79.9161969807
 20
63.9695654867
 11
79.9161969807
 21
60.97128274
  0
LINE
  5
245
100
AcDbEntity
  8
0
100
AcDbLine
 62
7
  6
BYLAYER
 10
79.9161969807
 20
29.4515351105
 11
79.9161969807
 21
26.459216965
  0
LINE
  5
246
100
AcDbEntity
  8
0
100
AcDbLine
 62
7
  6
BYLAYER
 10
83.9161969807
 20
24.4624489801
 11
83.9161969807
 21
29.4682910452
  0
LINE
  5
247
100
AcDbEntity
  8
0
100
AcDbLine
 62
7
  6
BYLAYER
 10
83.9161969807
 20
29.9566533282
 11
83.9161969807
 21
65.9663334716
  0
LINE
  5
248
100
AcDbEntity
  8
0
100
AcDbLine
 62
7
  6
BYLAYER
 10
50.7292389357
 20
102.5164509178
 11
45.1031550258
 21
102.5164509178
  0
LINE
  5
249
100
AcDbEntity
  8
0
100
AcDbLine
 62
7
  6
BYLAYER
 10
58.5267692363
 20
103.3804121621
 11
37.3056247252
 21
103.3804121621
  0
LINE
  5
24A
100
AcDbEntity
  8
0
100
AcDbLine
 62
7
  6
BYLAYER
 10
42.7547124439
 20
106.6819711512
 11
53.0776815176
 21
106.6819711512
  0
ARC
  5
24B
100
AcDbEntity
  8
0
100
AcDbCircle
 62
7
  6
BYLAYER
 10
103.0681150044
 20
75.7228008714
 40
37.8002394658
100
AcDbArc
 50
171.2679309973
 51
172.1771867348
  0
ARC
  5
24C
100
AcDbEntity
  8
0
100
AcDbCircle
 62
7
  6
BYLAYER
 10
65.7663373112
 20
81.9232957771
 40
35.64295168
100
AcDbArc
 50
142.9866084866
 51
206.6043710614
  0
ARC
  5
24D
100
AcDbEntity
  8
0
100
AcDbCircle
 62
7
  6
BYLAYER
 10
30.0660566503
 20
81.9232957771
 40
35.64295168
100
AcDbArc
 50
359.2574995416
 51
37.0133915134
  0
ARC
  5
24E
100
AcDbEntity
  8
0
100
AcDbCircle
 62
7
  6
BYLAYER
 10
30.0660566503
 20
81.9232957771
 40
35.64295168
100
AcDbArc
 50
333.3956289386
 51
351.1853272769
  0
ARC
  5
24F
100
AcDbEntity
  8
0
100
AcDbCircle
 62
7
  6
BYLAYER
 10
53.4084246921
 20
81.9244319547
 40
12.2568630303
100
AcDbArc
 50
355.0540506564
 51
359.9946888384
  0
ARC
  5
250
100
AcDbEntity
  8
0
100
AcDbCircle
 62
7
  6
BYLAYER
 10
77.5298152575
 20
78.9096202379
 40
12.0700604373
100
AcDbArc
 50
170.6634167399
 51
175.1307694425
  0
ARC
  5
251
100
AcDbEntity
  8
0
100
AcDbCircle
 62
7
  6
BYLAYER
 10
47.9161969807
 20
78.9614089253
 40
6.35
100
AcDbArc
 50
113.1849701053
 51
246.8150298947
  0
ARC
  5
252
100
AcDbEntity
  8
0
100
AcDbCircle
 62
7
  6
BYLAYER
 10
47.9161969807
 20
78.9614089253
 40
6.35
100
AcDbArc
 50
293.1849701053
 51
66.8150298947
  0
ARC
  5
253
100
AcDbEntity
  8
0
100
AcDbCircle
 62
7
  6
BYLAYER
 10
42.7547124439
 20
100.534443747
 40
6.1475274042
100
AcDbArc
 50
90.0
 51
152.4226790486
  0
ARC
  5
254
100
AcDbEntity
  8
0
100
AcDbCircle
 62
7
  6
BYLAYER
 10
53.0776815176
 20
100.534443747
 40
6.1475274042
100
AcDbArc
 50
27.5773209514
 51
90.0
  0
ARC
  5
255
100
AcDbEntity
  8
0
100
AcDbCircle
 62
7
  6
BYLAYER
 10
78.0561969807
 20
82.9614089253
 40
0.25
100
AcDbArc
 50
0.0
 51
90.0
  0
ARC
  5
256
100
AcDbEntity
  8
0
100
AcDbCircle
 62
7
  6
BYLAYER
 10
78.0561969807
 20
74.9614089253
 40
0.25
100
AcDbArc
 50
270.0
 51
360.0
  0
SPLINE
  5
257
100
AcDbEntity
  8
0
100
AcDbSpline
 62
7
  6
BYLAYER
 70
0
 71
3
 72
9
 73
5
 74
0
 42
0.0000001
 43
0.0000001
 44
0.0000000001
 40
0.0
 40
0.0
 40
0.0
 40
0.0
 40
0.677709621
 40
1.0
 40
1.0
 40
1.0
 40
1.0
 10
65.503315381
 20
79.9341492424
 30
0.0
 10
65.4160464395
 20
79.1527811589
 30
0.0
 10
65.3246503224
 20
77.9951555967
 30
0.0
 10
65.2921888821
 20
76.8352461389
 30
0.0
 10
65.2880355339
 20
76.4614089253
 30
0.0
  0
SPLINE
  5
258
100
AcDbEntity
  8
0
100
AcDbSpline
 62
7
  6
BYLAYER
 70
0
 71
3
 72
17
 73
13
 74
0
 42
0.0000001
 43
0.0000001
 44
0.0000000001
 40
0.0
 40
0.0
 40
0.0
 40
0.0
 40
0.2484042291
 40
0.3731059861
 40
0.4980868328
 40
0.5606754687
 40
0.6233130072
 40
0.6860082503
 40
0.7487543728
 40
0.8115320788
 40
0.8743615322
 40
1.0
 40
1.0
 40
1.0
 40
1.0
 10
40.0327108349
 20
96.6171602363
 30
0.0
 10
40.4502691834
 20
95.7506782553
 30
0.0
 10
41.0646642831
 20
94.4427631415
 30
0.0
 10
41.8285267093
 20
92.6716465931
 30
0.0
 10
42.2733158394
 20
91.5469598601
 30
0.0
 10
42.6010974603
 20
90.6351799765
 30
0.0
 10
42.8293819811
 20
89.9441659602
 30
0.0
 10
43.0369035487
 20
89.2459635953
 30
0.0
 10
43.2198095866
 20
88.5403143901
 30
0.0
 10
43.3734584269
 20
87.8270725013
 30
0.0
 10
43.5326949032
 20
86.8671258576
 30
0.0
 10
43.5954925401
 20
86.1380392401
 30
0.0
 10
43.6081131211
 20
85.6517187235
 30
0.0
  0
SPLINE
  5
259
100
AcDbEntity
  8
0
100
AcDbSpline
 62
7
  6
BYLAYER
 70
0
 71
3
 72
14
 73
10
 74
0
 42
0.0000001
 43
0.0000001
 44
0.0000000001
 40
0.0
 40
0.0
 40
0.0
 40
0.0
 40
0.2502634496
 40
0.3751817573
 40
0.4999996572
 40
0.6247828008
 40
0.7496234686
 40
0.8746448163
 40
1.0
 40
1.0
 40
1.0
 40
1.0
 10
55.7996769974
 20
96.6171471275
 30
0.0
 10
55.4869179311
 20
97.193843937
 30
0.0
 10
54.9847043753
 20
98.0412567085
 30
0.0
 10
54.2402523306
 20
99.1205231935
 30
0.0
 10
53.6416139564
 20
99.8993193855
 30
0.0
 10
52.9982319147
 20
100.6414760498
 30
0.0
 10
52.3046055695
 20
101.338108895
 30
0.0
 10
51.5542550772
 20
101.9759742718
 30
0.0
 10
51.0116613675
 20
102.3484559976
 30
0.0
 10
50.7292402098
 20
102.5164509178
 30
0.0
  0
SPLINE
  5
25A
100
AcDbEntity
  8
0
100
AcDbSpline
 62
7
  6
BYLAYER
 70
0
 71
3
 72
17
 73
13
 74
0
 42
0.0000001
 43
0.0000001
 44
0.0000000001
 40
0.0
 40
0.0
 40
0.0
 40
0.0
 40
0.1256383053
 40
0.1884674936
 40
0.2512451978
 40
0.3139913785
 40
0.3766865393
 40
0.4393241268
 40
0.5019128687
 40
0.6268937628
 40
0.7515956181
 40
1.0
 40
1.0
 40
1.0
 40
1.0
 10
52.2242808403
 20
85.6517187235
 30
0.0
 10
52.2369013892
 20
86.1380380056
 30
0.0
 10
52.2996965395
 20
86.8671223658
 30
0.0
 10
52.4589365164
 20
87.8270655404
 30
0.0
 10
52.6125840921
 20
88.5403058727
 30
0.0
 10
52.7954866433
 20
89.245954922
 30
0.0
 10
53.0030046809
 20
89.9441575343
 30
0.0
 10
53.2312918851
 20
90.6351700541
 30
0.0
 10
53.5590771024
 20
91.5469481485
 30
0.0
 10
54.0038623037
 20
92.6716358174
 30
0.0
 10
54.7677255665
 20
94.4427507168
 30
0.0
 10
55.3821191945
 20
95.7506655561
 30
0.0
 10
55.7996769974
 20
96.6171471275
 30
0.0
  0
SPLINE
  5
25B
100
AcDbEntity
  8
0
100
AcDbSpline
 62
7
  6
BYLAYER
 70
0
 71
3
 72
14
 73
10
 74
0
 42
0.0000001
 43
0.0000001
 44
0.0000000001
 40
0.0
 40
0.0
 40
0.0
 40
0.0
 40
0.2502638652
 40
0.3751822033
 40
0.5000001738
 40
0.6247832629
 40
0.7496237062
 40
0.8746448984
 40
1.0
 40
1.0
 40
1.0
 40
1.0
 10
40.0327108349
 20
96.6171602363
 30
0.0
 10
40.3454656769
 20
97.1938597947
 30
0.0
 10
40.847700232
 20
98.0412603951
 30
0.0
 10
41.5921452391
 20
99.1205312759
 30
0.0
 10
42.1907856528
 20
99.8993249626
 30
0.0
 10
42.834166337
 20
100.6414805996
 30
0.0
 10
43.5277914516
 20
101.3381116629
 30
0.0
 10
44.2781404417
 20
101.9759753166
 30
0.0
 10
44.8207330746
 20
102.3484562835
 30
0.0
 10
45.1031537517
 20
102.5164509178
 30
0.0
  0
SPLINE
  5
25C
100
AcDbEntity
  8
0
100
AcDbSpline
 62
7
  6
BYLAYER
 70
0
 71
3
 72
13
 73
9
 74
0
 42
0.0000001
 43
0.0000001
 44
0.0000000001
 40
0.0
 40
0.0
 40
0.0
 40
0.0
 40
0.2586192427
 40
0.5030876252
 40
0.6215569345
 40
0.7392631036
 40
0.8602151409
 40
1.0
 40
1.0
 40
1.0
 40
1.0
 10
33.5431079461
 20
72.7668147437
 30
0.0
 10
33.0415788006
 20
73.4594293175
 30
0.0
 10
32.1315712963
 20
74.8565746181
 30
0.0
 10
31.2338103605
 20
76.713511105
 30
0.0
 10
30.7116555958
 20
78.2161735992
 30
0.0
 10
30.4174245872
 20
79.3613459483
 30
0.0
 10
30.2163866652
 20
80.59812394
 30
0.0
 10
30.1671062918
 20
81.4610944615
 30
0.0
 10
30.1671062918
 20
81.9232957771
 30
0.0
  0
SPLINE
  5
25D
100
AcDbEntity
  8
0
100
AcDbSpline
 62
7
  6
BYLAYER
 70
0
 71
3
 72
13
 73
9
 74
0
 42
0.0000001
 43
0.0000001
 44
0.0000000001
 40
0.0
 40
0.0
 40
0.0
 40
0.0
 40
0.2586191757
 40
0.503087589
 40
0.62155692
 40
0.7392631122
 40
0.8602151961
 40
1.0
 40
1.0
 40
1.0
 40
1.0
 10
33.5431079461
 20
91.0797768105
 30
0.0
 10
33.0415789304
 20
90.387162416
 30
0.0
 10
32.1315714791
 20
88.9900172282
 30
0.0
 10
31.2338104991
 20
87.133080813
 30
0.0
 10
30.7116556368
 20
85.6304180877
 30
0.0
 10
30.4174245317
 20
84.4852454501
 30
0.0
 10
30.2163866431
 20
83.248467402
 30
0.0
 10
30.1671062918
 20
82.3854969102
 30
0.0
 10
30.1671062918
 20
81.9232957771
 30
0.0
  0
SPLINE
  5
25E
100
AcDbEntity
  8
0
100
AcDbSpline
 62
7
  6
BYLAYER
 70
0
 71
3
 72
13
 73
9
 74
0
 42
0.0000001
 43
0.0000001
 44
0.0000000001
 40
0.0
 40
0.0
 40
0.0
 40
0.0
 40
0.2586192427
 40
0.5030876252
 40
0.6215569345
 40
0.7392631036
 40
0.8602151409
 40
1.0
 40
1.0
 40
1.0
 40
1.0
 10
62.2892860154
 20
91.0797768105
 30
0.0
 10
62.7908151609
 20
90.3871622367
 30
0.0
 10
63.7008226652
 20
88.9900169361
 30
0.0
 10
64.598583601
 20
87.1330804492
 30
0.0
 10
65.1207383657
 20
85.6304179551
 30
0.0
 10
65.4149693743
 20
84.4852456059
 30
0.0
 10
65.6160072963
 20
83.2484676142
 30
0.0
 10
65.6652876697
 20
82.3854970927
 30
0.0
 10
65.6652876697
 20
81.9232957771
 30
0.0
  0
SPLINE
  5
25F
100
AcDbEntity
  8
0
100
AcDbSpline
 62
7
  6
BYLAYER
 70
0
 71
3
 72
15
 73
11
 74
0
 42
0.0000001
 43
0.0000001
 44
0.0000000001
 40
0.0
 40
0.0
 40
0.0
 40
0.0
 40
0.1211573414
 40
0.2419304705
 40
0.3632624721
 40
0.4860460325
 40
0.6109016835
 40
0.738170447
 40
0.8679551874
 40
1.0
 40
1.0
 40
1.0
 40
1.0
 10
33.5431079461
 20
72.7668147437
 30
0.0
 10
33.8205584155
 20
72.332709123
 30
0.0
 10
34.421638449
 20
71.4948880264
 30
0.0
 10
35.4549207952
 20
70.3427879682
 30
0.0
 10
36.6109969236
 20
69.3035015867
 30
0.0
 10
37.8827263668
 20
68.379953792
 30
0.0
 10
39.2623673128
 20
67.5759995521
 30
0.0
 10
40.7402112619
 20
66.8967605729
 30
0.0
 10
42.3037471056
 20
66.3487234083
 30
0.0
 10
43.3851458301
 20
66.0766174562
 30
0.0
 10
43.9350961063
 20
65.9633559847
 30
0.0
  0
SPLINE
  5
260
100
AcDbEntity
  8
0
100
AcDbSpline
 62
7
  6
BYLAYER
 70
0
 71
3
 72
11
 73
7
 74
0
 42
0.0000001
 43
0.0000001
 44
0.0000000001
 40
0.0
 40
0.0
 40
0.0
 40
0.0
 40
0.2402398268
 40
0.4830745066
 40
0.7354608736
 40
1.0
 40
1.0
 40
1.0
 40
1.0
 10
65.5032906949
 20
79.9339098577
 30
0.0
 10
65.4013945042
 20
79.3077446401
 30
0.0
 10
65.1014775778
 20
78.0625284678
 30
0.0
 10
64.3961213553
 20
76.2479471256
 30
0.0
 10
63.4553513985
 20
74.4715467919
 30
0.0
 10
62.6989932659
 20
73.3326227635
 30
0.0
 10
62.2892860154
 20
72.7668147437
 30
0.0
  0
SPLINE
  5
261
100
AcDbEntity
  8
0
100
AcDbSpline
 62
7
  6
BYLAYER
 70
0
 71
3
 72
23
 73
19
 74
0
 42
0.0000001
 43
0.0000001
 44
0.0000000001
 40
0.0
 40
0.0
 40
0.0
 40
0.0
 40
0.062577729
 40
0.1249096879
 40
0.1870411111
 40
0.2491341749
 40
0.3113335552
 40
0.373750723
 40
0.4364482642
 40
0.4993925931
 40
0.5624742896
 40
0.6255525643
 40
0.6884907314
 40
0.7511795706
 40
0.8135866811
 40
0.8757703584
 40
0.93786974
 40
1.0
 40
1.0
 40
1.0
 40
1.0
 10
50.4161969807
 20
72.6314764368
 30
0.0
 10
50.7382207863
 20
72.7379866952
 30
0.0
 10
51.3677680015
 20
72.993551486
 30
0.0
 10
52.2489603087
 20
73.5011546763
 30
0.0
 10
53.0479444841
 20
74.126585207
 30
0.0
 10
53.7483709386
 20
74.8597399763
 30
0.0
 10
54.336894573
 20
75.6873160469
 30
0.0
 10
54.8028989075
 20
76.5931452719
 30
0.0
 10
55.139413444
 20
77.5587334584
 30
0.0
 10
55.3423485856
 20
78.5644763968
 30
0.0
 10
55.409529677
 20
79.5902780529
 30
0.0
 10
55.3403157944
 20
80.6159156731
 30
0.0
 10
55.1353203072
 20
81.6211365221
 30
0.0
 10
54.7969022282
 20
82.585926414
 30
0.0
 10
54.3288895899
 20
83.4905050871
 30
0.0
 10
53.7385963624
 20
84.3167247096
 30
0.0
 10
53.0368349318
 20
85.0483060303
 30
0.0
 10
52.503662789
 20
85.4639705136
 30
0.0
 10
52.2241006454
 20
85.6517187235
 30
0.0
  0
SPLINE
  5
262
100
AcDbEntity
  8
0
100
AcDbSpline
 62
7
  6
BYLAYER
 70
0
 71
3
 72
12
 73
8
 74
0
 42
0.0000001
 43
0.0000001
 44
0.0000000001
 40
0.0
 40
0.0
 40
0.0
 40
0.0
 40
0.2467633052
 40
0.3699739963
 40
0.4936261206
 40
0.7438245803
 40
1.0
 40
1.0
 40
1.0
 40
1.0
 10
62.2892860154
 20
91.0797768105
 30
0.0
 10
61.9063494534
 20
91.6789284871
 30
0.0
 10
61.26387645
 20
92.5362681256
 30
0.0
 10
60.2878356056
 20
93.5722629083
 30
0.0
 10
59.2305790526
 20
94.5403990716
 30
0.0
 10
57.760618108
 20
95.6167193719
 30
0.0
 10
56.4710361942
 20
96.310185853
 30
0.0
 10
55.7996647496
 20
96.6170903317
 30
0.0
  0
SPLINE
  5
263
100
AcDbEntity
  8
0
100
AcDbSpline
 62
7
  6
BYLAYER
 70
0
 71
3
 72
15
 73
11
 74
0
 42
0.0000001
 43
0.0000001
 44
0.0000000001
 40
0.0
 40
0.0
 40
0.0
 40
0.0
 40
0.1320441094
 40
0.2618291124
 40
0.3890955172
 40
0.5139495235
 40
0.6367328446
 40
0.7580675571
 40
0.8788433635
 40
1.0
 40
1.0
 40
1.0
 40
1.0
 10
51.8973073417
 20
65.9633579618
 30
0.0
 10
52.4472532848
 20
66.0766215349
 30
0.0
 10
53.5285310472
 20
66.3492225122
 30
0.0
 10
55.0920076404
 20
66.8972982239
 30
0.0
 10
56.5699945659
 20
67.576181482
 30
0.0
 10
57.9497596643
 20
68.3798756214
 30
0.0
 10
59.2217320225
 20
69.3031074976
 30
0.0
 10
60.3776811081
 20
70.3425913528
 30
0.0
 10
61.4107495195
 20
71.4948947834
 30
0.0
 10
62.0118375702
 20
72.3327122901
 30
0.0
 10
62.2892860154
 20
72.7668147437
 30
0.0
  0
SPLINE
  5
264
100
AcDbEntity
  8
0
100
AcDbSpline
 62
7
  6
BYLAYER
 70
0
 71
3
 72
12
 73
8
 74
0
 42
0.0000001
 43
0.0000001
 44
0.0000000001
 40
0.0
 40
0.0
 40
0.0
 40
0.0
 40
0.2561762972
 40
0.5063735273
 40
0.6300256627
 40
0.753235861
 40
1.0
 40
1.0
 40
1.0
 40
1.0
 10
40.0327266899
 20
96.6170958068
 30
0.0
 10
39.361356945
 20
96.310180186
 30
0.0
 10
38.0717819714
 20
95.6166941694
 30
0.0
 10
36.601859347
 20
94.5403332206
 30
0.0
 10
35.5445204251
 20
93.572296602
 30
0.0
 10
34.5684107677
 20
92.5363560334
 30
0.0
 10
33.9260460913
 20
91.6789309643
 30
0.0
 10
33.5431079461
 20
91.0797768105
 30
0.0
  0
SPLINE
  5
265
100
AcDbEntity
  8
0
100
AcDbSpline
 62
7
  6
BYLAYER
 70
0
 71
3
 72
23
 73
19
 74
0
 42
0.0000001
 43
0.0000001
 44
0.0000000001
 40
0.0
 40
0.0
 40
0.0
 40
0.0
 40
0.0621298175
 40
0.1242290906
 40
0.186413319
 40
0.2488210267
 40
0.3115102059
 40
0.3744481195
 40
0.4375255769
 40
0.5006060974
 40
0.5635491192
 40
0.6262457324
 40
0.688662939
 40
0.750863169
 40
0.8129574951
 40
0.875090199
 40
0.9374225874
 40
1.0
 40
1.0
 40
1.0
 40
1.0
 10
43.6082933742
 20
85.6517187235
 30
0.0
 10
43.328733109
 20
85.4639717756
 30
0.0
 10
42.7955602075
 20
85.0483127747
 30
0.0
 10
42.0937990942
 20
84.316730093
 30
0.0
 10
41.5035039859
 20
83.4905044479
 30
0.0
 10
41.0354879062
 20
82.5859181242
 30
0.0
 10
40.6970677137
 20
81.6211243633
 30
0.0
 10
40.4920791045
 20
80.6159056928
 30
0.0
 10
40.4228653534
 20
79.5902803147
 30
0.0
 10
40.4900408071
 20
78.5644956755
 30
0.0
 10
40.6929753799
 20
77.5587709323
 30
0.0
 10
41.0294793569
 20
76.5931926277
 30
0.0
 10
41.4954547578
 20
75.6873483776
 30
0.0
 10
42.0839804533
 20
74.8597570226
 30
0.0
 10
42.7844283796
 20
74.1265963876
 30
0.0
 10
43.5834285289
 20
73.5011602556
 30
0.0
 10
44.4646261548
 20
72.9935503822
 30
0.0
 10
45.0941746738
 20
72.7379861981
 30
0.0
 10
45.4161969807
 20
72.6314764355
 30
0.0
  0
SPLINE
  5
266
100
AcDbEntity
  8
0
100
AcDbSpline
 62
7
  6
BYLAYER
 70
0
 71
3
 72
13
 73
9
 74
0
 42
0.0000001
 43
0.0000001
 44
0.0000000001
 40
0.0
 40
0.0
 40
0.0
 40
0.0
 40
0.2498978587
 40
0.374951363
 40
0.5
 40
0.625048637
 40
0.7501021413
 40
1.0
 40
1.0
 40
1.0
 40
1.0
 10
45.1031550258
 20
102.5164509178
 30
0.0
 10
45.5536904247
 20
102.6757154124
 30
0.0
 10
46.2500757003
 20
102.8632664664
 30
0.0
 10
47.1985478729
 20
102.9910160649
 30
0.0
 10
47.9161969807
 20
103.0232943563
 30
0.0
 10
48.6338460886
 20
102.9910160649
 30
0.0
 10
49.5823182612
 20
102.8632664664
 30
0.0
 10
50.2787035367
 20
102.6757154124
 30
0.0
 10
50.7292389357
 20
102.5164509178
 30
0.0
  0
ELLIPSE
  5
267
100
AcDbEntity
  8
0
100
AcDbEllipse
 62
7
  6
BYLAYER
 10
47.9161969807
 20
-446.1917479904
 30
0.0
 11
-0.0
 21
519.9198861531
 31
0.0
 40
0.0413184757
 41
0.116639185
 42
0.1730644986
  0
ELLIPSE
  5
268
100
AcDbEntity
  8
0
100
AcDbEllipse
 62
7
  6
BYLAYER
 10
47.9161969807
 20
-446.1917479904
 30
0.0
 11
-0.0
 21
519.9198861531
 31
0.0
 40
0.0413184757
 41
-0.1730644986
 42
-0.116639185
  0
ENDSEC
  0
SECTION
  2
OBJECTS
  0
DICTIONARY
  5
C
100
AcDbDictionary
280
0
281
1
  3
ACAD_GROUP
350
D
  3
ACAD_MLINESTYLE
350
17
  3
ACAD_LAYOUT
350
1A
  3
ACAD_PLOTSETTINGS
350
19
  3
ACAD_PLOTSTYLENAME
350
E
  0
DICTIONARY
  5
D
102
{ACAD_REACTORS
330
C
102
}
100
AcDbDictionary
280
0
281
1
  0
ACDBDICTIONARYWDFLT
  5
E
102
{ACAD_REACTORS
330
C
102
}
100
AcDbDictionary
281
1
  3
Normal
350
F
100
AcDbDictionaryWithDefault
340
F
  0
DICTIONARY
  5
17
102
{ACAD_REACTORS
330
C
102
}
100
AcDbDictionary
280
0
281
1
  3
Standard
350
18
  0
DICTIONARY
  5
19
102
{ACAD_REACTORS
330
C
102
}
100
AcDbDictionary
281
1
  0
DICTIONARY
  5
1A
102
{ACAD_REACTORS
330
C
102
}
100
AcDbDictionary
281
1
  3
Model
350
269
  3
Layout1
350
26A
  0
ACDBPLACEHOLDER
  5
F
102
{ACAD_REACTORS
330
E
102
}
  0
MLINESTYLE
  5
18
102
{ACAD_REACTORS
330
17
102
}
100
AcDbMlineStyle
  2
STANDARD
 70
0
  3

 62
256
 51
90.0
 52
90.0
 71
2
 49
0.5
 62
256
  6
BYLAYER
 49
-0.5
 62
256
  6
BYLAYER
  0
LAYOUT
  5
269
102
{ACAD_REACTORS
330
1A
102
}
100
AcDbPlotSettings
  1

  2
none_device
  4

  6

 40
0.0
 41
0.0
 42
0.0
 43
0.0
 44
210.0
 45
297.0
 46
0.0
 47
0.0
 48
0.0
 49
0.0
140
0.0
141
0.0
142
1.0
143
1.0
 70
1024
 72
1
 73
0
 74
0
  7

 75
0
147
1.0
148
0.0
149
0.0
100
AcDbLayout
  1
Model
 70
0
 71
0
 10
0.0
 20
0.0
 11
210.0
 21
297.0
 12
0.0
 22
0.0
 32
0.0
 14
0.0
 24
0.0
 34
0.0
 15
0.0
 25
0.0
 35
0.0
146
0.0
 13
0.0
 23
0.0
 33
0.0
 16
1.0
 26
0.0
 36
0.0
 17
0.0
 27
1.0
 37
0.0
 76
0
330
210
345
0
346
0
  0
LAYOUT
  5
26A
102
{ACAD_REACTORS
330
1A
102
}
100
AcDbPlotSettings
  1

  2
none_device
  4

  6

 40
0.0
 41
0.0
 42
0.0
 43
0.0
 44
210.0
 45
297.0
 46
0.0
 47
0.0
 48
0.0
 49
0.0
140
0.0
141
0.0
142
1.0
143
1.0
 70
0
 72
1
 73
0
 74
0
  7

 75
0
147
1.0
148
0.0
149
0.0
100
AcDbLayout
  1
Layout1
 70
0
 71
1
 10
0.0
 20
0.0
 11
210.0
 21
297.0
 12
0.0
 22
0.0
 32
0.0
 14
0.0
 24
0.0
 34
0.0
 15
0.0
 25
0.0
 35
0.0
146
0.0
 13
0.0
 23
0.0
 33
0.0
 16
1.0
 26
0.0
 36
0.0
 17
0.0
 27
1.0
 37
0.0
 76
0
330
211
345
0
346
0
  0
ENDSEC
  0
EOF
