999
DXF file: C:\Users\sesa63760\Dev\_Creo\CAD\MCADID0004531_3D-CAD\drw0001_7.dxf
999
Pro/ENGINEER 2019471 by Parametric Technology Corporation
  0
SECTION
  2
HEADER
  9
$ACADVER
  1
AC1024
  9
$DWGCODEPAGE
  3
ANSI_1252
  9
$EXTMAX
 10
92.2765952744
 20
130.5054704595
 30
0.0
  9
$EXTMIN
 10
0.0
 20
0.0
 30
0.0
  9
$LIMMIN
 10
0.0
 20
0.0
  9
$LIMMAX
 10
92.2765952744
 20
130.5054704595
  9
$VIEWCTR
 10
46.1382976372
 20
65.2527352298
  9
$VIEWSIZE
 40
130.5054704595
  9
$CLAYER
  8
0
  9
$LTSCALE
 40
8.5070232596
  9
$CELTYPE
  6
BYLAYER
  9
$DIMSCALE
 40
1.0
  9
$DIMASZ
 40
1.0985308961
  9
$DIMEXO
 40
1.0
  9
$DIMDLI
 40
5.8775797066
  9
$DIMEXE
 40
1.0
  9
$DIMCEN
 40
1.3920583516
  9
$DIMLFAC
 40
1.0
  9
$DIMBLK
  1
_FILLED
  9
$DIMALT
 70
0
  9
$DIMALTF
 40
0.0393700787
  9
$DIMTXT
 40
1.5379432546
  9
$DIMTOL
 70
1
  9
$DIMLIM
 70
0
  9
$DIMTFAC
 40
1.0
  9
$DIMTP
 40
0.01
  9
$DIMTM
 40
0.01
  9
$DIMGAP
 40
0.625
  9
$DIMDSEP
 70
46
  9
$AUNITS
 70
0
  9
$PDMODE
 70
3
  9
$PDSIZE
 40
0.3125
  9
$HANDSEED
  5
26B
  9
$TILEMODE
 70
1
  9
$MEASUREMENT
 70
1
  9
$INSUNITS
 70
4
  0
ENDSEC
  0
SECTION
  2
CLASSES
  0
CLASS
  1
ACDBDICTIONARYWDFLT
  2
AcDbDictionaryWithDefault
  3
AutoCAD 2000
 90
0
 91
1
280
0
281
0
  0
CLASS
  1
ACDBPLACEHOLDER
  2
AcDbPlaceHolder
  3
AutoCAD 2000
 90
0
 91
1
280
0
281
0
  0
CLASS
  1
LAYOUT
  2
AcDbLayout
  3
AutoCAD 2000
 90
0
 91
0
280
0
281
0
  0
ENDSEC
  0
SECTION
  2
TABLES
  0
TABLE
  2
VPORT
  5
8
100
AcDbSymbolTable
 70
2
  0
VPORT
  5
1F4
100
AcDbSymbolTableRecord
100
AcDbViewportTableRecord
  2
*ACTIVE
 70
0
 10
0.0
 20
0.0
 11
1.0
 21
1.0
 12
46.1382976372
 22
65.2527352298
 13
0.0
 23
0.0
 14
1.0
 24
1.0
 15
0.0
 25
0.0
 16
0.0
 26
0.0
 36
1.0
 17
0.0
 27
0.0
 37
0.0
 40
130.5054704595
 41
0.7070707071
 42
50.0
 43
0.0
 44
0.0
 50
0.0
 51
0.0
 71
0
 72
100
 73
1
 74
1
 75
0
 76
0
 77
0
 78
0
  0
ENDTAB
  0
TABLE
  2
LTYPE
  5
5
100
AcDbSymbolTable
 70
6
  0
LTYPE
  5
14
100
AcDbSymbolTableRecord
100
AcDbLinetypeTableRecord
  2
BYBLOCK
 70
0
  3

 72
65
 73
0
 40
0.0
  0
LTYPE
  5
15
100
AcDbSymbolTableRecord
100
AcDbLinetypeTableRecord
  2
BYLAYER
 70
0
  3

 72
65
 73
0
 40
0.0
  0
LTYPE
  5
16
100
AcDbSymbolTableRecord
100
AcDbLinetypeTableRecord
  2
CONTINUOUS
 70
64
  3
Solid line
 72
65
 73
0
 40
0.0
  0
LTYPE
  5
1F5
100
AcDbSymbolTableRecord
100
AcDbLinetypeTableRecord
  2
CENTER
 70
64
  3
____ _ ____ _ ____ _ ____ _ ____ _ ____ _ ____
 72
65
 73
4
 40
0.6
 49
0.375
 74
0
 49
-0.075
 74
0
 49
0.075
 74
0
 49
-0.075
 74
0
  0
LTYPE
  5
1F6
100
AcDbSymbolTableRecord
100
AcDbLinetypeTableRecord
  2
HIDDEN
 70
64
  3
- - - - - - - - - - - - - - - - - - - -
 72
65
 73
2
 40
0.2
 49
0.1
 74
0
 49
-0.1
 74
0
  0
LTYPE
  5
1F7
100
AcDbSymbolTableRecord
100
AcDbLinetypeTableRecord
  2
PHANTOM
 70
64
  3
_____ _ _ _____ _ _ _____ _ _ _____
 72
65
 73
6
 40
0.8
 49
0.45
 74
0
 49
-0.05
 74
0
 49
0.1
 74
0
 49
-0.05
 74
0
 49
0.1
 74
0
 49
-0.05
 74
0
  0
LTYPE
  5
1F8
100
AcDbSymbolTableRecord
100
AcDbLinetypeTableRecord
  2
DOT
 70
64
  3
. . . . . . . . . . . . . . . . . . . .
 72
65
 73
2
 40
0.2
 49
0.1
 74
0
 49
-0.1
 74
0
  0
LTYPE
  5
1F9
100
AcDbSymbolTableRecord
100
AcDbLinetypeTableRecord
  2
DASHED
 70
64
  3
- - - - - - - - - - - - - - - - - - - -
 72
65
 73
2
 40
0.2
 49
0.1
 74
0
 49
-0.1
 74
0
  0
ENDTAB
  0
TABLE
  2
LAYER
  5
2
100
AcDbSymbolTable
 70
36
  0
LAYER
  5
10
100
AcDbSymbolTableRecord
100
AcDbLayerTableRecord
  2
0
 70
0
 62
7
  6
CONTINUOUS
370
-3
390
F
  0
LAYER
  5
1FA
100
AcDbSymbolTableRecord
100
AcDbLayerTableRecord
  2
DEFAULT_1
 70
0
 62
7
  6
CENTER
370
-3
390
F
  0
LAYER
  5
1FB
100
AcDbSymbolTableRecord
100
AcDbLayerTableRecord
  2
DEFAULT_2
 70
0
 62
7
  6
HIDDEN
370
-3
390
F
  0
LAYER
  5
1FC
100
AcDbSymbolTableRecord
100
AcDbLayerTableRecord
  2
DEFAULT_3
 70
0
 62
7
  6
PHANTOM
370
-3
390
F
  0
LAYER
  5
1FD
100
AcDbSymbolTableRecord
100
AcDbLayerTableRecord
  2
00_COMPONENTS
 70
0
 62
7
  6
CONTINUOUS
370
-3
390
F
  0
LAYER
  5
1FE
100
AcDbSymbolTableRecord
100
AcDbLayerTableRecord
  2
01_1_DEFAULT_DATUMS
 70
0
 62
7
  6
CONTINUOUS
370
-3
390
F
  0
LAYER
  5
1FF
100
AcDbSymbolTableRecord
100
AcDbLayerTableRecord
  2
01_PLANES
 70
0
 62
7
  6
CONTINUOUS
370
-3
390
F
  0
LAYER
  5
200
100
AcDbSymbolTableRecord
100
AcDbLayerTableRecord
  2
02_COORD_SYS
 70
0
 62
7
  6
CONTINUOUS
370
-3
390
F
  0
LAYER
  5
201
100
AcDbSymbolTableRecord
100
AcDbLayerTableRecord
  2
03_AXES
 70
0
 62
7
  6
CONTINUOUS
370
-3
390
F
  0
LAYER
  5
202
100
AcDbSymbolTableRecord
100
AcDbLayerTableRecord
  2
04_POINTS
 70
0
 62
7
  6
CONTINUOUS
370
-3
390
F
  0
LAYER
  5
203
100
AcDbSymbolTableRecord
100
AcDbLayerTableRecord
  2
05_CURVES
 70
0
 62
7
  6
CONTINUOUS
370
-3
390
F
  0
LAYER
  5
204
100
AcDbSymbolTableRecord
100
AcDbLayerTableRecord
  2
06_SURFS
 70
0
 62
7
  6
CONTINUOUS
370
-3
390
F
  0
LAYER
  5
205
100
AcDbSymbolTableRecord
100
AcDbLayerTableRecord
  2
07_COSMETICS
 70
0
 62
7
  6
CONTINUOUS
370
-3
390
F
  0
LAYER
  5
206
100
AcDbSymbolTableRecord
100
AcDbLayerTableRecord
  2
10_NOTES
 70
0
 62
7
  6
CONTINUOUS
370
-3
390
F
  0
LAYER
  5
207
100
AcDbSymbolTableRecord
100
AcDbLayerTableRecord
  2
11_NOTES_PUB
 70
0
 62
7
  6
CONTINUOUS
370
-3
390
F
  0
LAYER
  5
208
100
AcDbSymbolTableRecord
100
AcDbLayerTableRecord
  2
13_REF_GTOL
 70
0
 62
7
  6
CONTINUOUS
370
-3
390
F
  0
LAYER
  5
209
100
AcDbSymbolTableRecord
100
AcDbLayerTableRecord
  2
16_MISC
 70
0
 62
7
  6
CONTINUOUS
370
-3
390
F
  0
LAYER
  5
20A
100
AcDbSymbolTableRecord
100
AcDbLayerTableRecord
  2
17_NO_PRINT
 70
0
 62
7
  6
CONTINUOUS
370
-3
390
F
  0
LAYER
  5
20B
100
AcDbSymbolTableRecord
100
AcDbLayerTableRecord
  2
18_DATUM_CAMS_JOINTS
 70
0
 62
7
  6
CONTINUOUS
370
-3
390
F
  0
LAYER
  5
20C
100
AcDbSymbolTableRecord
100
AcDbLayerTableRecord
  2
19_DATUM_FUNCTIONAL
 70
0
 62
7
  6
CONTINUOUS
370
-3
390
F
  0
LAYER
  5
20D
100
AcDbSymbolTableRecord
100
AcDbLayerTableRecord
  2
20_DATUM_KINEMATIC_SCHEME
 70
0
 62
7
  6
CONTINUOUS
370
-3
390
F
  0
ENDTAB
  0
TABLE
  2
STYLE
  5
3
100
AcDbSymbolTable
 70
1
  0
STYLE
  5
11
100
AcDbSymbolTableRecord
100
AcDbTextStyleTableRecord
  2
STANDARD
 70
0
 40
0.0
 41
1.0
 50
0.0
 71
0
 42
0.2
  3
ARIAL.TTF
  4

  0
STYLE
  5
20E
100
AcDbSymbolTableRecord
100
AcDbTextStyleTableRecord
  2
TEXTSTYLE_1
 70
0
 40
0.0
 41
0.8
 50
0.0
 71
0
 42
0.2
  3
gdt
  4

  0
ENDTAB
  0
TABLE
  2
VIEW
  5
6
100
AcDbSymbolTable
 70
0
  0
ENDTAB
  0
TABLE
  2
UCS
  5
7
100
AcDbSymbolTable
 70
0
  0
ENDTAB
  0
TABLE
  2
APPID
  5
9
100
AcDbSymbolTable
 70
1
  0
APPID
  5
20F
100
AcDbSymbolTableRecord
100
AcDbRegAppTableRecord
  2
ACAD
 70
0
  0
ENDTAB
  0
TABLE
  2
BLOCK_RECORD
  5
1
100
AcDbSymbolTable
 70
0
  0
BLOCK_RECORD
  5
210
100
AcDbSymbolTableRecord
100
AcDbBlockTableRecord
  2
*Model_Space
  0
BLOCK_RECORD
  5
211
100
AcDbSymbolTableRecord
100
AcDbBlockTableRecord
  2
*Paper_Space
  0
BLOCK_RECORD
  5
212
100
AcDbSymbolTableRecord
100
AcDbBlockTableRecord
  2
_FILLED
  0
ENDTAB
  0
TABLE
  2
DIMSTYLE
  5
A
100
AcDbSymbolTable
 70
1
100
AcDbDimStyleTable
 71
0
  0
DIMSTYLE
105
213
100
AcDbSymbolTableRecord
100
AcDbDimStyleTableRecord
  2
STANDARD
 70
0
  3

  4

 40
1.0
 41
1.0985308961
 42
1.0
 43
0.38
 44
1.0
 45
0.0
 46
0.0
 47
0.01
 48
0.01
140
1.5379432546
141
0.09
142
0.0
143
25.4
144
1.0
145
0.0
146
1.0
147
0.625
 71
1
 72
0
 73
0
 74
0
 75
0
 76
0
 77
1
 78
8
 79
2
170
0
171
1
172
0
173
0
174
0
175
0
176
0
177
0
178
0
270
2
179
2
271
2
272
2
273
2
274
2
275
0
280
0
281
0
282
0
283
1
284
8
285
0
286
0
287
3
288
0
340
11
278
46
341
212
342
212
343
212
344
212
  0
ENDTAB
  0
ENDSEC
  0
SECTION
  2
BLOCKS
  0
BLOCK
  5
20
100
AcDbEntity
  8
0
100
AcDbBlockBegin
  2
*Model_Space
 70
0
 10
0.0
 20
0.0
 30
0.0
  3
*Model_Space
  1

  0
ENDBLK
  5
21
100
AcDbEntity
  8
0
100
AcDbBlockEnd
  0
BLOCK
  5
1C
100
AcDbEntity
  8
0
100
AcDbBlockBegin
  2
*Paper_Space
 70
0
 10
0.0
 20
0.0
 30
0.0
  3
*Paper_Space
  1

  0
ENDBLK
  5
1D
100
AcDbEntity
  8
0
100
AcDbBlockEnd
  0
BLOCK
  5
214
100
AcDbEntity
  8
0
100
AcDbBlockBegin
  2
_FILLED
 70
64
 10
0.0
 20
0.0
  3
_FILLED
  1

  0
SOLID
  5
215
100
AcDbEntity
  8
0
  6
BYBLOCK
 62
0
100
AcDbTrace
 10
0.0
 20
0.0
 11
-1.0
 21
0.25
 12
-1.0
 22
-0.25
 13
-1.0
 23
-0.25
  0
ENDBLK
  5
216
100
AcDbEntity
  8
0
  6
BYBLOCK
 62
0
100
AcDbBlockEnd
  0
ENDSEC
  0
SECTION
  2
ENTITIES
  0
LINE
  5
217
100
AcDbEntity
  8
0
100
AcDbLine
 62
7
  6
BYLAYER
 10
51.959519592
 20
24.4624489801
 11
41.6365505183
 21
24.4624489801
  0
LINE
  5
218
100
AcDbEntity
  8
0
100
AcDbLine
 62
7
  6
BYLAYER
 10
9.7980350551
 20
104.6783570312
 11
9.7980350551
 21
101.683011206
  0
LINE
  5
219
100
AcDbEntity
  8
0
100
AcDbLine
 62
7
  6
BYLAYER
 10
9.7980350551
 20
70.183011206
 11
9.7980350551
 21
67.1817007796
  0
LINE
  5
21A
100
AcDbEntity
  8
0
100
AcDbLine
 62
7
  6
BYLAYER
 10
9.7980350551
 20
65.1780866596
 11
9.7980350551
 21
67.1807564959
  0
LINE
  5
21B
100
AcDbEntity
  8
0
100
AcDbLine
 62
7
  6
BYLAYER
 10
9.7980350551
 20
70.189893326
 11
9.7980350551
 21
101.6761290861
  0
LINE
  5
21C
100
AcDbEntity
  8
0
100
AcDbLine
 62
7
  6
BYLAYER
 10
9.7980350551
 20
104.679301315
 11
9.7980350551
 21
106.6819711512
  0
LINE
  5
21D
100
AcDbEntity
  8
0
100
AcDbLine
 62
7
  6
BYLAYER
 10
36.1874627996
 20
27.7640079692
 11
57.4086073107
 21
27.7640079692
  0
LINE
  5
21E
100
AcDbEntity
  8
0
100
AcDbLine
 62
7
  6
BYLAYER
 10
43.9849931002
 20
28.6279692135
 11
49.6110770101
 21
28.6279692135
  0
LINE
  5
21F
100
AcDbEntity
  8
0
100
AcDbLine
 62
7
  6
BYLAYER
 10
13.7980350551
 20
67.1819368767
 11
13.7980350551
 21
70.1819368767
  0
LINE
  5
220
100
AcDbEntity
  8
0
100
AcDbLine
 62
7
  6
BYLAYER
 10
13.7980350551
 20
101.683011206
 11
13.7980350551
 21
104.6781209342
  0
LINE
  5
221
100
AcDbEntity
  8
0
100
AcDbLine
 62
7
  6
BYLAYER
 10
49.2980350551
 20
40.683011206
 11
44.2980350551
 21
40.683011206
  0
LINE
  5
222
100
AcDbEntity
  8
0
100
AcDbLine
 62
7
  6
BYLAYER
 10
42.4901313905
 20
45.4927014078
 11
44.2980350551
 21
45.4927014078
  0
LINE
  5
223
100
AcDbEntity
  8
0
100
AcDbLine
 62
7
  6
BYLAYER
 10
49.2980350551
 20
45.4927014078
 11
51.1059386617
 21
45.4927014078
  0
LINE
  5
224
100
AcDbEntity
  8
0
100
AcDbLine
 62
7
  6
BYLAYER
 10
76.9380350551
 20
47.933011206
 11
72.4380350551
 21
47.933011206
  0
LINE
  5
225
100
AcDbEntity
  8
0
100
AcDbLine
 62
7
  6
BYLAYER
 10
72.4380350551
 20
49.683011206
 11
64.587853549
 21
49.683011206
  0
LINE
  5
226
100
AcDbEntity
  8
0
100
AcDbLine
 62
7
  6
BYLAYER
 10
32.4249460205
 20
40.0646433208
 11
32.4249460205
 21
58.3776053876
  0
LINE
  5
227
100
AcDbEntity
  8
0
100
AcDbLine
 62
7
  6
BYLAYER
 10
72.4380350551
 20
54.683011206
 11
64.1698736083
 21
54.683011206
  0
LINE
  5
228
100
AcDbEntity
  8
0
100
AcDbLine
 62
7
  6
BYLAYER
 10
76.9380350551
 20
56.433011206
 11
72.4380350551
 21
56.433011206
  0
LINE
  5
229
100
AcDbEntity
  8
0
100
AcDbLine
 62
7
  6
BYLAYER
 10
52.4380350551
 20
50.116011206
 11
52.6534193545
 21
49.9006269066
  0
LINE
  5
22A
100
AcDbEntity
  8
0
100
AcDbLine
 62
7
  6
BYLAYER
 10
44.2980350551
 20
46.3458457981
 11
44.2980350551
 21
40.683011206
  0
LINE
  5
22B
100
AcDbEntity
  8
0
100
AcDbLine
 62
7
  6
BYLAYER
 10
44.2980350551
 20
58.020176614
 11
44.2980350551
 21
65.183011206
  0
LINE
  5
22C
100
AcDbEntity
  8
0
100
AcDbLine
 62
7
  6
BYLAYER
 10
9.7980350551
 20
65.1780866596
 11
82.7980350551
 21
65.1780866596
  0
LINE
  5
22D
100
AcDbEntity
  8
0
100
AcDbLine
 62
7
  6
BYLAYER
 10
82.7980350551
 20
65.4644243649
 11
9.7980350551
 21
65.4644243649
  0
LINE
  5
22E
100
AcDbEntity
  8
0
100
AcDbLine
 62
7
  6
BYLAYER
 10
48.8256094917
 20
70.189893326
 11
48.8256094917
 21
101.6761290861
  0
LINE
  5
22F
100
AcDbEntity
  8
0
100
AcDbLine
 62
7
  6
BYLAYER
 10
49.2980350551
 20
40.683011206
 11
49.2980350551
 21
46.3458457981
  0
LINE
  5
230
100
AcDbEntity
  8
0
100
AcDbLine
 62
7
  6
BYLAYER
 10
49.2980350551
 20
58.020176614
 11
49.2980350551
 21
65.183011206
  0
LINE
  5
231
100
AcDbEntity
  8
0
100
AcDbLine
 62
7
  6
BYLAYER
 10
9.7980350551
 20
66.7834881303
 11
82.7980350551
 21
66.7834881303
  0
LINE
  5
232
100
AcDbEntity
  8
0
100
AcDbLine
 62
7
  6
BYLAYER
 10
82.7980350551
 20
67.181753171
 11
9.7980350551
 21
67.1817007796
  0
LINE
  5
233
100
AcDbEntity
  8
0
100
AcDbLine
 62
7
  6
BYLAYER
 10
52.4380350551
 20
50.1160151215
 11
52.4380350551
 21
54.2500072906
  0
LINE
  5
234
100
AcDbEntity
  8
0
100
AcDbLine
 62
7
  6
BYLAYER
 10
52.8710350551
 20
50.702114575
 11
52.8710350551
 21
53.6612930422
  0
LINE
  5
235
100
AcDbEntity
  8
0
100
AcDbLine
 62
7
  6
BYLAYER
 10
11.4472339129
 20
70.1819368767
 11
68.7980350551
 21
70.1819368767
  0
LINE
  5
236
100
AcDbEntity
  8
0
100
AcDbLine
 62
7
  6
BYLAYER
 10
9.7980350551
 20
70.183011206
 11
11.4479220783
 21
70.183011206
  0
LINE
  5
237
100
AcDbEntity
  8
0
100
AcDbLine
 62
7
  6
BYLAYER
 10
82.7980350551
 20
73.1564699317
 11
68.7980350551
 21
73.1564699317
  0
LINE
  5
238
100
AcDbEntity
  8
0
100
AcDbLine
 62
7
  6
BYLAYER
 10
48.8256094917
 20
73.1865431281
 11
9.7980350551
 21
73.1865431281
  0
LINE
  5
239
100
AcDbEntity
  8
0
100
AcDbLine
 62
7
  6
BYLAYER
 10
61.1711240898
 20
40.0646433208
 11
61.1711240898
 21
58.3776053876
  0
LINE
  5
23A
100
AcDbEntity
  8
0
100
AcDbLine
 62
7
  6
BYLAYER
 10
52.4380350551
 20
54.250011206
 11
52.6532227383
 21
54.4651988892
  0
LINE
  5
23B
100
AcDbEntity
  8
0
100
AcDbLine
 62
7
  6
BYLAYER
 10
68.7980350551
 20
70.1819368767
 11
68.7980350551
 21
67.1819368767
  0
LINE
  5
23C
100
AcDbEntity
  8
0
100
AcDbLine
 62
7
  6
BYLAYER
 10
68.7980350551
 20
70.183011206
 11
68.7980350551
 21
101.1878932371
  0
LINE
  5
23D
100
AcDbEntity
  8
0
100
AcDbLine
 62
7
  6
BYLAYER
 10
72.4380350551
 20
47.9330805432
 11
72.4380350551
 21
56.4329418688
  0
LINE
  5
23E
100
AcDbEntity
  8
0
100
AcDbLine
 62
7
  6
BYLAYER
 10
76.9380350551
 20
56.433011206
 11
76.9380350551
 21
47.933011206
  0
LINE
  5
23F
100
AcDbEntity
  8
0
100
AcDbLine
 62
7
  6
BYLAYER
 10
77.1880350551
 20
56.183011206
 11
77.1880350551
 21
48.183011206
  0
LINE
  5
240
100
AcDbEntity
  8
0
100
AcDbLine
 62
7
  6
BYLAYER
 10
9.7980350551
 20
98.679479284
 11
48.8256094917
 21
98.679479284
  0
LINE
  5
241
100
AcDbEntity
  8
0
100
AcDbLine
 62
7
  6
BYLAYER
 10
82.7980350551
 20
106.6819711512
 11
82.7980350551
 21
104.679301315
  0
LINE
  5
242
100
AcDbEntity
  8
0
100
AcDbLine
 62
7
  6
BYLAYER
 10
82.7980350551
 20
67.1807564959
 11
82.7980350551
 21
65.1780866596
  0
LINE
  5
243
100
AcDbEntity
  8
0
100
AcDbLine
 62
7
  6
BYLAYER
 10
82.7980350551
 20
67.181753171
 11
82.7980350551
 21
101.1878932371
  0
LINE
  5
244
100
AcDbEntity
  8
0
100
AcDbLine
 62
7
  6
BYLAYER
 10
82.7980350551
 20
101.6823412251
 11
82.7980350551
 21
104.6781209342
  0
LINE
  5
245
100
AcDbEntity
  8
0
100
AcDbLine
 62
7
  6
BYLAYER
 10
82.7980350551
 20
101.1878932371
 11
68.7980350551
 21
101.1878932371
  0
LINE
  5
246
100
AcDbEntity
  8
0
100
AcDbLine
 62
7
  6
BYLAYER
 10
82.7980350551
 20
101.6823412251
 11
9.7980350551
 21
101.683011206
  0
LINE
  5
247
100
AcDbEntity
  8
0
100
AcDbLine
 62
7
  6
BYLAYER
 10
82.7980350551
 20
105.0765696805
 11
9.7980350551
 21
105.0765696805
  0
LINE
  5
248
100
AcDbEntity
  8
0
100
AcDbLine
 62
7
  6
BYLAYER
 10
9.7980350551
 20
104.6783570312
 11
82.7980350551
 21
104.6781209342
  0
LINE
  5
249
100
AcDbEntity
  8
0
100
AcDbLine
 62
7
  6
BYLAYER
 10
9.7980350551
 20
106.395633446
 11
82.7980350551
 21
106.395633446
  0
LINE
  5
24A
100
AcDbEntity
  8
0
100
AcDbLine
 62
7
  6
BYLAYER
 10
82.7980350551
 20
106.6819711512
 11
9.7980350551
 21
106.6819711512
  0
ARC
  5
24B
100
AcDbEntity
  8
0
100
AcDbCircle
 62
7
  6
BYLAYER
 10
101.939909402
 20
55.4201580347
 40
37.7900903701
100
AcDbArc
 50
187.8226911331
 51
188.732191028
  0
ARC
  5
24C
100
AcDbEntity
  8
0
100
AcDbCircle
 62
7
  6
BYLAYER
 10
64.6481753856
 20
49.2211243542
 40
35.64295168
100
AcDbArc
 50
153.3956289386
 51
217.0133915134
  0
ARC
  5
24D
100
AcDbEntity
  8
0
100
AcDbCircle
 62
7
  6
BYLAYER
 10
28.9478947247
 20
49.2211243542
 40
35.64295168
100
AcDbArc
 50
322.9866084866
 51
0.7425004584
  0
ARC
  5
24E
100
AcDbEntity
  8
0
100
AcDbCircle
 62
7
  6
BYLAYER
 10
28.9478947247
 20
49.2211243542
 40
35.64295168
100
AcDbArc
 50
8.8146727231
 51
26.6043710614
  0
ARC
  5
24F
100
AcDbEntity
  8
0
100
AcDbCircle
 62
7
  6
BYLAYER
 10
52.3064469142
 20
49.2204836601
 40
12.2406788467
100
AcDbArc
 50
0.0029989403
 51
4.951714961
  0
ARC
  5
250
100
AcDbEntity
  8
0
100
AcDbCircle
 62
7
  6
BYLAYER
 10
76.3096497021
 20
52.2220894088
 40
11.967346717
100
AcDbArc
 50
184.8500496266
 51
189.3557644788
  0
ARC
  5
251
100
AcDbEntity
  8
0
100
AcDbCircle
 62
7
  6
BYLAYER
 10
46.7980350551
 20
52.183011206
 40
6.35
100
AcDbArc
 50
293.1849701053
 51
66.8150298947
  0
ARC
  5
252
100
AcDbEntity
  8
0
100
AcDbCircle
 62
7
  6
BYLAYER
 10
46.7980350551
 20
52.183011206
 40
6.35
100
AcDbArc
 50
113.1849701053
 51
246.8150298947
  0
ARC
  5
253
100
AcDbEntity
  8
0
100
AcDbCircle
 62
7
  6
BYLAYER
 10
51.959519592
 20
30.6099763843
 40
6.1475274042
100
AcDbArc
 50
270.0
 51
332.4226790486
  0
ARC
  5
254
100
AcDbEntity
  8
0
100
AcDbCircle
 62
7
  6
BYLAYER
 10
41.6365505183
 20
30.6099763843
 40
6.1475274042
100
AcDbArc
 50
207.5773209514
 51
270.0
  0
ARC
  5
255
100
AcDbEntity
  8
0
100
AcDbCircle
 62
7
  6
BYLAYER
 10
76.9380350551
 20
48.183011206
 40
0.25
100
AcDbArc
 50
270.0
 51
360.0
  0
ARC
  5
256
100
AcDbEntity
  8
0
100
AcDbCircle
 62
7
  6
BYLAYER
 10
76.9380350551
 20
56.183011206
 40
0.25
100
AcDbArc
 50
0.0
 51
90.0
  0
SPLINE
  5
257
100
AcDbEntity
  8
0
100
AcDbSpline
 62
7
  6
BYLAYER
 70
0
 71
3
 72
9
 73
5
 74
0
 42
0.0000001
 43
0.0000001
 44
0.0000000001
 40
0.0
 40
0.0
 40
0.0
 40
0.0
 40
0.3222918735
 40
1.0
 40
1.0
 40
1.0
 40
1.0
 10
64.1698736083
 20
54.683011206
 30
0.0
 10
64.1740157826
 20
54.3091717612
 30
0.0
 10
64.2064636387
 20
53.1492616857
 30
0.0
 10
64.2978819081
 20
51.9916370902
 30
0.0
 10
64.3851534595
 20
51.210270846
 30
0.0
  0
SPLINE
  5
258
100
AcDbEntity
  8
0
100
AcDbSpline
 62
7
  6
BYLAYER
 70
0
 71
3
 72
13
 73
9
 74
0
 42
0.0000001
 43
0.0000001
 44
0.0000000001
 40
0.0
 40
0.0
 40
0.0
 40
0.0
 40
0.2586191757
 40
0.503087589
 40
0.62155692
 40
0.7392631122
 40
0.8602151961
 40
1.0
 40
1.0
 40
1.0
 40
1.0
 10
32.4249460205
 20
58.3776053876
 30
0.0
 10
31.9234170048
 20
57.6849909931
 30
0.0
 10
31.0134095535
 20
56.2878458053
 30
0.0
 10
30.1156485735
 20
54.4309093901
 30
0.0
 10
29.5934937112
 20
52.9282466648
 30
0.0
 10
29.2992626061
 20
51.7830740272
 30
0.0
 10
29.0982247175
 20
50.546295979
 30
0.0
 10
29.0489443662
 20
49.6833254873
 30
0.0
 10
29.0489443662
 20
49.2211243542
 30
0.0
  0
SPLINE
  5
259
100
AcDbEntity
  8
0
100
AcDbSpline
 62
7
  6
BYLAYER
 70
0
 71
3
 72
13
 73
9
 74
0
 42
0.0000001
 43
0.0000001
 44
0.0000000001
 40
0.0
 40
0.0
 40
0.0
 40
0.0
 40
0.2498978587
 40
0.374951363
 40
0.5
 40
0.625048637
 40
0.7501021413
 40
1.0
 40
1.0
 40
1.0
 40
1.0
 10
49.6110770101
 20
28.6279692135
 30
0.0
 10
49.1605416111
 20
28.4687047189
 30
0.0
 10
48.4641563356
 20
28.2811536649
 30
0.0
 10
47.515684163
 20
28.1534040664
 30
0.0
 10
46.7980350551
 20
28.1211257749
 30
0.0
 10
46.0803859473
 20
28.1534040664
 30
0.0
 10
45.1319137747
 20
28.2811536649
 30
0.0
 10
44.4355284991
 20
28.4687047189
 30
0.0
 10
43.9849931002
 20
28.6279692135
 30
0.0
  0
SPLINE
  5
25A
100
AcDbEntity
  8
0
100
AcDbSpline
 62
7
  6
BYLAYER
 70
0
 71
3
 72
15
 73
11
 74
0
 42
0.0000001
 43
0.0000001
 44
0.0000000001
 40
0.0
 40
0.0
 40
0.0
 40
0.0
 40
0.1320413038
 40
0.2618226286
 40
0.3890863786
 40
0.5139392817
 40
0.6367232822
 40
0.7580603299
 40
0.8788396252
 40
1.0
 40
1.0
 40
1.0
 40
1.0
 10
42.8107536399
 20
65.1797901573
 30
0.0
 10
42.2611279932
 20
65.0664039505
 30
0.0
 10
41.18049622
 20
64.7936098532
 30
0.0
 10
39.6179813308
 20
64.2453839713
 30
0.0
 10
38.1409195923
 20
63.5664893804
 30
0.0
 10
36.7620142303
 20
62.7629145145
 30
0.0
 10
35.4908191238
 20
61.8399217767
 30
0.0
 10
34.3355504764
 20
60.800790733
 30
0.0
 10
33.3030534619
 20
59.6489493667
 30
0.0
 10
32.7022661383
 20
58.8115070571
 30
0.0
 10
32.4249460205
 20
58.3776053876
 30
0.0
  0
SPLINE
  5
25B
100
AcDbEntity
  8
0
100
AcDbSpline
 62
7
  6
BYLAYER
 70
0
 71
3
 72
12
 73
8
 74
0
 42
0.0000001
 43
0.0000001
 44
0.0000000001
 40
0.0
 40
0.0
 40
0.0
 40
0.0
 40
0.2467633052
 40
0.3699739963
 40
0.4936261206
 40
0.7438245803
 40
1.0
 40
1.0
 40
1.0
 40
1.0
 10
32.4249460205
 20
40.0646433208
 30
0.0
 10
32.8078825825
 20
39.4654916442
 30
0.0
 10
33.4503555859
 20
38.6081520057
 30
0.0
 10
34.4263964303
 20
37.572157223
 30
0.0
 10
35.4836529833
 20
36.6040210597
 30
0.0
 10
36.9536139279
 20
35.5277007594
 30
0.0
 10
38.2431958417
 20
34.8342342783
 30
0.0
 10
38.9145672863
 20
34.5273297996
 30
0.0
  0
SPLINE
  5
25C
100
AcDbEntity
  8
0
100
AcDbSpline
 62
7
  6
BYLAYER
 70
0
 71
3
 72
17
 73
13
 74
0
 42
0.0000001
 43
0.0000001
 44
0.0000000001
 40
0.0
 40
0.0
 40
0.0
 40
0.0
 40
0.2484042291
 40
0.3731059861
 40
0.4980868328
 40
0.5606754687
 40
0.6233130072
 40
0.6860082503
 40
0.7487543728
 40
0.8115320788
 40
0.8743615322
 40
1.0
 40
1.0
 40
1.0
 40
1.0
 10
54.681521201
 20
34.527259895
 30
0.0
 10
54.2639628525
 20
35.393741876
 30
0.0
 10
53.6495677528
 20
36.7016569898
 30
0.0
 10
52.8857053266
 20
38.4727735382
 30
0.0
 10
52.4409161965
 20
39.5974602712
 30
0.0
 10
52.1131345756
 20
40.5092401548
 30
0.0
 10
51.8848500548
 20
41.2002541711
 30
0.0
 10
51.6773284872
 20
41.898456536
 30
0.0
 10
51.4944224493
 20
42.6041057412
 30
0.0
 10
51.340773609
 20
43.31734763
 30
0.0
 10
51.1815371327
 20
44.2772942736
 30
0.0
 10
51.1187394958
 20
45.0063808912
 30
0.0
 10
51.1061189148
 20
45.4927014078
 30
0.0
  0
SPLINE
  5
25D
100
AcDbEntity
  8
0
100
AcDbSpline
 62
7
  6
BYLAYER
 70
0
 71
3
 72
14
 73
10
 74
0
 42
0.0000001
 43
0.0000001
 44
0.0000000001
 40
0.0
 40
0.0
 40
0.0
 40
0.0
 40
0.2502638652
 40
0.3751822033
 40
0.5000001738
 40
0.6247832629
 40
0.7496237062
 40
0.8746448984
 40
1.0
 40
1.0
 40
1.0
 40
1.0
 10
54.681521201
 20
34.527259895
 30
0.0
 10
54.368766359
 20
33.9505603366
 30
0.0
 10
53.8665318039
 20
33.1031597362
 30
0.0
 10
53.1220867968
 20
32.0238888554
 30
0.0
 10
52.5234463831
 20
31.2450951687
 30
0.0
 10
51.8800656989
 20
30.5029395317
 30
0.0
 10
51.1864405843
 20
29.8063084683
 30
0.0
 10
50.4360915942
 20
29.1684448147
 30
0.0
 10
49.8934989613
 20
28.7959638478
 30
0.0
 10
49.6110782842
 20
28.6279692135
 30
0.0
  0
SPLINE
  5
25E
100
AcDbEntity
  8
0
100
AcDbSpline
 62
7
  6
BYLAYER
 70
0
 71
3
 72
23
 73
19
 74
0
 42
0.0000001
 43
0.0000001
 44
0.0000000001
 40
0.0
 40
0.0
 40
0.0
 40
0.0
 40
0.0621298175
 40
0.1242290906
 40
0.186413319
 40
0.2488210267
 40
0.3115102059
 40
0.3744481195
 40
0.4375255769
 40
0.5006060974
 40
0.5635491192
 40
0.6262457324
 40
0.688662939
 40
0.750863169
 40
0.8129574951
 40
0.875090199
 40
0.9374225874
 40
1.0
 40
1.0
 40
1.0
 40
1.0
 10
51.1059386617
 20
45.4927014078
 30
0.0
 10
51.3854989269
 20
45.6804483557
 30
0.0
 10
51.9186718284
 20
46.0961073565
 30
0.0
 10
52.6204329417
 20
46.8276900383
 30
0.0
 10
53.2107280499
 20
47.6539156834
 30
0.0
 10
53.6787441297
 20
48.5585020071
 30
0.0
 10
54.0171643222
 20
49.523295768
 30
0.0
 10
54.2221529314
 20
50.5285144385
 30
0.0
 10
54.2913666825
 20
51.5541398165
 30
0.0
 10
54.2241912288
 20
52.5799244558
 30
0.0
 10
54.021256656
 20
53.585649199
 30
0.0
 10
53.684752679
 20
54.5512275036
 30
0.0
 10
53.2187772781
 20
55.4570717537
 30
0.0
 10
52.6302515826
 20
56.2846631087
 30
0.0
 10
51.9298036563
 20
57.0178237437
 30
0.0
 10
51.130803507
 20
57.6432598757
 30
0.0
 10
50.2496058811
 20
58.1508697491
 30
0.0
 10
49.620057362
 20
58.4064339331
 30
0.0
 10
49.2980350551
 20
58.5129436958
 30
0.0
  0
SPLINE
  5
25F
100
AcDbEntity
  8
0
100
AcDbSpline
 62
7
  6
BYLAYER
 70
0
 71
3
 72
17
 73
13
 74
0
 42
0.0000001
 43
0.0000001
 44
0.0000000001
 40
0.0
 40
0.0
 40
0.0
 40
0.0
 40
0.1256383053
 40
0.1884674936
 40
0.2512451978
 40
0.3139913785
 40
0.3766865393
 40
0.4393241268
 40
0.5019128687
 40
0.6268937628
 40
0.7515956181
 40
1.0
 40
1.0
 40
1.0
 40
1.0
 10
42.4899511956
 20
45.4927014078
 30
0.0
 10
42.4773306467
 20
45.0063821257
 30
0.0
 10
42.4145354964
 20
44.2772977655
 30
0.0
 10
42.2552955195
 20
43.3173545909
 30
0.0
 10
42.1016479438
 20
42.6041142586
 30
0.0
 10
41.9187453926
 20
41.8984652093
 30
0.0
 10
41.711227355
 20
41.2002625969
 30
0.0
 10
41.4829401508
 20
40.5092500772
 30
0.0
 10
41.1551549335
 20
39.5974719828
 30
0.0
 10
40.7103697322
 20
38.4727843139
 30
0.0
 10
39.9465064694
 20
36.7016694145
 30
0.0
 10
39.3321128414
 20
35.3937545751
 30
0.0
 10
38.9145550385
 20
34.5272730038
 30
0.0
  0
SPLINE
  5
260
100
AcDbEntity
  8
0
100
AcDbSpline
 62
7
  6
BYLAYER
 70
0
 71
3
 72
14
 73
10
 74
0
 42
0.0000001
 43
0.0000001
 44
0.0000000001
 40
0.0
 40
0.0
 40
0.0
 40
0.0
 40
0.2502634496
 40
0.3751817573
 40
0.4999996572
 40
0.6247828008
 40
0.7496234686
 40
0.8746448163
 40
1.0
 40
1.0
 40
1.0
 40
1.0
 10
38.9145550385
 20
34.5272730038
 30
0.0
 10
39.2273141048
 20
33.9505761943
 30
0.0
 10
39.7295276605
 20
33.1031634228
 30
0.0
 10
40.4739797053
 20
32.0238969378
 30
0.0
 10
41.0726180795
 20
31.2451007458
 30
0.0
 10
41.7160001212
 20
30.5029440815
 30
0.0
 10
42.4096264664
 20
29.8063112363
 30
0.0
 10
43.1599769587
 20
29.1684458595
 30
0.0
 10
43.7025706684
 20
28.7959641336
 30
0.0
 10
43.9849918261
 20
28.6279692135
 30
0.0
  0
SPLINE
  5
261
100
AcDbEntity
  8
0
100
AcDbSpline
 62
7
  6
BYLAYER
 70
0
 71
3
 72
12
 73
8
 74
0
 42
0.0000001
 43
0.0000001
 44
0.0000000001
 40
0.0
 40
0.0
 40
0.0
 40
0.0
 40
0.2561762972
 40
0.5063735273
 40
0.6300256627
 40
0.753235861
 40
1.0
 40
1.0
 40
1.0
 40
1.0
 10
54.681505346
 20
34.5273243245
 30
0.0
 10
55.3528750909
 20
34.8342399453
 30
0.0
 10
56.6424500645
 20
35.5277259619
 30
0.0
 10
58.1123726889
 20
36.6040869107
 30
0.0
 10
59.1697116108
 20
37.5721235293
 30
0.0
 10
60.1458212682
 20
38.6080640979
 30
0.0
 10
60.7881859446
 20
39.4654891669
 30
0.0
 10
61.1711240898
 20
40.0646433208
 30
0.0
  0
SPLINE
  5
262
100
AcDbEntity
  8
0
100
AcDbSpline
 62
7
  6
BYLAYER
 70
0
 71
3
 72
15
 73
11
 74
0
 42
0.0000001
 43
0.0000001
 44
0.0000000001
 40
0.0
 40
0.0
 40
0.0
 40
0.0
 40
0.1211610767
 40
0.2419376943
 40
0.3632720244
 40
0.486056261
 40
0.6109108077
 40
0.7381769225
 40
0.8679579951
 40
1.0
 40
1.0
 40
1.0
 40
1.0
 10
61.1711240898
 20
58.3776053876
 30
0.0
 10
60.8938018189
 20
58.8115104259
 30
0.0
 10
60.2930221811
 20
59.6489566813
 30
0.0
 10
59.2603110013
 20
60.8005954885
 30
0.0
 10
58.1049141826
 20
61.8395290119
 30
0.0
 10
56.8339609284
 20
62.7628372751
 30
0.0
 10
55.4551790516
 20
63.5666725929
 30
0.0
 10
53.9782591467
 20
64.2459220884
 30
0.0
 10
52.4156852822
 20
64.7941126861
 30
0.0
 10
51.3349314325
 20
65.0664111495
 30
0.0
 10
50.7853008084
 20
65.1797934518
 30
0.0
  0
SPLINE
  5
263
100
AcDbEntity
  8
0
100
AcDbSpline
 62
7
  6
BYLAYER
 70
0
 71
3
 72
11
 73
7
 74
0
 42
0.0000001
 43
0.0000001
 44
0.0000000001
 40
0.0
 40
0.0
 40
0.0
 40
0.0
 40
0.240237422
 40
0.4830717736
 40
0.7354594846
 40
1.0
 40
1.0
 40
1.0
 40
1.0
 10
64.3851140802
 20
51.2106521969
 30
0.0
 10
64.2832193726
 20
51.8367997395
 30
0.0
 10
63.9832789297
 20
53.0819795605
 30
0.0
 10
63.2779367521
 20
54.8965233715
 30
0.0
 10
62.3371746832
 20
56.6728950536
 30
0.0
 10
61.5808261719
 20
57.8118045053
 30
0.0
 10
61.1711240898
 20
58.3776053876
 30
0.0
  0
SPLINE
  5
264
100
AcDbEntity
  8
0
100
AcDbSpline
 62
7
  6
BYLAYER
 70
0
 71
3
 72
13
 73
9
 74
0
 42
0.0000001
 43
0.0000001
 44
0.0000000001
 40
0.0
 40
0.0
 40
0.0
 40
0.0
 40
0.2586191757
 40
0.503087589
 40
0.62155692
 40
0.7392631122
 40
0.8602151961
 40
1.0
 40
1.0
 40
1.0
 40
1.0
 10
61.1711240898
 20
40.0646433208
 30
0.0
 10
61.6726531055
 20
40.7572577153
 30
0.0
 10
62.5826605568
 20
42.1544029031
 30
0.0
 10
63.4804215368
 20
44.0113393183
 30
0.0
 10
64.0025763991
 20
45.5140020436
 30
0.0
 10
64.2968075042
 20
46.6591746812
 30
0.0
 10
64.4978453928
 20
47.8959527293
 30
0.0
 10
64.5471257441
 20
48.7589232211
 30
0.0
 10
64.5471257441
 20
49.2211243542
 30
0.0
  0
SPLINE
  5
265
100
AcDbEntity
  8
0
100
AcDbSpline
 62
7
  6
BYLAYER
 70
0
 71
3
 72
23
 73
19
 74
0
 42
0.0000001
 43
0.0000001
 44
0.0000000001
 40
0.0
 40
0.0
 40
0.0
 40
0.0
 40
0.062577729
 40
0.1249096879
 40
0.1870411111
 40
0.2491341749
 40
0.3113335552
 40
0.373750723
 40
0.4364482642
 40
0.4993925931
 40
0.5624742896
 40
0.6255525643
 40
0.6884907314
 40
0.7511795706
 40
0.8135866811
 40
0.8757703584
 40
0.93786974
 40
1.0
 40
1.0
 40
1.0
 40
1.0
 10
44.2980350551
 20
58.5129436945
 30
0.0
 10
43.9760112496
 20
58.4064334361
 30
0.0
 10
43.3464640344
 20
58.1508686453
 30
0.0
 10
42.4652717272
 20
57.643265455
 30
0.0
 10
41.6662875518
 20
57.0178349243
 30
0.0
 10
40.9658610973
 20
56.284680155
 30
0.0
 10
40.3773374629
 20
55.4571040844
 30
0.0
 10
39.9113331284
 20
54.5512748594
 30
0.0
 10
39.5748185919
 20
53.5856866729
 30
0.0
 10
39.3718834503
 20
52.5799437345
 30
0.0
 10
39.3047023589
 20
51.5541420784
 30
0.0
 10
39.3739162415
 20
50.5285044582
 30
0.0
 10
39.5789117287
 20
49.5232836092
 30
0.0
 10
39.9173298077
 20
48.5584937173
 30
0.0
 10
40.385342446
 20
47.6539150442
 30
0.0
 10
40.9756356735
 20
46.8276954217
 30
0.0
 10
41.677397104
 20
46.096114101
 30
0.0
 10
42.2105692469
 20
45.6804496177
 30
0.0
 10
42.4901313905
 20
45.4927014078
 30
0.0
  0
SPLINE
  5
266
100
AcDbEntity
  8
0
100
AcDbSpline
 62
7
  6
BYLAYER
 70
0
 71
3
 72
13
 73
9
 74
0
 42
0.0000001
 43
0.0000001
 44
0.0000000001
 40
0.0
 40
0.0
 40
0.0
 40
0.0
 40
0.2586192427
 40
0.5030876252
 40
0.6215569345
 40
0.7392631036
 40
0.8602151409
 40
1.0
 40
1.0
 40
1.0
 40
1.0
 10
32.4249460205
 20
40.0646433208
 30
0.0
 10
31.923416875
 20
40.7572578946
 30
0.0
 10
31.0134093706
 20
42.1544031952
 30
0.0
 10
30.1156484349
 20
44.0113396821
 30
0.0
 10
29.5934936702
 20
45.5140021762
 30
0.0
 10
29.2992626616
 20
46.6591745254
 30
0.0
 10
29.0982247396
 20
47.8959525171
 30
0.0
 10
29.0489443662
 20
48.7589230386
 30
0.0
 10
29.0489443662
 20
49.2211243542
 30
0.0
  0
ELLIPSE
  5
267
100
AcDbEntity
  8
0
100
AcDbEllipse
 62
7
  6
BYLAYER
 10
46.7980350551
 20
577.3361681217
 30
0.0
 11
-0.0
 21
519.9198861531
 31
0.0
 40
0.0413184757
 41
-3.0249534686
 42
-2.968528155
  0
ELLIPSE
  5
268
100
AcDbEntity
  8
0
100
AcDbEllipse
 62
7
  6
BYLAYER
 10
46.7980350551
 20
577.3361681217
 30
0.0
 11
-0.0
 21
519.9198861531
 31
0.0
 40
0.0413184757
 41
-3.3146571522
 42
-3.2582318386
  0
ENDSEC
  0
SECTION
  2
OBJECTS
  0
DICTIONARY
  5
C
100
AcDbDictionary
280
0
281
1
  3
ACAD_GROUP
350
D
  3
ACAD_MLINESTYLE
350
17
  3
ACAD_LAYOUT
350
1A
  3
ACAD_PLOTSETTINGS
350
19
  3
ACAD_PLOTSTYLENAME
350
E
  0
DICTIONARY
  5
D
102
{ACAD_REACTORS
330
C
102
}
100
AcDbDictionary
280
0
281
1
  0
ACDBDICTIONARYWDFLT
  5
E
102
{ACAD_REACTORS
330
C
102
}
100
AcDbDictionary
281
1
  3
Normal
350
F
100
AcDbDictionaryWithDefault
340
F
  0
DICTIONARY
  5
17
102
{ACAD_REACTORS
330
C
102
}
100
AcDbDictionary
280
0
281
1
  3
Standard
350
18
  0
DICTIONARY
  5
19
102
{ACAD_REACTORS
330
C
102
}
100
AcDbDictionary
281
1
  0
DICTIONARY
  5
1A
102
{ACAD_REACTORS
330
C
102
}
100
AcDbDictionary
281
1
  3
Model
350
269
  3
Layout1
350
26A
  0
ACDBPLACEHOLDER
  5
F
102
{ACAD_REACTORS
330
E
102
}
  0
MLINESTYLE
  5
18
102
{ACAD_REACTORS
330
17
102
}
100
AcDbMlineStyle
  2
STANDARD
 70
0
  3

 62
256
 51
90.0
 52
90.0
 71
2
 49
0.5
 62
256
  6
BYLAYER
 49
-0.5
 62
256
  6
BYLAYER
  0
LAYOUT
  5
269
102
{ACAD_REACTORS
330
1A
102
}
100
AcDbPlotSettings
  1

  2
none_device
  4

  6

 40
0.0
 41
0.0
 42
0.0
 43
0.0
 44
210.0
 45
297.0
 46
0.0
 47
0.0
 48
0.0
 49
0.0
140
0.0
141
0.0
142
1.0
143
1.0
 70
1024
 72
1
 73
0
 74
0
  7

 75
0
147
1.0
148
0.0
149
0.0
100
AcDbLayout
  1
Model
 70
0
 71
0
 10
0.0
 20
0.0
 11
210.0
 21
297.0
 12
0.0
 22
0.0
 32
0.0
 14
0.0
 24
0.0
 34
0.0
 15
0.0
 25
0.0
 35
0.0
146
0.0
 13
0.0
 23
0.0
 33
0.0
 16
1.0
 26
0.0
 36
0.0
 17
0.0
 27
1.0
 37
0.0
 76
0
330
210
345
0
346
0
  0
LAYOUT
  5
26A
102
{ACAD_REACTORS
330
1A
102
}
100
AcDbPlotSettings
  1

  2
none_device
  4

  6

 40
0.0
 41
0.0
 42
0.0
 43
0.0
 44
210.0
 45
297.0
 46
0.0
 47
0.0
 48
0.0
 49
0.0
140
0.0
141
0.0
142
1.0
143
1.0
 70
0
 72
1
 73
0
 74
0
  7

 75
0
147
1.0
148
0.0
149
0.0
100
AcDbLayout
  1
Layout1
 70
0
 71
1
 10
0.0
 20
0.0
 11
210.0
 21
297.0
 12
0.0
 22
0.0
 32
0.0
 14
0.0
 24
0.0
 34
0.0
 15
0.0
 25
0.0
 35
0.0
146
0.0
 13
0.0
 23
0.0
 33
0.0
 16
1.0
 26
0.0
 36
0.0
 17
0.0
 27
1.0
 37
0.0
 76
0
330
211
345
0
346
0
  0
ENDSEC
  0
EOF
