999
DXF file: C:\Users\sesa63760\Dev\_Creo\CAD\MCADID0003600_3D-CAD\drw0001_7.dxf
999
Pro/ENGINEER 2019471 by Parametric Technology Corporation
  0
SECTION
  2
HEADER
  9
$ACADVER
  1
AC1024
  9
$DWGCODEPAGE
  3
ANSI_1252
  9
$EXTMAX
 10
93.8312121212
 20
132.7041428571
 30
0.0
  9
$EXTMIN
 10
0.0
 20
0.0
 30
0.0
  9
$LIMMIN
 10
0.0
 20
0.0
  9
$LIMMAX
 10
93.8312121212
 20
132.7041428571
  9
$VIEWCTR
 10
46.9156060606
 20
66.3520714286
  9
$VIEWSIZE
 40
132.7041428571
  9
$CLAYER
  8
0
  9
$LTSCALE
 40
8.650344127
  9
$CELTYPE
  6
BYLAYER
  9
$DIMSCALE
 40
1.0
  9
$DIMASZ
 40
1.1170382395
  9
$DIMEXO
 40
1.0
  9
$DIMDLI
 40
5.9766013968
  9
$DIMEXE
 40
1.0
  9
$DIMCEN
 40
1.4155108571
  9
$DIMLFAC
 40
1.0
  9
$DIMBLK
  1
_FILLED
  9
$DIMALT
 70
0
  9
$DIMALTF
 40
0.0393700787
  9
$DIMTXT
 40
1.5638535354
  9
$DIMTOL
 70
1
  9
$DIMLIM
 70
0
  9
$DIMTFAC
 40
1.0
  9
$DIMTP
 40
0.01
  9
$DIMTM
 40
0.01
  9
$DIMGAP
 40
0.625
  9
$DIMDSEP
 70
46
  9
$AUNITS
 70
0
  9
$PDMODE
 70
3
  9
$PDSIZE
 40
0.3125
  9
$HANDSEED
  5
29C
  9
$TILEMODE
 70
1
  9
$MEASUREMENT
 70
1
  9
$INSUNITS
 70
4
  0
ENDSEC
  0
SECTION
  2
CLASSES
  0
CLASS
  1
ACDBDICTIONARYWDFLT
  2
AcDbDictionaryWithDefault
  3
AutoCAD 2000
 90
0
 91
1
280
0
281
0
  0
CLASS
  1
ACDBPLACEHOLDER
  2
AcDbPlaceHolder
  3
AutoCAD 2000
 90
0
 91
1
280
0
281
0
  0
CLASS
  1
LAYOUT
  2
AcDbLayout
  3
AutoCAD 2000
 90
0
 91
0
280
0
281
0
  0
ENDSEC
  0
SECTION
  2
TABLES
  0
TABLE
  2
VPORT
  5
8
100
AcDbSymbolTable
 70
2
  0
VPORT
  5
1F4
100
AcDbSymbolTableRecord
100
AcDbViewportTableRecord
  2
*ACTIVE
 70
0
 10
0.0
 20
0.0
 11
1.0
 21
1.0
 12
46.9156060606
 22
66.3520714286
 13
0.0
 23
0.0
 14
1.0
 24
1.0
 15
0.0
 25
0.0
 16
0.0
 26
0.0
 36
1.0
 17
0.0
 27
0.0
 37
0.0
 40
132.7041428571
 41
0.7070707071
 42
50.0
 43
0.0
 44
0.0
 50
0.0
 51
0.0
 71
0
 72
100
 73
1
 74
1
 75
0
 76
0
 77
0
 78
0
  0
ENDTAB
  0
TABLE
  2
LTYPE
  5
5
100
AcDbSymbolTable
 70
6
  0
LTYPE
  5
14
100
AcDbSymbolTableRecord
100
AcDbLinetypeTableRecord
  2
BYBLOCK
 70
0
  3

 72
65
 73
0
 40
0.0
  0
LTYPE
  5
15
100
AcDbSymbolTableRecord
100
AcDbLinetypeTableRecord
  2
BYLAYER
 70
0
  3

 72
65
 73
0
 40
0.0
  0
LTYPE
  5
16
100
AcDbSymbolTableRecord
100
AcDbLinetypeTableRecord
  2
CONTINUOUS
 70
64
  3
Solid line
 72
65
 73
0
 40
0.0
  0
LTYPE
  5
1F5
100
AcDbSymbolTableRecord
100
AcDbLinetypeTableRecord
  2
CENTER
 70
64
  3
____ _ ____ _ ____ _ ____ _ ____ _ ____ _ ____
 72
65
 73
4
 40
0.6
 49
0.375
 74
0
 49
-0.075
 74
0
 49
0.075
 74
0
 49
-0.075
 74
0
  0
LTYPE
  5
1F6
100
AcDbSymbolTableRecord
100
AcDbLinetypeTableRecord
  2
HIDDEN
 70
64
  3
- - - - - - - - - - - - - - - - - - - -
 72
65
 73
2
 40
0.2
 49
0.1
 74
0
 49
-0.1
 74
0
  0
LTYPE
  5
1F7
100
AcDbSymbolTableRecord
100
AcDbLinetypeTableRecord
  2
PHANTOM
 70
64
  3
_____ _ _ _____ _ _ _____ _ _ _____
 72
65
 73
6
 40
0.8
 49
0.45
 74
0
 49
-0.05
 74
0
 49
0.1
 74
0
 49
-0.05
 74
0
 49
0.1
 74
0
 49
-0.05
 74
0
  0
LTYPE
  5
1F8
100
AcDbSymbolTableRecord
100
AcDbLinetypeTableRecord
  2
DOT
 70
64
  3
. . . . . . . . . . . . . . . . . . . .
 72
65
 73
2
 40
0.2
 49
0.1
 74
0
 49
-0.1
 74
0
  0
LTYPE
  5
1F9
100
AcDbSymbolTableRecord
100
AcDbLinetypeTableRecord
  2
DASHED
 70
64
  3
- - - - - - - - - - - - - - - - - - - -
 72
65
 73
2
 40
0.2
 49
0.1
 74
0
 49
-0.1
 74
0
  0
ENDTAB
  0
TABLE
  2
LAYER
  5
2
100
AcDbSymbolTable
 70
36
  0
LAYER
  5
10
100
AcDbSymbolTableRecord
100
AcDbLayerTableRecord
  2
0
 70
0
 62
7
  6
CONTINUOUS
370
-3
390
F
  0
LAYER
  5
1FA
100
AcDbSymbolTableRecord
100
AcDbLayerTableRecord
  2
DEFAULT_1
 70
0
 62
7
  6
CENTER
370
-3
390
F
  0
LAYER
  5
1FB
100
AcDbSymbolTableRecord
100
AcDbLayerTableRecord
  2
DEFAULT_2
 70
0
 62
7
  6
HIDDEN
370
-3
390
F
  0
LAYER
  5
1FC
100
AcDbSymbolTableRecord
100
AcDbLayerTableRecord
  2
DEFAULT_3
 70
0
 62
7
  6
PHANTOM
370
-3
390
F
  0
LAYER
  5
1FD
100
AcDbSymbolTableRecord
100
AcDbLayerTableRecord
  2
00_COMPONENTS
 70
0
 62
7
  6
CONTINUOUS
370
-3
390
F
  0
LAYER
  5
1FE
100
AcDbSymbolTableRecord
100
AcDbLayerTableRecord
  2
01_1_DEFAULT_DATUMS
 70
0
 62
7
  6
CONTINUOUS
370
-3
390
F
  0
LAYER
  5
1FF
100
AcDbSymbolTableRecord
100
AcDbLayerTableRecord
  2
01_PLANES
 70
0
 62
7
  6
CONTINUOUS
370
-3
390
F
  0
LAYER
  5
200
100
AcDbSymbolTableRecord
100
AcDbLayerTableRecord
  2
02_COORD_SYS
 70
0
 62
7
  6
CONTINUOUS
370
-3
390
F
  0
LAYER
  5
201
100
AcDbSymbolTableRecord
100
AcDbLayerTableRecord
  2
03_AXES
 70
0
 62
7
  6
CONTINUOUS
370
-3
390
F
  0
LAYER
  5
202
100
AcDbSymbolTableRecord
100
AcDbLayerTableRecord
  2
04_POINTS
 70
0
 62
7
  6
CONTINUOUS
370
-3
390
F
  0
LAYER
  5
203
100
AcDbSymbolTableRecord
100
AcDbLayerTableRecord
  2
05_CURVES
 70
0
 62
7
  6
CONTINUOUS
370
-3
390
F
  0
LAYER
  5
204
100
AcDbSymbolTableRecord
100
AcDbLayerTableRecord
  2
06_SURFS
 70
0
 62
7
  6
CONTINUOUS
370
-3
390
F
  0
LAYER
  5
205
100
AcDbSymbolTableRecord
100
AcDbLayerTableRecord
  2
07_COSMETICS
 70
0
 62
7
  6
CONTINUOUS
370
-3
390
F
  0
LAYER
  5
206
100
AcDbSymbolTableRecord
100
AcDbLayerTableRecord
  2
10_NOTES
 70
0
 62
7
  6
CONTINUOUS
370
-3
390
F
  0
LAYER
  5
207
100
AcDbSymbolTableRecord
100
AcDbLayerTableRecord
  2
11_NOTES_PUB
 70
0
 62
7
  6
CONTINUOUS
370
-3
390
F
  0
LAYER
  5
208
100
AcDbSymbolTableRecord
100
AcDbLayerTableRecord
  2
13_REF_GTOL
 70
0
 62
7
  6
CONTINUOUS
370
-3
390
F
  0
LAYER
  5
209
100
AcDbSymbolTableRecord
100
AcDbLayerTableRecord
  2
16_MISC
 70
0
 62
7
  6
CONTINUOUS
370
-3
390
F
  0
LAYER
  5
20A
100
AcDbSymbolTableRecord
100
AcDbLayerTableRecord
  2
17_NO_PRINT
 70
0
 62
7
  6
CONTINUOUS
370
-3
390
F
  0
LAYER
  5
20B
100
AcDbSymbolTableRecord
100
AcDbLayerTableRecord
  2
18_DATUM_CAMS_JOINTS
 70
0
 62
7
  6
CONTINUOUS
370
-3
390
F
  0
LAYER
  5
20C
100
AcDbSymbolTableRecord
100
AcDbLayerTableRecord
  2
19_DATUM_FUNCTIONAL
 70
0
 62
7
  6
CONTINUOUS
370
-3
390
F
  0
LAYER
  5
20D
100
AcDbSymbolTableRecord
100
AcDbLayerTableRecord
  2
20_DATUM_KINEMATIC_SCHEME
 70
0
 62
7
  6
CONTINUOUS
370
-3
390
F
  0
ENDTAB
  0
TABLE
  2
STYLE
  5
3
100
AcDbSymbolTable
 70
1
  0
STYLE
  5
11
100
AcDbSymbolTableRecord
100
AcDbTextStyleTableRecord
  2
STANDARD
 70
0
 40
0.0
 41
1.0
 50
0.0
 71
0
 42
0.2
  3
ARIAL.TTF
  4

  0
STYLE
  5
20E
100
AcDbSymbolTableRecord
100
AcDbTextStyleTableRecord
  2
TEXTSTYLE_1
 70
0
 40
0.0
 41
0.8
 50
0.0
 71
0
 42
0.2
  3
gdt
  4

  0
ENDTAB
  0
TABLE
  2
VIEW
  5
6
100
AcDbSymbolTable
 70
0
  0
ENDTAB
  0
TABLE
  2
UCS
  5
7
100
AcDbSymbolTable
 70
0
  0
ENDTAB
  0
TABLE
  2
APPID
  5
9
100
AcDbSymbolTable
 70
1
  0
APPID
  5
20F
100
AcDbSymbolTableRecord
100
AcDbRegAppTableRecord
  2
ACAD
 70
0
  0
ENDTAB
  0
TABLE
  2
BLOCK_RECORD
  5
1
100
AcDbSymbolTable
 70
0
  0
BLOCK_RECORD
  5
210
100
AcDbSymbolTableRecord
100
AcDbBlockTableRecord
  2
*Model_Space
  0
BLOCK_RECORD
  5
211
100
AcDbSymbolTableRecord
100
AcDbBlockTableRecord
  2
*Paper_Space
  0
BLOCK_RECORD
  5
212
100
AcDbSymbolTableRecord
100
AcDbBlockTableRecord
  2
_FILLED
  0
ENDTAB
  0
TABLE
  2
DIMSTYLE
  5
A
100
AcDbSymbolTable
 70
1
100
AcDbDimStyleTable
 71
0
  0
DIMSTYLE
105
213
100
AcDbSymbolTableRecord
100
AcDbDimStyleTableRecord
  2
STANDARD
 70
0
  3

  4

 40
1.0
 41
1.1170382395
 42
1.0
 43
0.38
 44
1.0
 45
0.0
 46
0.0
 47
0.01
 48
0.01
140
1.5638535354
141
0.09
142
0.0
143
25.4
144
1.0
145
0.0
146
1.0
147
0.625
 71
1
 72
0
 73
0
 74
0
 75
0
 76
0
 77
1
 78
8
 79
2
170
0
171
1
172
0
173
0
174
0
175
0
176
0
177
0
178
0
270
2
179
2
271
2
272
2
273
2
274
2
275
0
280
0
281
0
282
0
283
1
284
8
285
0
286
0
287
3
288
0
340
11
278
46
341
212
342
212
343
212
344
212
  0
ENDTAB
  0
ENDSEC
  0
SECTION
  2
BLOCKS
  0
BLOCK
  5
20
100
AcDbEntity
  8
0
100
AcDbBlockBegin
  2
*Model_Space
 70
0
 10
0.0
 20
0.0
 30
0.0
  3
*Model_Space
  1

  0
ENDBLK
  5
21
100
AcDbEntity
  8
0
100
AcDbBlockEnd
  0
BLOCK
  5
1C
100
AcDbEntity
  8
0
100
AcDbBlockBegin
  2
*Paper_Space
 70
0
 10
0.0
 20
0.0
 30
0.0
  3
*Paper_Space
  1

  0
ENDBLK
  5
1D
100
AcDbEntity
  8
0
100
AcDbBlockEnd
  0
BLOCK
  5
214
100
AcDbEntity
  8
0
100
AcDbBlockBegin
  2
_FILLED
 70
64
 10
0.0
 20
0.0
  3
_FILLED
  1

  0
SOLID
  5
215
100
AcDbEntity
  8
0
  6
BYBLOCK
 62
0
100
AcDbTrace
 10
0.0
 20
0.0
 11
-1.0
 21
0.25
 12
-1.0
 22
-0.25
 13
-1.0
 23
-0.25
  0
ENDBLK
  5
216
100
AcDbEntity
  8
0
  6
BYBLOCK
 62
0
100
AcDbBlockEnd
  0
ENDSEC
  0
SECTION
  2
ENTITIES
  0
LINE
  5
217
100
AcDbEntity
  8
0
100
AcDbLine
 62
7
  6
BYLAYER
 10
27.353034632
 20
117.531474026
 11
23.053034632
 21
115.5769285714
  0
LINE
  5
218
100
AcDbEntity
  8
0
100
AcDbLine
 62
7
  6
BYLAYER
 10
35.003034632
 20
9.8269285714
 11
75.103034632
 21
9.8269285714
  0
LINE
  5
219
100
AcDbEntity
  8
0
100
AcDbLine
 62
7
  6
BYLAYER
 10
62.128034632
 20
9.9269285714
 11
47.978034632
 21
9.9269285714
  0
LINE
  5
21A
100
AcDbEntity
  8
0
100
AcDbLine
 62
7
  6
BYLAYER
 10
19.053034632
 20
112.8448777639
 11
22.053034632
 21
114.5769285714
  0
LINE
  5
21B
100
AcDbEntity
  8
0
100
AcDbLine
 62
7
  6
BYLAYER
 10
65.053034632
 20
12.9269285714
 11
62.128034632
 21
12.9269285714
  0
LINE
  5
21C
100
AcDbEntity
  8
0
100
AcDbLine
 62
7
  6
BYLAYER
 10
47.978034632
 20
12.9269285714
 11
45.053034632
 21
12.9269285714
  0
LINE
  5
21D
100
AcDbEntity
  8
0
100
AcDbLine
 62
7
  6
BYLAYER
 10
65.053034632
 20
13.2269285714
 11
62.128034632
 21
13.2269285714
  0
LINE
  5
21E
100
AcDbEntity
  8
0
100
AcDbLine
 62
7
  6
BYLAYER
 10
47.978034632
 20
13.2269285714
 11
45.053034632
 21
13.2269285714
  0
LINE
  5
21F
100
AcDbEntity
  8
0
100
AcDbLine
 62
7
  6
BYLAYER
 10
73.978034632
 20
25.5269285714
 11
70.053034632
 21
25.5269285714
  0
LINE
  5
220
100
AcDbEntity
  8
0
100
AcDbLine
 62
7
  6
BYLAYER
 10
40.053034632
 20
25.5269285714
 11
36.128034632
 21
25.5269285714
  0
LINE
  5
221
100
AcDbEntity
  8
0
100
AcDbLine
 62
7
  6
BYLAYER
 10
35.003034632
 20
25.8269285714
 11
40.053034632
 21
25.8269285714
  0
LINE
  5
222
100
AcDbEntity
  8
0
100
AcDbLine
 62
7
  6
BYLAYER
 10
70.053034632
 20
25.8269285714
 11
75.103034632
 21
25.8269285714
  0
LINE
  5
223
100
AcDbEntity
  8
0
100
AcDbLine
 62
7
  6
BYLAYER
 10
73.253034632
 20
27.6269285714
 11
62.128034632
 21
27.6269285714
  0
LINE
  5
224
100
AcDbEntity
  8
0
100
AcDbLine
 62
7
  6
BYLAYER
 10
47.978034632
 20
27.6269285714
 11
36.853034632
 21
27.6269285714
  0
LINE
  5
225
100
AcDbEntity
  8
0
100
AcDbLine
 62
7
  6
BYLAYER
 10
72.453034632
 20
28.4269285714
 11
37.653034632
 21
28.4269285714
  0
LINE
  5
226
100
AcDbEntity
  8
0
100
AcDbLine
 62
7
  6
BYLAYER
 10
38.253034632
 20
29.0269285714
 11
71.853034632
 21
29.0269285714
  0
LINE
  5
227
100
AcDbEntity
  8
0
100
AcDbLine
 62
7
  6
BYLAYER
 10
19.053034632
 20
101.3090557693
 11
19.053034632
 21
112.8448013736
  0
LINE
  5
228
100
AcDbEntity
  8
0
100
AcDbLine
 62
7
  6
BYLAYER
 10
22.053034632
 20
99.5769285714
 11
22.053034632
 21
114.5769285714
  0
LINE
  5
229
100
AcDbEntity
  8
0
100
AcDbLine
 62
7
  6
BYLAYER
 10
23.053034632
 20
96.0769285714
 11
23.053034632
 21
115.5769285714
  0
LINE
  5
22A
100
AcDbEntity
  8
0
100
AcDbLine
 62
7
  6
BYLAYER
 10
26.553034632
 20
98.6769285714
 11
26.553034632
 21
103.0769285714
  0
LINE
  5
22B
100
AcDbEntity
  8
0
100
AcDbLine
 62
7
  6
BYLAYER
 10
26.553034632
 20
111.0769285714
 11
26.553034632
 21
115.4769285714
  0
LINE
  5
22C
100
AcDbEntity
  8
0
100
AcDbLine
 62
7
  6
BYLAYER
 10
26.853034632
 20
98.3769285714
 11
26.853034632
 21
103.3769285714
  0
LINE
  5
22D
100
AcDbEntity
  8
0
100
AcDbLine
 62
7
  6
BYLAYER
 10
26.853034632
 20
110.7769285714
 11
26.853034632
 21
115.7769285714
  0
LINE
  5
22E
100
AcDbEntity
  8
0
100
AcDbLine
 62
7
  6
BYLAYER
 10
27.353034632
 20
97.0062493195
 11
27.353034632
 21
118.0769285714
  0
LINE
  5
22F
100
AcDbEntity
  8
0
100
AcDbLine
 62
7
  6
BYLAYER
 10
28.553034632
 20
115.7769285714
 11
28.553034632
 21
110.7769285714
  0
LINE
  5
230
100
AcDbEntity
  8
0
100
AcDbLine
 62
7
  6
BYLAYER
 10
35.003034632
 20
91.3269285714
 11
35.003034632
 21
9.8269285714
  0
LINE
  5
231
100
AcDbEntity
  8
0
100
AcDbLine
 62
7
  6
BYLAYER
 10
35.053034632
 20
25.8269285714
 11
35.053034632
 21
73.8269285714
  0
LINE
  5
232
100
AcDbEntity
  8
0
100
AcDbLine
 62
7
  6
BYLAYER
 10
36.853034632
 20
27.6269285714
 11
36.853034632
 21
72.0269285714
  0
LINE
  5
233
100
AcDbEntity
  8
0
100
AcDbLine
 62
7
  6
BYLAYER
 10
37.403034632
 20
82.336908651
 11
37.403034632
 21
77.3169484918
  0
LINE
  5
234
100
AcDbEntity
  8
0
100
AcDbLine
 62
7
  6
BYLAYER
 10
37.653034632
 20
28.4269285714
 11
37.653034632
 21
71.2269285714
  0
LINE
  5
235
100
AcDbEntity
  8
0
100
AcDbLine
 62
7
  6
BYLAYER
 10
38.253034632
 20
70.6269285714
 11
38.253034632
 21
29.0269285714
  0
LINE
  5
236
100
AcDbEntity
  8
0
100
AcDbLine
 62
7
  6
BYLAYER
 10
38.553034632
 20
91.5269285714
 11
38.553034632
 21
123.5269285714
  0
LINE
  5
237
100
AcDbEntity
  8
0
100
AcDbLine
 62
7
  6
BYLAYER
 10
42.153034632
 20
118.6769285714
 11
42.153034632
 21
115.6769285714
  0
LINE
  5
238
100
AcDbEntity
  8
0
100
AcDbLine
 62
7
  6
BYLAYER
 10
42.703034632
 20
77.3169484918
 11
42.703034632
 21
82.336908651
  0
LINE
  5
239
100
AcDbEntity
  8
0
100
AcDbLine
 62
7
  6
BYLAYER
 10
45.053034632
 20
9.8269285714
 11
45.053034632
 21
20.8269285714
  0
LINE
  5
23A
100
AcDbEntity
  8
0
100
AcDbLine
 62
7
  6
BYLAYER
 10
45.053034632
 20
78.8269285714
 11
45.053034632
 21
86.3269285714
  0
LINE
  5
23B
100
AcDbEntity
  8
0
100
AcDbLine
 62
7
  6
BYLAYER
 10
47.903034632
 20
79.3269285714
 11
47.903034632
 21
84.9269285714
  0
LINE
  5
23C
100
AcDbEntity
  8
0
100
AcDbLine
 62
7
  6
BYLAYER
 10
47.978034632
 20
9.9269285714
 11
47.978034632
 21
27.6269285714
  0
LINE
  5
23D
100
AcDbEntity
  8
0
100
AcDbLine
 62
7
  6
BYLAYER
 10
47.978034632
 20
72.0269285714
 11
47.978034632
 21
86.2269285714
  0
LINE
  5
23E
100
AcDbEntity
  8
0
100
AcDbLine
 62
7
  6
BYLAYER
 10
48.778034632
 20
9.8269285714
 11
48.778034632
 21
9.9269285714
  0
LINE
  5
23F
100
AcDbEntity
  8
0
100
AcDbLine
 62
7
  6
BYLAYER
 10
50.053034632
 20
86.2269285714
 11
50.053034632
 21
80.2269285714
  0
LINE
  5
240
100
AcDbEntity
  8
0
100
AcDbLine
 62
7
  6
BYLAYER
 10
50.053034632
 20
14.2269285714
 11
50.053034632
 21
9.9269285714
  0
LINE
  5
241
100
AcDbEntity
  8
0
100
AcDbLine
 62
7
  6
BYLAYER
 10
71.853034632
 20
70.6269285714
 11
38.253034632
 21
70.6269285714
  0
LINE
  5
242
100
AcDbEntity
  8
0
100
AcDbLine
 62
7
  6
BYLAYER
 10
37.653034632
 20
71.2269285714
 11
72.453034632
 21
71.2269285714
  0
LINE
  5
243
100
AcDbEntity
  8
0
100
AcDbLine
 62
7
  6
BYLAYER
 10
36.853034632
 20
72.0269285714
 11
47.978034632
 21
72.0269285714
  0
LINE
  5
244
100
AcDbEntity
  8
0
100
AcDbLine
 62
7
  6
BYLAYER
 10
62.128034632
 20
72.0269285714
 11
73.253034632
 21
72.0269285714
  0
LINE
  5
245
100
AcDbEntity
  8
0
100
AcDbLine
 62
7
  6
BYLAYER
 10
35.003034632
 20
73.8269285714
 11
40.053034632
 21
73.8269285714
  0
LINE
  5
246
100
AcDbEntity
  8
0
100
AcDbLine
 62
7
  6
BYLAYER
 10
70.053034632
 20
73.8269285714
 11
75.103034632
 21
73.8269285714
  0
LINE
  5
247
100
AcDbEntity
  8
0
100
AcDbLine
 62
7
  6
BYLAYER
 10
60.053034632
 20
9.9269285714
 11
60.053034632
 21
14.2269285714
  0
LINE
  5
248
100
AcDbEntity
  8
0
100
AcDbLine
 62
7
  6
BYLAYER
 10
60.053034632
 20
80.2269285714
 11
60.053034632
 21
86.2269285714
  0
LINE
  5
249
100
AcDbEntity
  8
0
100
AcDbLine
 62
7
  6
BYLAYER
 10
45.053034632
 20
78.8269285714
 11
47.978034632
 21
78.8269285714
  0
LINE
  5
24A
100
AcDbEntity
  8
0
100
AcDbLine
 62
7
  6
BYLAYER
 10
62.128034632
 20
78.8269285714
 11
65.053034632
 21
78.8269285714
  0
LINE
  5
24B
100
AcDbEntity
  8
0
100
AcDbLine
 62
7
  6
BYLAYER
 10
45.053034632
 20
79.3269285714
 11
47.903034632
 21
79.3269285714
  0
LINE
  5
24C
100
AcDbEntity
  8
0
100
AcDbLine
 62
7
  6
BYLAYER
 10
62.203034632
 20
79.3269285714
 11
65.053034632
 21
79.3269285714
  0
LINE
  5
24D
100
AcDbEntity
  8
0
100
AcDbLine
 62
7
  6
BYLAYER
 10
61.328034632
 20
9.9269285714
 11
61.328034632
 21
9.8269285714
  0
LINE
  5
24E
100
AcDbEntity
  8
0
100
AcDbLine
 62
7
  6
BYLAYER
 10
62.128034632
 20
86.2269285714
 11
62.128034632
 21
72.0269285714
  0
LINE
  5
24F
100
AcDbEntity
  8
0
100
AcDbLine
 62
7
  6
BYLAYER
 10
62.128034632
 20
27.6269285714
 11
62.128034632
 21
9.9269285714
  0
LINE
  5
250
100
AcDbEntity
  8
0
100
AcDbLine
 62
7
  6
BYLAYER
 10
62.203034632
 20
84.9269285714
 11
62.203034632
 21
79.3269285714
  0
LINE
  5
251
100
AcDbEntity
  8
0
100
AcDbLine
 62
7
  6
BYLAYER
 10
19.053034632
 20
101.308979379
 11
22.053034632
 21
99.5769285714
  0
LINE
  5
252
100
AcDbEntity
  8
0
100
AcDbLine
 62
7
  6
BYLAYER
 10
65.053034632
 20
9.8269285714
 11
65.053034632
 21
20.8269285714
  0
LINE
  5
253
100
AcDbEntity
  8
0
100
AcDbLine
 62
7
  6
BYLAYER
 10
65.053034632
 20
78.8269285714
 11
65.053034632
 21
86.3269285714
  0
LINE
  5
254
100
AcDbEntity
  8
0
100
AcDbLine
 62
7
  6
BYLAYER
 10
67.403034632
 20
17.3169484918
 11
67.403034632
 21
22.336908651
  0
LINE
  5
255
100
AcDbEntity
  8
0
100
AcDbLine
 62
7
  6
BYLAYER
 10
67.953034632
 20
115.6769285714
 11
67.953034632
 21
118.6769285714
  0
LINE
  5
256
100
AcDbEntity
  8
0
100
AcDbLine
 62
7
  6
BYLAYER
 10
47.903034632
 20
84.9269285714
 11
47.978034632
 21
84.9269285714
  0
LINE
  5
257
100
AcDbEntity
  8
0
100
AcDbLine
 62
7
  6
BYLAYER
 10
62.128034632
 20
84.9269285714
 11
62.203034632
 21
84.9269285714
  0
LINE
  5
258
100
AcDbEntity
  8
0
100
AcDbLine
 62
7
  6
BYLAYER
 10
47.978034632
 20
86.2269285714
 11
62.128034632
 21
86.2269285714
  0
LINE
  5
259
100
AcDbEntity
  8
0
100
AcDbLine
 62
7
  6
BYLAYER
 10
65.053034632
 20
86.3269285714
 11
45.053034632
 21
86.3269285714
  0
LINE
  5
25A
100
AcDbEntity
  8
0
100
AcDbLine
 62
7
  6
BYLAYER
 10
71.553034632
 20
91.5269285714
 11
71.553034632
 21
123.5269285714
  0
LINE
  5
25B
100
AcDbEntity
  8
0
100
AcDbLine
 62
7
  6
BYLAYER
 10
71.853034632
 20
29.0269285714
 11
71.853034632
 21
70.6269285714
  0
LINE
  5
25C
100
AcDbEntity
  8
0
100
AcDbLine
 62
7
  6
BYLAYER
 10
72.453034632
 20
71.2269285714
 11
72.453034632
 21
28.4269285714
  0
LINE
  5
25D
100
AcDbEntity
  8
0
100
AcDbLine
 62
7
  6
BYLAYER
 10
72.703034632
 20
22.336908651
 11
72.703034632
 21
17.3169484918
  0
LINE
  5
25E
100
AcDbEntity
  8
0
100
AcDbLine
 62
7
  6
BYLAYER
 10
75.103034632
 20
91.3269285714
 11
35.003034632
 21
91.3269285714
  0
LINE
  5
25F
100
AcDbEntity
  8
0
100
AcDbLine
 62
7
  6
BYLAYER
 10
71.553034632
 20
91.5269285714
 11
38.553034632
 21
91.5269285714
  0
LINE
  5
260
100
AcDbEntity
  8
0
100
AcDbLine
 62
7
  6
BYLAYER
 10
73.253034632
 20
72.0269285714
 11
73.253034632
 21
27.6269285714
  0
LINE
  5
261
100
AcDbEntity
  8
0
100
AcDbLine
 62
7
  6
BYLAYER
 10
75.053034632
 20
73.8269285714
 11
75.053034632
 21
25.8269285714
  0
LINE
  5
262
100
AcDbEntity
  8
0
100
AcDbLine
 62
7
  6
BYLAYER
 10
75.103034632
 20
9.8269285714
 11
75.103034632
 21
91.3269285714
  0
LINE
  5
263
100
AcDbEntity
  8
0
100
AcDbLine
 62
7
  6
BYLAYER
 10
23.053034632
 20
96.0769285714
 11
38.553034632
 21
96.0769285714
  0
LINE
  5
264
100
AcDbEntity
  8
0
100
AcDbLine
 62
7
  6
BYLAYER
 10
38.553034632
 20
96.4251689198
 11
23.053034632
 21
96.4251689198
  0
LINE
  5
265
100
AcDbEntity
  8
0
100
AcDbLine
 62
7
  6
BYLAYER
 10
27.353034632
 20
97.0062493195
 11
23.053034632
 21
97.0062493195
  0
LINE
  5
266
100
AcDbEntity
  8
0
100
AcDbLine
 62
7
  6
BYLAYER
 10
27.353034632
 20
98.3769285714
 11
26.853034632
 21
98.3769285714
  0
LINE
  5
267
100
AcDbEntity
  8
0
100
AcDbLine
 62
7
  6
BYLAYER
 10
27.353034632
 20
98.4560741052
 11
38.553034632
 21
98.4560741052
  0
LINE
  5
268
100
AcDbEntity
  8
0
100
AcDbLine
 62
7
  6
BYLAYER
 10
23.053034632
 20
99.5769285714
 11
22.053034632
 21
99.5769285714
  0
LINE
  5
269
100
AcDbEntity
  8
0
100
AcDbLine
 62
7
  6
BYLAYER
 10
38.553034632
 20
100.8769285714
 11
27.353034632
 21
100.8769285714
  0
LINE
  5
26A
100
AcDbEntity
  8
0
100
AcDbLine
 62
7
  6
BYLAYER
 10
27.353034632
 20
102.5769285714
 11
71.553034632
 21
102.5769285714
  0
LINE
  5
26B
100
AcDbEntity
  8
0
100
AcDbLine
 62
7
  6
BYLAYER
 10
26.853034632
 20
103.3769285714
 11
27.353034632
 21
103.3769285714
  0
LINE
  5
26C
100
AcDbEntity
  8
0
100
AcDbLine
 62
7
  6
BYLAYER
 10
27.353034632
 20
104.0490516524
 11
38.553034632
 21
104.0490516524
  0
LINE
  5
26D
100
AcDbEntity
  8
0
100
AcDbLine
 62
7
  6
BYLAYER
 10
23.053034632
 20
104.0769285714
 11
27.353034632
 21
104.0769285714
  0
LINE
  5
26E
100
AcDbEntity
  8
0
100
AcDbLine
 62
7
  6
BYLAYER
 10
38.553034632
 20
104.5769285714
 11
71.553034632
 21
104.5769285714
  0
LINE
  5
26F
100
AcDbEntity
  8
0
100
AcDbLine
 62
7
  6
BYLAYER
 10
38.553034632
 20
105.8766747496
 11
27.353034632
 21
105.8766747496
  0
LINE
  5
270
100
AcDbEntity
  8
0
100
AcDbLine
 62
7
  6
BYLAYER
 10
27.353034632
 20
108.2771823933
 11
38.553034632
 21
108.2771823933
  0
LINE
  5
271
100
AcDbEntity
  8
0
100
AcDbLine
 62
7
  6
BYLAYER
 10
38.553034632
 20
109.5769285714
 11
71.553034632
 21
109.5769285714
  0
LINE
  5
272
100
AcDbEntity
  8
0
100
AcDbLine
 62
7
  6
BYLAYER
 10
27.353034632
 20
110.0769285714
 11
23.053034632
 21
110.0769285714
  0
LINE
  5
273
100
AcDbEntity
  8
0
100
AcDbLine
 62
7
  6
BYLAYER
 10
38.553034632
 20
110.1048054905
 11
27.353034632
 21
110.1048054905
  0
LINE
  5
274
100
AcDbEntity
  8
0
100
AcDbLine
 62
7
  6
BYLAYER
 10
27.353034632
 20
110.7769285714
 11
26.853034632
 21
110.7769285714
  0
LINE
  5
275
100
AcDbEntity
  8
0
100
AcDbLine
 62
7
  6
BYLAYER
 10
27.353034632
 20
111.5769285714
 11
71.553034632
 21
111.5769285714
  0
LINE
  5
276
100
AcDbEntity
  8
0
100
AcDbLine
 62
7
  6
BYLAYER
 10
27.353034632
 20
113.2769285714
 11
38.553034632
 21
113.2769285714
  0
LINE
  5
277
100
AcDbEntity
  8
0
100
AcDbLine
 62
7
  6
BYLAYER
 10
23.053034632
 20
114.5769285714
 11
22.053034632
 21
114.5769285714
  0
LINE
  5
278
100
AcDbEntity
  8
0
100
AcDbLine
 62
7
  6
BYLAYER
 10
42.153034632
 20
115.6769285714
 11
67.953034632
 21
115.6769285714
  0
LINE
  5
279
100
AcDbEntity
  8
0
100
AcDbLine
 62
7
  6
BYLAYER
 10
38.553034632
 20
115.6977830377
 11
27.353034632
 21
115.6977830377
  0
LINE
  5
27A
100
AcDbEntity
  8
0
100
AcDbLine
 62
7
  6
BYLAYER
 10
26.853034632
 20
115.7769285714
 11
27.353034632
 21
115.7769285714
  0
LINE
  5
27B
100
AcDbEntity
  8
0
100
AcDbLine
 62
7
  6
BYLAYER
 10
27.353034632
 20
117.7286882228
 11
38.553034632
 21
117.728688223
  0
LINE
  5
27C
100
AcDbEntity
  8
0
100
AcDbLine
 62
7
  6
BYLAYER
 10
38.553034632
 20
118.0769285714
 11
27.353034632
 21
118.0769285714
  0
LINE
  5
27D
100
AcDbEntity
  8
0
100
AcDbLine
 62
7
  6
BYLAYER
 10
67.953034632
 20
118.6769285714
 11
42.153034632
 21
118.6769285714
  0
LINE
  5
27E
100
AcDbEntity
  8
0
100
AcDbLine
 62
7
  6
BYLAYER
 10
71.553034632
 20
123.5269285714
 11
38.553034632
 21
123.5269285714
  0
ARC
  5
27F
100
AcDbEntity
  8
0
100
AcDbCircle
 62
7
  6
BYLAYER
 10
40.053034632
 20
20.5269285714
 40
5.0
100
AcDbArc
 50
3.4238005084
 51
90.0
  0
ARC
  5
280
100
AcDbEntity
  8
0
100
AcDbCircle
 62
7
  6
BYLAYER
 10
70.053034632
 20
20.5269285714
 40
5.0
100
AcDbArc
 50
90.0
 51
176.5761708947
  0
ARC
  5
281
100
AcDbEntity
  8
0
100
AcDbCircle
 62
7
  6
BYLAYER
 10
40.053034632
 20
78.8269285714
 40
5.0
100
AcDbArc
 50
270.0
 51
360.0
  0
ARC
  5
282
100
AcDbEntity
  8
0
100
AcDbCircle
 62
7
  6
BYLAYER
 10
40.053034632
 20
20.8269285714
 40
5.0
100
AcDbArc
 50
0.0
 51
90.0
  0
ARC
  5
283
100
AcDbEntity
  8
0
100
AcDbCircle
 62
7
  6
BYLAYER
 10
55.053034632
 20
14.2269285714
 40
5.0
100
AcDbArc
 50
0.0
 51
180.0
  0
ARC
  5
284
100
AcDbEntity
  8
0
100
AcDbCircle
 62
7
  6
BYLAYER
 10
55.053034632
 20
80.2269285714
 40
5.0
100
AcDbArc
 50
180.0
 51
360.0
  0
ARC
  5
285
100
AcDbEntity
  8
0
100
AcDbCircle
 62
7
  6
BYLAYER
 10
70.053034632
 20
78.8269285714
 40
5.0
100
AcDbArc
 50
180.0
 51
270.0
  0
ARC
  5
286
100
AcDbEntity
  8
0
100
AcDbCircle
 62
7
  6
BYLAYER
 10
70.053034632
 20
20.8269285714
 40
5.0
100
AcDbArc
 50
90.0
 51
180.0
  0
ARC
  5
287
100
AcDbEntity
  8
0
100
AcDbCircle
 62
7
  6
BYLAYER
 10
40.053034632
 20
79.8269285714
 40
3.65
100
AcDbArc
 50
223.4456175992
 51
316.5543824008
  0
ARC
  5
288
100
AcDbEntity
  8
0
100
AcDbCircle
 62
7
  6
BYLAYER
 10
40.053034632
 20
79.8269285714
 40
3.65
100
AcDbArc
 50
43.4456175992
 51
136.5543824008
  0
ARC
  5
289
100
AcDbEntity
  8
0
100
AcDbCircle
 62
7
  6
BYLAYER
 10
70.053034632
 20
19.8269285714
 40
3.65
100
AcDbArc
 50
43.4456175992
 51
136.5543824008
  0
ARC
  5
28A
100
AcDbEntity
  8
0
100
AcDbCircle
 62
7
  6
BYLAYER
 10
70.053034632
 20
19.8269285714
 40
3.65
100
AcDbArc
 50
223.4456175992
 51
316.5543824008
  0
CIRCLE
  5
28B
100
AcDbEntity
  8
0
100
AcDbCircle
 62
7
  6
BYLAYER
 10
40.053034632
 20
19.8269285714
 40
2.65
  0
CIRCLE
  5
28C
100
AcDbEntity
  8
0
100
AcDbCircle
 62
7
  6
BYLAYER
 10
70.053034632
 20
79.8269285714
 40
2.65
  0
CIRCLE
  5
28D
100
AcDbEntity
  8
0
100
AcDbCircle
 62
7
  6
BYLAYER
 10
55.053034632
 20
80.2269285714
 40
2.65
  0
CIRCLE
  5
28E
100
AcDbEntity
  8
0
100
AcDbCircle
 62
7
  6
BYLAYER
 10
55.053034632
 20
14.2269285714
 40
2.15
  0
CIRCLE
  5
28F
100
AcDbEntity
  8
0
100
AcDbCircle
 62
7
  6
BYLAYER
 10
55.053034632
 20
80.2269285714
 40
2.0
  0
CIRCLE
  5
290
100
AcDbEntity
  8
0
100
AcDbCircle
 62
7
  6
BYLAYER
 10
55.053034632
 20
14.2269285714
 40
1.75
  0
ARC
  5
291
100
AcDbEntity
  8
0
100
AcDbCircle
 62
7
  6
BYLAYER
 10
73.978034632
 20
26.6019285714
 40
1.075
100
AcDbArc
 50
270.0
 51
311.9294475717
  0
ARC
  5
292
100
AcDbEntity
  8
0
100
AcDbCircle
 62
7
  6
BYLAYER
 10
36.128034632
 20
26.6019285714
 40
1.075
100
AcDbArc
 50
228.06863299
 51
270.0
  0
ARC
  5
293
100
AcDbEntity
  8
0
100
AcDbCircle
 62
7
  6
BYLAYER
 10
26.853034632
 20
98.6769285714
 40
0.3
100
AcDbArc
 50
180.0
 51
270.0
  0
ARC
  5
294
100
AcDbEntity
  8
0
100
AcDbCircle
 62
7
  6
BYLAYER
 10
26.853034632
 20
103.0769285714
 40
0.3
100
AcDbArc
 50
90.0
 51
180.0
  0
ARC
  5
295
100
AcDbEntity
  8
0
100
AcDbCircle
 62
7
  6
BYLAYER
 10
26.853034632
 20
111.0769285714
 40
0.3
100
AcDbArc
 50
180.0
 51
270.0
  0
ARC
  5
296
100
AcDbEntity
  8
0
100
AcDbCircle
 62
7
  6
BYLAYER
 10
26.853034632
 20
115.4769285714
 40
0.3
100
AcDbArc
 50
90.0
 51
180.0
  0
SPLINE
  5
297
100
AcDbEntity
  8
0
100
AcDbSpline
 62
7
  6
BYLAYER
 70
0
 71
3
 72
9
 73
5
 74
0
 42
0.0000001
 43
0.0000001
 44
0.0000000001
 40
0.0
 40
0.0
 40
0.0
 40
0.0
 40
0.5000015105
 40
1.0
 40
1.0
 40
1.0
 40
1.0
 10
27.353034632
 20
97.8955604456
 30
0.0
 10
26.6306859199
 20
98.2694316151
 30
0.0
 10
25.1901795443
 20
99.0252939426
 30
0.0
 10
23.7620702049
 20
99.8045328781
 30
0.0
 10
23.053034632
 20
100.203065029
 30
0.0
  0
SPLINE
  5
298
100
AcDbEntity
  8
0
100
AcDbSpline
 62
7
  6
BYLAYER
 70
0
 71
3
 72
32
 73
28
 74
0
 42
0.0000001
 43
0.0000001
 44
0.0000000001
 40
0.0
 40
0.0
 40
0.0
 40
0.0
 40
0.0680130221
 40
0.1362735902
 40
0.2047074695
 40
0.2731634408
 40
0.3073110837
 40
0.3412947391
 40
0.3749594305
 40
0.4080326088
 40
0.4400671813
 40
0.4705216466
 40
0.4851219
 40
0.4993430123
 40
0.5132941606
 40
0.5270974281
 40
0.5545997266
 40
0.5823955757
 40
0.6106099881
 40
0.6392303018
 40
0.6682061916
 40
0.6974846122
 40
0.756759698
 40
0.8167997965
 40
0.8774241771
 40
0.9385169167
 40
1.0
 40
1.0
 40
1.0
 40
1.0
 10
26.5509096049
 20
100.0339697342
 30
0.0
 10
26.3936264586
 20
100.1120556171
 30
0.0
 10
26.0808936561
 20
100.2734298856
 30
0.0
 10
25.6204052084
 20
100.5331471817
 30
0.0
 10
25.1715834679
 20
100.8148138119
 30
0.0
 10
24.8125872323
 20
101.0728304777
 30
0.0
 10
24.5412240232
 20
101.2982904983
 30
0.0
 10
24.3493693895
 20
101.4782208201
 30
0.0
 10
24.1740607658
 20
101.6707713881
 30
0.0
 10
24.023408931
 20
101.8774052377
 30
0.0
 10
23.9097587894
 20
102.0978617284
 30
0.0
 10
23.8597993173
 20
102.2932796934
 30
0.0
 10
23.8565803834
 20
102.446890815
 30
0.0
 10
23.8720266919
 20
102.5567334096
 30
0.0
 10
23.9042585198
 20
102.6606751764
 30
0.0
 10
23.9666509573
 20
102.7894828165
 30
0.0
 10
24.076016891
 20
102.9327304248
 30
0.0
 10
24.2384665199
 20
103.0758440149
 30
0.0
 10
24.4213956057
 20
103.1963119623
 30
0.0
 10
24.6183078067
 20
103.2984844906
 30
0.0
 10
24.8251421585
 20
103.3857367059
 30
0.0
 10
25.1117747766
 20
103.4858017295
 30
0.0
 10
25.483234036
 20
103.5839709569
 30
0.0
 10
25.9402620301
 20
103.669008286
 30
0.0
 10
26.40610516
 20
103.7275312746
 30
0.0
 10
26.8779017252
 20
103.7633284635
 30
0.0
 10
27.1943081653
 20
103.7736899916
 30
0.0
 10
27.353034632
 20
103.7758162415
 30
0.0
  0
SPLINE
  5
299
100
AcDbEntity
  8
0
100
AcDbSpline
 62
7
  6
BYLAYER
 70
0
 71
3
 72
32
 73
28
 74
0
 42
0.0000001
 43
0.0000001
 44
0.0000000001
 40
0.0
 40
0.0
 40
0.0
 40
0.0
 40
0.0614829932
 40
0.1225755619
 40
0.1831998325
 40
0.2432398275
 40
0.3025147965
 40
0.3317931866
 40
0.3607689511
 40
0.389389177
 40
0.4176036014
 40
0.4453992704
 40
0.4729016468
 40
0.4867049247
 40
0.5006560485
 40
0.5148771778
 40
0.5294773862
 40
0.559931718
 40
0.5919663233
 40
0.6250394039
 40
0.6587043031
 40
0.6926880831
 40
0.7268358162
 40
0.795292028
 40
0.8637260917
 40
0.9319868442
 40
1.0
 40
1.0
 40
1.0
 40
1.0
 10
27.353034632
 20
110.3780409013
 30
0.0
 10
27.1943082459
 20
110.3801671502
 30
0.0
 10
26.8779021804
 20
110.3905287898
 30
0.0
 10
26.4061061259
 20
110.4263260879
 30
0.0
 10
25.9402635785
 20
110.4848492158
 30
0.0
 10
25.4832358453
 20
110.5698857939
 30
0.0
 10
25.1117768786
 20
110.6680548592
 30
0.0
 10
24.8251441813
 20
110.768118445
 30
0.0
 10
24.6183104715
 20
110.8553711907
 30
0.0
 10
24.4213985888
 20
110.9575435093
 30
0.0
 10
24.2384689599
 20
111.0780098655
 30
0.0
 10
24.0760195442
 20
111.2211237247
 30
0.0
 10
23.9666534477
 20
111.3643710465
 30
0.0
 10
23.9042603154
 20
111.4931786701
 30
0.0
 10
23.8720278264
 20
111.5971203552
 30
0.0
 10
23.856581203
 20
111.7069628855
 30
0.0
 10
23.8597994116
 20
111.860573725
 30
0.0
 10
23.9097575296
 20
112.0559918515
 30
0.0
 10
24.0234067835
 20
112.276448516
 30
0.0
 10
24.1740580183
 20
112.4830836008
 30
0.0
 10
24.3493679153
 20
112.6756342187
 30
0.0
 10
24.5412234182
 20
112.8555655202
 30
0.0
 10
24.812587244
 20
113.0810271821
 30
0.0
 10
25.1715849108
 20
113.3390449003
 30
0.0
 10
25.6204084874
 20
113.6207125338
 30
0.0
 10
26.0808989267
 20
113.880429951
 30
0.0
 10
26.3936325557
 20
114.0418051511
 30
0.0
 10
26.5509163371
 20
114.1198909086
 30
0.0
  0
ENDSEC
  0
SECTION
  2
OBJECTS
  0
DICTIONARY
  5
C
100
AcDbDictionary
280
0
281
1
  3
ACAD_GROUP
350
D
  3
ACAD_MLINESTYLE
350
17
  3
ACAD_LAYOUT
350
1A
  3
ACAD_PLOTSETTINGS
350
19
  3
ACAD_PLOTSTYLENAME
350
E
  0
DICTIONARY
  5
D
102
{ACAD_REACTORS
330
C
102
}
100
AcDbDictionary
280
0
281
1
  0
ACDBDICTIONARYWDFLT
  5
E
102
{ACAD_REACTORS
330
C
102
}
100
AcDbDictionary
281
1
  3
Normal
350
F
100
AcDbDictionaryWithDefault
340
F
  0
DICTIONARY
  5
17
102
{ACAD_REACTORS
330
C
102
}
100
AcDbDictionary
280
0
281
1
  3
Standard
350
18
  0
DICTIONARY
  5
19
102
{ACAD_REACTORS
330
C
102
}
100
AcDbDictionary
281
1
  0
DICTIONARY
  5
1A
102
{ACAD_REACTORS
330
C
102
}
100
AcDbDictionary
281
1
  3
Model
350
29A
  3
Layout1
350
29B
  0
ACDBPLACEHOLDER
  5
F
102
{ACAD_REACTORS
330
E
102
}
  0
MLINESTYLE
  5
18
102
{ACAD_REACTORS
330
17
102
}
100
AcDbMlineStyle
  2
STANDARD
 70
0
  3

 62
256
 51
90.0
 52
90.0
 71
2
 49
0.5
 62
256
  6
BYLAYER
 49
-0.5
 62
256
  6
BYLAYER
  0
LAYOUT
  5
29A
102
{ACAD_REACTORS
330
1A
102
}
100
AcDbPlotSettings
  1

  2
none_device
  4

  6

 40
0.0
 41
0.0
 42
0.0
 43
0.0
 44
210.0
 45
297.0
 46
0.0
 47
0.0
 48
0.0
 49
0.0
140
0.0
141
0.0
142
1.0
143
1.0
 70
1024
 72
1
 73
0
 74
0
  7

 75
0
147
1.0
148
0.0
149
0.0
100
AcDbLayout
  1
Model
 70
0
 71
0
 10
0.0
 20
0.0
 11
210.0
 21
297.0
 12
0.0
 22
0.0
 32
0.0
 14
0.0
 24
0.0
 34
0.0
 15
0.0
 25
0.0
 35
0.0
146
0.0
 13
0.0
 23
0.0
 33
0.0
 16
1.0
 26
0.0
 36
0.0
 17
0.0
 27
1.0
 37
0.0
 76
0
330
210
345
0
346
0
  0
LAYOUT
  5
29B
102
{ACAD_REACTORS
330
1A
102
}
100
AcDbPlotSettings
  1

  2
none_device
  4

  6

 40
0.0
 41
0.0
 42
0.0
 43
0.0
 44
210.0
 45
297.0
 46
0.0
 47
0.0
 48
0.0
 49
0.0
140
0.0
141
0.0
142
1.0
143
1.0
 70
0
 72
1
 73
0
 74
0
  7

 75
0
147
1.0
148
0.0
149
0.0
100
AcDbLayout
  1
Layout1
 70
0
 71
1
 10
0.0
 20
0.0
 11
210.0
 21
297.0
 12
0.0
 22
0.0
 32
0.0
 14
0.0
 24
0.0
 34
0.0
 15
0.0
 25
0.0
 35
0.0
146
0.0
 13
0.0
 23
0.0
 33
0.0
 16
1.0
 26
0.0
 36
0.0
 17
0.0
 27
1.0
 37
0.0
 76
0
330
211
345
0
346
0
  0
ENDSEC
  0
EOF
