999
DXF file: C:\Users\sesa63760\Dev\_Creo\CAD\MCADID0004479_3D-CAD\drw0001_4.dxf
999
Pro/ENGINEER 2019471 by Parametric Technology Corporation
  0
SECTION
  2
HEADER
  9
$ACADVER
  1
AC1024
  9
$DWGCODEPAGE
  3
ANSI_1252
  9
$EXTMAX
 10
109.7170263789
 20
155.1712230216
 30
0.0
  9
$EXTMIN
 10
0.0
 20
0.0
 30
0.0
  9
$LIMMIN
 10
0.0
 20
0.0
  9
$LIMMAX
 10
109.7170263789
 20
155.1712230216
  9
$VIEWCTR
 10
54.8585131894
 20
77.5856115108
  9
$VIEWSIZE
 40
155.1712230216
  9
$CLAYER
  8
0
  9
$LTSCALE
 40
10.1148649081
  9
$CELTYPE
  6
BYLAYER
  9
$DIMSCALE
 40
1.0
  9
$DIMASZ
 40
1.3061550759
  9
$DIMEXO
 40
1.0
  9
$DIMDLI
 40
6.9884521183
  9
$DIMEXE
 40
1.0
  9
$DIMCEN
 40
1.6551597122
  9
$DIMLFAC
 40
1.0
  9
$DIMBLK
  1
_FILLED
  9
$DIMALT
 70
0
  9
$DIMALTF
 40
0.0393700787
  9
$DIMTXT
 40
1.8286171063
  9
$DIMTOL
 70
1
  9
$DIMLIM
 70
0
  9
$DIMTFAC
 40
1.0
  9
$DIMTP
 40
0.01
  9
$DIMTM
 40
0.01
  9
$DIMGAP
 40
0.625
  9
$DIMDSEP
 70
46
  9
$AUNITS
 70
0
  9
$PDMODE
 70
3
  9
$PDSIZE
 40
0.3125
  9
$HANDSEED
  5
265
  9
$TILEMODE
 70
1
  9
$MEASUREMENT
 70
1
  9
$INSUNITS
 70
4
  0
ENDSEC
  0
SECTION
  2
CLASSES
  0
CLASS
  1
ACDBDICTIONARYWDFLT
  2
AcDbDictionaryWithDefault
  3
AutoCAD 2000
 90
0
 91
1
280
0
281
0
  0
CLASS
  1
ACDBPLACEHOLDER
  2
AcDbPlaceHolder
  3
AutoCAD 2000
 90
0
 91
1
280
0
281
0
  0
CLASS
  1
LAYOUT
  2
AcDbLayout
  3
AutoCAD 2000
 90
0
 91
0
280
0
281
0
  0
ENDSEC
  0
SECTION
  2
TABLES
  0
TABLE
  2
VPORT
  5
8
100
AcDbSymbolTable
 70
2
  0
VPORT
  5
1F4
100
AcDbSymbolTableRecord
100
AcDbViewportTableRecord
  2
*ACTIVE
 70
0
 10
0.0
 20
0.0
 11
1.0
 21
1.0
 12
54.8585131894
 22
77.5856115108
 13
0.0
 23
0.0
 14
1.0
 24
1.0
 15
0.0
 25
0.0
 16
0.0
 26
0.0
 36
1.0
 17
0.0
 27
0.0
 37
0.0
 40
155.1712230216
 41
0.7070707071
 42
50.0
 43
0.0
 44
0.0
 50
0.0
 51
0.0
 71
0
 72
100
 73
1
 74
1
 75
0
 76
0
 77
0
 78
0
  0
ENDTAB
  0
TABLE
  2
LTYPE
  5
5
100
AcDbSymbolTable
 70
6
  0
LTYPE
  5
14
100
AcDbSymbolTableRecord
100
AcDbLinetypeTableRecord
  2
BYBLOCK
 70
0
  3

 72
65
 73
0
 40
0.0
  0
LTYPE
  5
15
100
AcDbSymbolTableRecord
100
AcDbLinetypeTableRecord
  2
BYLAYER
 70
0
  3

 72
65
 73
0
 40
0.0
  0
LTYPE
  5
16
100
AcDbSymbolTableRecord
100
AcDbLinetypeTableRecord
  2
CONTINUOUS
 70
64
  3
Solid line
 72
65
 73
0
 40
0.0
  0
LTYPE
  5
1F5
100
AcDbSymbolTableRecord
100
AcDbLinetypeTableRecord
  2
CENTER
 70
64
  3
____ _ ____ _ ____ _ ____ _ ____ _ ____ _ ____
 72
65
 73
4
 40
0.6
 49
0.375
 74
0
 49
-0.075
 74
0
 49
0.075
 74
0
 49
-0.075
 74
0
  0
LTYPE
  5
1F6
100
AcDbSymbolTableRecord
100
AcDbLinetypeTableRecord
  2
HIDDEN
 70
64
  3
- - - - - - - - - - - - - - - - - - - -
 72
65
 73
2
 40
0.2
 49
0.1
 74
0
 49
-0.1
 74
0
  0
LTYPE
  5
1F7
100
AcDbSymbolTableRecord
100
AcDbLinetypeTableRecord
  2
PHANTOM
 70
64
  3
_____ _ _ _____ _ _ _____ _ _ _____
 72
65
 73
6
 40
0.8
 49
0.45
 74
0
 49
-0.05
 74
0
 49
0.1
 74
0
 49
-0.05
 74
0
 49
0.1
 74
0
 49
-0.05
 74
0
  0
LTYPE
  5
1F8
100
AcDbSymbolTableRecord
100
AcDbLinetypeTableRecord
  2
DOT
 70
64
  3
. . . . . . . . . . . . . . . . . . . .
 72
65
 73
2
 40
0.2
 49
0.1
 74
0
 49
-0.1
 74
0
  0
LTYPE
  5
1F9
100
AcDbSymbolTableRecord
100
AcDbLinetypeTableRecord
  2
DASHED
 70
64
  3
- - - - - - - - - - - - - - - - - - - -
 72
65
 73
2
 40
0.2
 49
0.1
 74
0
 49
-0.1
 74
0
  0
ENDTAB
  0
TABLE
  2
LAYER
  5
2
100
AcDbSymbolTable
 70
36
  0
LAYER
  5
10
100
AcDbSymbolTableRecord
100
AcDbLayerTableRecord
  2
0
 70
0
 62
7
  6
CONTINUOUS
370
-3
390
F
  0
LAYER
  5
1FA
100
AcDbSymbolTableRecord
100
AcDbLayerTableRecord
  2
DEFAULT_1
 70
0
 62
7
  6
CENTER
370
-3
390
F
  0
LAYER
  5
1FB
100
AcDbSymbolTableRecord
100
AcDbLayerTableRecord
  2
DEFAULT_2
 70
0
 62
7
  6
HIDDEN
370
-3
390
F
  0
LAYER
  5
1FC
100
AcDbSymbolTableRecord
100
AcDbLayerTableRecord
  2
DEFAULT_3
 70
0
 62
7
  6
PHANTOM
370
-3
390
F
  0
LAYER
  5
1FD
100
AcDbSymbolTableRecord
100
AcDbLayerTableRecord
  2
00_COMPONENTS
 70
0
 62
7
  6
CONTINUOUS
370
-3
390
F
  0
LAYER
  5
1FE
100
AcDbSymbolTableRecord
100
AcDbLayerTableRecord
  2
01_1_DEFAULT_DATUMS
 70
0
 62
7
  6
CONTINUOUS
370
-3
390
F
  0
LAYER
  5
1FF
100
AcDbSymbolTableRecord
100
AcDbLayerTableRecord
  2
01_PLANES
 70
0
 62
7
  6
CONTINUOUS
370
-3
390
F
  0
LAYER
  5
200
100
AcDbSymbolTableRecord
100
AcDbLayerTableRecord
  2
02_COORD_SYS
 70
0
 62
7
  6
CONTINUOUS
370
-3
390
F
  0
LAYER
  5
201
100
AcDbSymbolTableRecord
100
AcDbLayerTableRecord
  2
03_AXES
 70
0
 62
7
  6
CONTINUOUS
370
-3
390
F
  0
LAYER
  5
202
100
AcDbSymbolTableRecord
100
AcDbLayerTableRecord
  2
04_POINTS
 70
0
 62
7
  6
CONTINUOUS
370
-3
390
F
  0
LAYER
  5
203
100
AcDbSymbolTableRecord
100
AcDbLayerTableRecord
  2
05_CURVES
 70
0
 62
7
  6
CONTINUOUS
370
-3
390
F
  0
LAYER
  5
204
100
AcDbSymbolTableRecord
100
AcDbLayerTableRecord
  2
06_SURFS
 70
0
 62
7
  6
CONTINUOUS
370
-3
390
F
  0
LAYER
  5
205
100
AcDbSymbolTableRecord
100
AcDbLayerTableRecord
  2
07_COSMETICS
 70
0
 62
7
  6
CONTINUOUS
370
-3
390
F
  0
LAYER
  5
206
100
AcDbSymbolTableRecord
100
AcDbLayerTableRecord
  2
10_NOTES
 70
0
 62
7
  6
CONTINUOUS
370
-3
390
F
  0
LAYER
  5
207
100
AcDbSymbolTableRecord
100
AcDbLayerTableRecord
  2
11_NOTES_PUB
 70
0
 62
7
  6
CONTINUOUS
370
-3
390
F
  0
LAYER
  5
208
100
AcDbSymbolTableRecord
100
AcDbLayerTableRecord
  2
13_REF_GTOL
 70
0
 62
7
  6
CONTINUOUS
370
-3
390
F
  0
LAYER
  5
209
100
AcDbSymbolTableRecord
100
AcDbLayerTableRecord
  2
16_MISC
 70
0
 62
7
  6
CONTINUOUS
370
-3
390
F
  0
LAYER
  5
20A
100
AcDbSymbolTableRecord
100
AcDbLayerTableRecord
  2
17_NO_PRINT
 70
0
 62
7
  6
CONTINUOUS
370
-3
390
F
  0
LAYER
  5
20B
100
AcDbSymbolTableRecord
100
AcDbLayerTableRecord
  2
18_DATUM_CAMS_JOINTS
 70
0
 62
7
  6
CONTINUOUS
370
-3
390
F
  0
LAYER
  5
20C
100
AcDbSymbolTableRecord
100
AcDbLayerTableRecord
  2
19_DATUM_FUNCTIONAL
 70
0
 62
7
  6
CONTINUOUS
370
-3
390
F
  0
LAYER
  5
20D
100
AcDbSymbolTableRecord
100
AcDbLayerTableRecord
  2
20_DATUM_KINEMATIC_SCHEME
 70
0
 62
7
  6
CONTINUOUS
370
-3
390
F
  0
ENDTAB
  0
TABLE
  2
STYLE
  5
3
100
AcDbSymbolTable
 70
1
  0
STYLE
  5
11
100
AcDbSymbolTableRecord
100
AcDbTextStyleTableRecord
  2
STANDARD
 70
0
 40
0.0
 41
1.0
 50
0.0
 71
0
 42
0.2
  3
ARIAL.TTF
  4

  0
STYLE
  5
20E
100
AcDbSymbolTableRecord
100
AcDbTextStyleTableRecord
  2
TEXTSTYLE_1
 70
0
 40
0.0
 41
0.8
 50
0.0
 71
0
 42
0.2
  3
gdt
  4

  0
ENDTAB
  0
TABLE
  2
VIEW
  5
6
100
AcDbSymbolTable
 70
0
  0
ENDTAB
  0
TABLE
  2
UCS
  5
7
100
AcDbSymbolTable
 70
0
  0
ENDTAB
  0
TABLE
  2
APPID
  5
9
100
AcDbSymbolTable
 70
1
  0
APPID
  5
20F
100
AcDbSymbolTableRecord
100
AcDbRegAppTableRecord
  2
ACAD
 70
0
  0
ENDTAB
  0
TABLE
  2
BLOCK_RECORD
  5
1
100
AcDbSymbolTable
 70
0
  0
BLOCK_RECORD
  5
210
100
AcDbSymbolTableRecord
100
AcDbBlockTableRecord
  2
*Model_Space
  0
BLOCK_RECORD
  5
211
100
AcDbSymbolTableRecord
100
AcDbBlockTableRecord
  2
*Paper_Space
  0
BLOCK_RECORD
  5
212
100
AcDbSymbolTableRecord
100
AcDbBlockTableRecord
  2
_FILLED
  0
ENDTAB
  0
TABLE
  2
DIMSTYLE
  5
A
100
AcDbSymbolTable
 70
1
100
AcDbDimStyleTable
 71
0
  0
DIMSTYLE
105
213
100
AcDbSymbolTableRecord
100
AcDbDimStyleTableRecord
  2
STANDARD
 70
0
  3

  4

 40
1.0
 41
1.3061550759
 42
1.0
 43
0.38
 44
1.0
 45
0.0
 46
0.0
 47
0.01
 48
0.01
140
1.8286171063
141
0.09
142
0.0
143
25.4
144
1.0
145
0.0
146
1.0
147
0.625
 71
1
 72
0
 73
0
 74
0
 75
0
 76
0
 77
1
 78
8
 79
2
170
0
171
1
172
0
173
0
174
0
175
0
176
0
177
0
178
0
270
2
179
2
271
2
272
2
273
2
274
2
275
0
280
0
281
0
282
0
283
1
284
8
285
0
286
0
287
3
288
0
340
11
278
46
341
212
342
212
343
212
344
212
  0
ENDTAB
  0
ENDSEC
  0
SECTION
  2
BLOCKS
  0
BLOCK
  5
20
100
AcDbEntity
  8
0
100
AcDbBlockBegin
  2
*Model_Space
 70
0
 10
0.0
 20
0.0
 30
0.0
  3
*Model_Space
  1

  0
ENDBLK
  5
21
100
AcDbEntity
  8
0
100
AcDbBlockEnd
  0
BLOCK
  5
1C
100
AcDbEntity
  8
0
100
AcDbBlockBegin
  2
*Paper_Space
 70
0
 10
0.0
 20
0.0
 30
0.0
  3
*Paper_Space
  1

  0
ENDBLK
  5
1D
100
AcDbEntity
  8
0
100
AcDbBlockEnd
  0
BLOCK
  5
214
100
AcDbEntity
  8
0
100
AcDbBlockBegin
  2
_FILLED
 70
64
 10
0.0
 20
0.0
  3
_FILLED
  1

  0
SOLID
  5
215
100
AcDbEntity
  8
0
  6
BYBLOCK
 62
0
100
AcDbTrace
 10
0.0
 20
0.0
 11
-1.0
 21
0.25
 12
-1.0
 22
-0.25
 13
-1.0
 23
-0.25
  0
ENDBLK
  5
216
100
AcDbEntity
  8
0
  6
BYBLOCK
 62
0
100
AcDbBlockEnd
  0
ENDSEC
  0
SECTION
  2
ENTITIES
  0
LINE
  5
217
100
AcDbEntity
  8
0
100
AcDbLine
 62
7
  6
BYLAYER
 10
61.3358736211
 20
11.1107913669
 11
51.2300736211
 21
11.1107913669
  0
LINE
  5
218
100
AcDbEntity
  8
0
100
AcDbLine
 62
7
  6
BYLAYER
 10
62.2829736211
 20
12.0578913669
 11
50.2829736211
 21
12.0578913669
  0
LINE
  5
219
100
AcDbEntity
  8
0
100
AcDbLine
 62
7
  6
BYLAYER
 10
65.3329736211
 20
14.7607913669
 11
47.2329736211
 21
14.7607913669
  0
LINE
  5
21A
100
AcDbEntity
  8
0
100
AcDbLine
 62
7
  6
BYLAYER
 10
47.2329736211
 20
14.7607913669
 11
45.8329337488
 21
15.5691047641
  0
LINE
  5
21B
100
AcDbEntity
  8
0
100
AcDbLine
 62
7
  6
BYLAYER
 10
47.2829736211
 20
142.6407913669
 11
47.7529736211
 21
143.1107913669
  0
LINE
  5
21C
100
AcDbEntity
  8
0
100
AcDbLine
 62
7
  6
BYLAYER
 10
68.0829736211
 20
25.5607913669
 11
44.4829736211
 21
25.5607913669
  0
LINE
  5
21D
100
AcDbEntity
  8
0
100
AcDbLine
 62
7
  6
BYLAYER
 10
44.4829736211
 20
28.1607913669
 11
68.0829736211
 21
28.1607913669
  0
LINE
  5
21E
100
AcDbEntity
  8
0
100
AcDbLine
 62
7
  6
BYLAYER
 10
51.2300736211
 20
11.1107913669
 11
50.2829736211
 21
12.0578913669
  0
LINE
  5
21F
100
AcDbEntity
  8
0
100
AcDbLine
 62
7
  6
BYLAYER
 10
68.0829736211
 20
31.2607913669
 11
44.4829736211
 21
31.2607913669
  0
LINE
  5
220
100
AcDbEntity
  8
0
100
AcDbLine
 62
7
  6
BYLAYER
 10
44.4829736211
 20
33.8607913669
 11
68.0829736211
 21
33.8607913669
  0
LINE
  5
221
100
AcDbEntity
  8
0
100
AcDbLine
 62
7
  6
BYLAYER
 10
47.2329736211
 20
33.8607913669
 11
45.8329337488
 21
34.6691047641
  0
LINE
  5
222
100
AcDbEntity
  8
0
100
AcDbLine
 62
7
  6
BYLAYER
 10
65.3329736211
 20
25.5607913669
 11
66.7330134934
 21
24.7524779697
  0
LINE
  5
223
100
AcDbEntity
  8
0
100
AcDbLine
 62
7
  6
BYLAYER
 10
47.2329736211
 20
44.6607913669
 11
65.3329736211
 21
44.6607913669
  0
LINE
  5
224
100
AcDbEntity
  8
0
100
AcDbLine
 62
7
  6
BYLAYER
 10
50.2829736211
 20
51.1107913669
 11
62.2829736211
 21
51.1107913669
  0
LINE
  5
225
100
AcDbEntity
  8
0
100
AcDbLine
 62
7
  6
BYLAYER
 10
62.2829736211
 20
52.0578913669
 11
50.2829736211
 21
52.0578913669
  0
LINE
  5
226
100
AcDbEntity
  8
0
100
AcDbLine
 62
7
  6
BYLAYER
 10
65.3329736211
 20
44.6607913669
 11
66.7330134934
 21
43.8524779697
  0
LINE
  5
227
100
AcDbEntity
  8
0
100
AcDbLine
 62
7
  6
BYLAYER
 10
51.2300736211
 20
51.1107913669
 11
50.2829736211
 21
52.0578913669
  0
LINE
  5
228
100
AcDbEntity
  8
0
100
AcDbLine
 62
7
  6
BYLAYER
 10
44.4829736211
 20
25.5607913669
 11
44.4829736211
 21
28.1607913669
  0
LINE
  5
229
100
AcDbEntity
  8
0
100
AcDbLine
 62
7
  6
BYLAYER
 10
44.4829736211
 20
31.2607913669
 11
44.4829736211
 21
33.8607913669
  0
LINE
  5
22A
100
AcDbEntity
  8
0
100
AcDbLine
 62
7
  6
BYLAYER
 10
45.8329337488
 20
43.8524779697
 11
45.8329337488
 21
34.6691047641
  0
LINE
  5
22B
100
AcDbEntity
  8
0
100
AcDbLine
 62
7
  6
BYLAYER
 10
45.8329337488
 20
24.7524779697
 11
45.8329337488
 21
15.5691047641
  0
LINE
  5
22C
100
AcDbEntity
  8
0
100
AcDbLine
 62
7
  6
BYLAYER
 10
47.2829736211
 20
131.5107913669
 11
47.2829736211
 21
142.6407913669
  0
LINE
  5
22D
100
AcDbEntity
  8
0
100
AcDbLine
 62
7
  6
BYLAYER
 10
50.2829736211
 20
12.0578913669
 11
50.2829736211
 21
14.7607913669
  0
LINE
  5
22E
100
AcDbEntity
  8
0
100
AcDbLine
 62
7
  6
BYLAYER
 10
50.2829736211
 20
28.1607913669
 11
50.2829736211
 21
31.2607913669
  0
LINE
  5
22F
100
AcDbEntity
  8
0
100
AcDbLine
 62
7
  6
BYLAYER
 10
50.2829736211
 20
44.6607913669
 11
50.2829736211
 21
51.1107913669
  0
LINE
  5
230
100
AcDbEntity
  8
0
100
AcDbLine
 62
7
  6
BYLAYER
 10
50.2829736211
 20
52.0578913669
 11
50.2829736211
 21
130.9307913669
  0
LINE
  5
231
100
AcDbEntity
  8
0
100
AcDbLine
 62
7
  6
BYLAYER
 10
51.0579536849
 20
43.8524779697
 11
51.0579536849
 21
34.6691047641
  0
LINE
  5
232
100
AcDbEntity
  8
0
100
AcDbLine
 62
7
  6
BYLAYER
 10
51.0579536849
 20
24.7524779697
 11
51.0579536849
 21
15.5691047641
  0
LINE
  5
233
100
AcDbEntity
  8
0
100
AcDbLine
 62
7
  6
BYLAYER
 10
61.5079935573
 20
43.8524779697
 11
61.5079935573
 21
34.6691047641
  0
LINE
  5
234
100
AcDbEntity
  8
0
100
AcDbLine
 62
7
  6
BYLAYER
 10
61.5079935573
 20
24.7524779697
 11
61.5079935573
 21
15.5691047641
  0
LINE
  5
235
100
AcDbEntity
  8
0
100
AcDbLine
 62
7
  6
BYLAYER
 10
62.2829736211
 20
130.9307913669
 11
62.2829736211
 21
52.0578913669
  0
LINE
  5
236
100
AcDbEntity
  8
0
100
AcDbLine
 62
7
  6
BYLAYER
 10
62.2829736211
 20
51.1107913669
 11
62.2829736211
 21
44.6607913669
  0
LINE
  5
237
100
AcDbEntity
  8
0
100
AcDbLine
 62
7
  6
BYLAYER
 10
62.2829736211
 20
31.2607913669
 11
62.2829736211
 21
28.1607913669
  0
LINE
  5
238
100
AcDbEntity
  8
0
100
AcDbLine
 62
7
  6
BYLAYER
 10
62.2829736211
 20
14.7607913669
 11
62.2829736211
 21
12.0578913669
  0
LINE
  5
239
100
AcDbEntity
  8
0
100
AcDbLine
 62
7
  6
BYLAYER
 10
65.2829736211
 20
142.6407913669
 11
65.2829736211
 21
131.5107913669
  0
LINE
  5
23A
100
AcDbEntity
  8
0
100
AcDbLine
 62
7
  6
BYLAYER
 10
66.7330134934
 20
43.8524779697
 11
66.7330134934
 21
34.6691047641
  0
LINE
  5
23B
100
AcDbEntity
  8
0
100
AcDbLine
 62
7
  6
BYLAYER
 10
66.7330134934
 20
24.7524779697
 11
66.7330134934
 21
15.5691047641
  0
LINE
  5
23C
100
AcDbEntity
  8
0
100
AcDbLine
 62
7
  6
BYLAYER
 10
68.0829736211
 20
33.8607913669
 11
68.0829736211
 21
31.2607913669
  0
LINE
  5
23D
100
AcDbEntity
  8
0
100
AcDbLine
 62
7
  6
BYLAYER
 10
68.0829736211
 20
28.1607913669
 11
68.0829736211
 21
25.5607913669
  0
LINE
  5
23E
100
AcDbEntity
  8
0
100
AcDbLine
 62
7
  6
BYLAYER
 10
62.2829736211
 20
52.0578913669
 11
61.3358736211
 21
51.1107913669
  0
LINE
  5
23F
100
AcDbEntity
  8
0
100
AcDbLine
 62
7
  6
BYLAYER
 10
45.8329337488
 20
43.8524779697
 11
47.2329736211
 21
44.6607913669
  0
LINE
  5
240
100
AcDbEntity
  8
0
100
AcDbLine
 62
7
  6
BYLAYER
 10
45.8329337488
 20
24.7524779697
 11
47.2329736211
 21
25.5607913669
  0
LINE
  5
241
100
AcDbEntity
  8
0
100
AcDbLine
 62
7
  6
BYLAYER
 10
66.7330134934
 20
34.6691047641
 11
65.3329736211
 21
33.8607913669
  0
LINE
  5
242
100
AcDbEntity
  8
0
100
AcDbLine
 62
7
  6
BYLAYER
 10
62.2829736211
 20
12.0578913669
 11
61.3358736211
 21
11.1107913669
  0
LINE
  5
243
100
AcDbEntity
  8
0
100
AcDbLine
 62
7
  6
BYLAYER
 10
50.2829736211
 20
130.9307913669
 11
62.2829736211
 21
130.9307913669
  0
LINE
  5
244
100
AcDbEntity
  8
0
100
AcDbLine
 62
7
  6
BYLAYER
 10
64.8129736211
 20
143.1107913669
 11
65.2829736211
 21
142.6407913669
  0
LINE
  5
245
100
AcDbEntity
  8
0
100
AcDbLine
 62
7
  6
BYLAYER
 10
66.7330134934
 20
15.5691047641
 11
65.3329736211
 21
14.7607913669
  0
LINE
  5
246
100
AcDbEntity
  8
0
100
AcDbLine
 62
7
  6
BYLAYER
 10
65.2829736211
 20
131.5107913669
 11
47.2829736211
 21
131.5107913669
  0
LINE
  5
247
100
AcDbEntity
  8
0
100
AcDbLine
 62
7
  6
BYLAYER
 10
47.2829736211
 20
142.6407913669
 11
65.2829736211
 21
142.6407913669
  0
LINE
  5
248
100
AcDbEntity
  8
0
100
AcDbLine
 62
7
  6
BYLAYER
 10
47.7529736211
 20
143.1107913669
 11
64.8129736211
 21
143.1107913669
  0
ARC
  5
249
100
AcDbEntity
  8
0
100
AcDbCircle
 62
7
  6
BYLAYER
 10
49.7029736211
 20
130.9307913669
 40
0.58
100
AcDbArc
 50
0.0
 51
90.0
  0
ARC
  5
24A
100
AcDbEntity
  8
0
100
AcDbCircle
 62
7
  6
BYLAYER
 10
62.8629736211
 20
130.9307913669
 40
0.58
100
AcDbArc
 50
90.0
 51
180.0
  0
SPLINE
  5
24B
100
AcDbEntity
  8
0
100
AcDbSpline
 62
7
  6
BYLAYER
 70
0
 71
3
 72
12
 73
8
 74
0
 42
0.0000001
 43
0.0000001
 44
0.0000000001
 40
0.0
 40
0.0
 40
0.0
 40
0.0
 40
0.119962
 40
0.2405600192
 40
0.4856104421
 40
0.7384043783
 40
1.0
 40
1.0
 40
1.0
 40
1.0
 10
64.1205035254
 20
33.8607913669
 30
0.0
 10
64.0099147294
 20
33.8607913669
 30
0.0
 10
63.7880319152
 20
33.8701980456
 30
0.0
 10
63.3434760538
 20
33.9264389836
 30
0.0
 10
62.7883633258
 20
34.0663290933
 30
0.0
 10
62.1369676948
 20
34.3269943507
 30
0.0
 10
61.7168406983
 20
34.548526811
 30
0.0
 10
61.5079935573
 20
34.6691047641
 30
0.0
  0
SPLINE
  5
24C
100
AcDbEntity
  8
0
100
AcDbSpline
 62
7
  6
BYLAYER
 70
0
 71
3
 72
11
 73
7
 74
0
 42
0.0000001
 43
0.0000001
 44
0.0000000001
 40
0.0
 40
0.0
 40
0.0
 40
0.0
 40
0.2500122644
 40
0.5000150193
 40
0.7500092299
 40
1.0
 40
1.0
 40
1.0
 40
1.0
 10
51.0579536849
 20
43.8524779697
 30
0.0
 10
51.4826305137
 20
43.9750716105
 30
0.0
 10
52.3381227667
 20
44.1997906731
 30
0.0
 10
53.6396093363
 20
44.4585775195
 30
0.0
 10
54.9565876737
 20
44.6232087264
 30
0.0
 10
55.840993965
 20
44.6607913669
 30
0.0
 10
56.2829736211
 20
44.6607913669
 30
0.0
  0
SPLINE
  5
24D
100
AcDbEntity
  8
0
100
AcDbSpline
 62
7
  6
BYLAYER
 70
0
 71
3
 72
11
 73
7
 74
0
 42
0.0000001
 43
0.0000001
 44
0.0000000001
 40
0.0
 40
0.0
 40
0.0
 40
0.0
 40
0.2500122644
 40
0.5000150193
 40
0.7500092299
 40
1.0
 40
1.0
 40
1.0
 40
1.0
 10
61.5079935573
 20
34.6691047641
 30
0.0
 10
61.0833167285
 20
34.5465111234
 30
0.0
 10
60.2278244755
 20
34.3217920607
 30
0.0
 10
58.9263379059
 20
34.0630052143
 30
0.0
 10
57.6093595685
 20
33.8983740074
 30
0.0
 10
56.7249532772
 20
33.8607913669
 30
0.0
 10
56.2829736211
 20
33.8607913669
 30
0.0
  0
SPLINE
  5
24E
100
AcDbEntity
  8
0
100
AcDbSpline
 62
7
  6
BYLAYER
 70
0
 71
3
 72
11
 73
7
 74
0
 42
0.0000001
 43
0.0000001
 44
0.0000000001
 40
0.0
 40
0.0
 40
0.0
 40
0.0
 40
0.2499908913
 40
0.4999851166
 40
0.7499878191
 40
1.0
 40
1.0
 40
1.0
 40
1.0
 10
56.2829736211
 20
33.8607913669
 30
0.0
 10
55.8409937489
 20
33.8607913669
 30
0.0
 10
54.9565872142
 20
33.8983740788
 30
0.0
 10
53.6396087313
 20
34.0630052601
 30
0.0
 10
52.3381222903
 20
34.3217917436
 30
0.0
 10
51.4826303735
 20
34.5465111638
 30
0.0
 10
51.0579536849
 20
34.6691047641
 30
0.0
  0
SPLINE
  5
24F
100
AcDbEntity
  8
0
100
AcDbSpline
 62
7
  6
BYLAYER
 70
0
 71
3
 72
12
 73
8
 74
0
 42
0.0000001
 43
0.0000001
 44
0.0000000001
 40
0.0
 40
0.0
 40
0.0
 40
0.0
 40
0.119962
 40
0.2405600192
 40
0.4856104421
 40
0.7384043783
 40
1.0
 40
1.0
 40
1.0
 40
1.0
 10
64.1205035254
 20
44.6607913669
 30
0.0
 10
64.2310923213
 20
44.6607913669
 30
0.0
 10
64.4529751355
 20
44.6513846882
 30
0.0
 10
64.8975309969
 20
44.5951437502
 30
0.0
 10
65.4526437249
 20
44.4552536405
 30
0.0
 10
66.1040393559
 20
44.1945883831
 30
0.0
 10
66.5241663524
 20
43.9730559229
 30
0.0
 10
66.7330134934
 20
43.8524779697
 30
0.0
  0
SPLINE
  5
250
100
AcDbEntity
  8
0
100
AcDbSpline
 62
7
  6
BYLAYER
 70
0
 71
3
 72
12
 73
8
 74
0
 42
0.0000001
 43
0.0000001
 44
0.0000000001
 40
0.0
 40
0.0
 40
0.0
 40
0.0
 40
0.2615956782
 40
0.5143896803
 40
0.7594400946
 40
0.8800380357
 40
1.0
 40
1.0
 40
1.0
 40
1.0
 10
51.0579536849
 20
34.6691047641
 30
0.0
 10
50.849106501
 20
34.5485267862
 30
0.0
 10
50.4289792279
 20
34.3269946354
 30
0.0
 10
49.7775836388
 20
34.0663290335
 30
0.0
 10
49.2224709195
 20
33.9264389933
 30
0.0
 10
48.7779151941
 20
33.8701978853
 30
0.0
 10
48.5560324787
 20
33.8607913669
 30
0.0
 10
48.4454437169
 20
33.8607913669
 30
0.0
  0
SPLINE
  5
251
100
AcDbEntity
  8
0
100
AcDbSpline
 62
7
  6
BYLAYER
 70
0
 71
3
 72
12
 73
8
 74
0
 42
0.0000001
 43
0.0000001
 44
0.0000000001
 40
0.0
 40
0.0
 40
0.0
 40
0.0
 40
0.2615956782
 40
0.5143896803
 40
0.7594400946
 40
0.8800380357
 40
1.0
 40
1.0
 40
1.0
 40
1.0
 10
61.5079935573
 20
43.8524779697
 30
0.0
 10
61.7168407412
 20
43.9730559476
 30
0.0
 10
62.1369680143
 20
44.1945880984
 30
0.0
 10
62.7883636034
 20
44.4552537004
 30
0.0
 10
63.3434763227
 20
44.5951437405
 30
0.0
 10
63.7880320481
 20
44.6513848485
 30
0.0
 10
64.0099147635
 20
44.6607913669
 30
0.0
 10
64.1205035254
 20
44.6607913669
 30
0.0
  0
SPLINE
  5
252
100
AcDbEntity
  8
0
100
AcDbSpline
 62
7
  6
BYLAYER
 70
0
 71
3
 72
11
 73
7
 74
0
 42
0.0000001
 43
0.0000001
 44
0.0000000001
 40
0.0
 40
0.0
 40
0.0
 40
0.0
 40
0.2499908913
 40
0.4999851166
 40
0.7499878191
 40
1.0
 40
1.0
 40
1.0
 40
1.0
 10
56.2829736211
 20
44.6607913669
 30
0.0
 10
56.7249534933
 20
44.6607913669
 30
0.0
 10
57.609360028
 20
44.623208655
 30
0.0
 10
58.9263385109
 20
44.4585774737
 30
0.0
 10
60.2278249519
 20
44.1997909902
 30
0.0
 10
61.0833168687
 20
43.97507157
 30
0.0
 10
61.5079935573
 20
43.8524779697
 30
0.0
  0
SPLINE
  5
253
100
AcDbEntity
  8
0
100
AcDbSpline
 62
7
  6
BYLAYER
 70
0
 71
3
 72
12
 73
8
 74
0
 42
0.0000001
 43
0.0000001
 44
0.0000000001
 40
0.0
 40
0.0
 40
0.0
 40
0.0
 40
0.119962
 40
0.2405600192
 40
0.4856104421
 40
0.7384043783
 40
1.0
 40
1.0
 40
1.0
 40
1.0
 10
48.4454437169
 20
33.8607913669
 30
0.0
 10
48.3348549209
 20
33.8607913669
 30
0.0
 10
48.1129721067
 20
33.8701980456
 30
0.0
 10
47.6684162453
 20
33.9264389836
 30
0.0
 10
47.1133035173
 20
34.0663290933
 30
0.0
 10
46.4619078863
 20
34.3269943507
 30
0.0
 10
46.0417808898
 20
34.548526811
 30
0.0
 10
45.8329337488
 20
34.6691047641
 30
0.0
  0
SPLINE
  5
254
100
AcDbEntity
  8
0
100
AcDbSpline
 62
7
  6
BYLAYER
 70
0
 71
3
 72
12
 73
8
 74
0
 42
0.0000001
 43
0.0000001
 44
0.0000000001
 40
0.0
 40
0.0
 40
0.0
 40
0.0
 40
0.2615956782
 40
0.5143896803
 40
0.7594400946
 40
0.8800380357
 40
1.0
 40
1.0
 40
1.0
 40
1.0
 10
45.8329337488
 20
43.8524779697
 30
0.0
 10
46.0417809327
 20
43.9730559476
 30
0.0
 10
46.4619082058
 20
44.1945880984
 30
0.0
 10
47.1133037949
 20
44.4552537004
 30
0.0
 10
47.6684165142
 20
44.5951437405
 30
0.0
 10
48.1129722396
 20
44.6513848485
 30
0.0
 10
48.334854955
 20
44.6607913669
 30
0.0
 10
48.4454437169
 20
44.6607913669
 30
0.0
  0
SPLINE
  5
255
100
AcDbEntity
  8
0
100
AcDbSpline
 62
7
  6
BYLAYER
 70
0
 71
3
 72
12
 73
8
 74
0
 42
0.0000001
 43
0.0000001
 44
0.0000000001
 40
0.0
 40
0.0
 40
0.0
 40
0.0
 40
0.2615956782
 40
0.5143896803
 40
0.7594400946
 40
0.8800380357
 40
1.0
 40
1.0
 40
1.0
 40
1.0
 10
66.7330134934
 20
34.6691047641
 30
0.0
 10
66.5241663095
 20
34.5485267862
 30
0.0
 10
66.1040390364
 20
34.3269946354
 30
0.0
 10
65.4526434473
 20
34.0663290335
 30
0.0
 10
64.897530728
 20
33.9264389933
 30
0.0
 10
64.4529750026
 20
33.8701978853
 30
0.0
 10
64.2310922872
 20
33.8607913669
 30
0.0
 10
64.1205035254
 20
33.8607913669
 30
0.0
  0
SPLINE
  5
256
100
AcDbEntity
  8
0
100
AcDbSpline
 62
7
  6
BYLAYER
 70
0
 71
3
 72
12
 73
8
 74
0
 42
0.0000001
 43
0.0000001
 44
0.0000000001
 40
0.0
 40
0.0
 40
0.0
 40
0.0
 40
0.119962
 40
0.2405600192
 40
0.4856104421
 40
0.7384043783
 40
1.0
 40
1.0
 40
1.0
 40
1.0
 10
48.4454437169
 20
44.6607913669
 30
0.0
 10
48.5560325128
 20
44.6607913669
 30
0.0
 10
48.777915327
 20
44.6513846882
 30
0.0
 10
49.2224711884
 20
44.5951437502
 30
0.0
 10
49.7775839164
 20
44.4552536405
 30
0.0
 10
50.4289795474
 20
44.1945883831
 30
0.0
 10
50.8491065439
 20
43.9730559229
 30
0.0
 10
51.0579536849
 20
43.8524779697
 30
0.0
  0
SPLINE
  5
257
100
AcDbEntity
  8
0
100
AcDbSpline
 62
7
  6
BYLAYER
 70
0
 71
3
 72
12
 73
8
 74
0
 42
0.0000001
 43
0.0000001
 44
0.0000000001
 40
0.0
 40
0.0
 40
0.0
 40
0.0
 40
0.119962
 40
0.2405600192
 40
0.4856104421
 40
0.7384043783
 40
1.0
 40
1.0
 40
1.0
 40
1.0
 10
64.1205035254
 20
14.7607913669
 30
0.0
 10
64.0099147294
 20
14.7607913669
 30
0.0
 10
63.7880319152
 20
14.7701980456
 30
0.0
 10
63.3434760538
 20
14.8264389836
 30
0.0
 10
62.7883633258
 20
14.9663290933
 30
0.0
 10
62.1369676948
 20
15.2269943507
 30
0.0
 10
61.7168406983
 20
15.448526811
 30
0.0
 10
61.5079935573
 20
15.5691047641
 30
0.0
  0
SPLINE
  5
258
100
AcDbEntity
  8
0
100
AcDbSpline
 62
7
  6
BYLAYER
 70
0
 71
3
 72
11
 73
7
 74
0
 42
0.0000001
 43
0.0000001
 44
0.0000000001
 40
0.0
 40
0.0
 40
0.0
 40
0.0
 40
0.2500122644
 40
0.5000150193
 40
0.7500092299
 40
1.0
 40
1.0
 40
1.0
 40
1.0
 10
51.0579536849
 20
24.7524779697
 30
0.0
 10
51.4826305137
 20
24.8750716105
 30
0.0
 10
52.3381227667
 20
25.0997906731
 30
0.0
 10
53.6396093363
 20
25.3585775195
 30
0.0
 10
54.9565876737
 20
25.5232087264
 30
0.0
 10
55.840993965
 20
25.5607913669
 30
0.0
 10
56.2829736211
 20
25.5607913669
 30
0.0
  0
SPLINE
  5
259
100
AcDbEntity
  8
0
100
AcDbSpline
 62
7
  6
BYLAYER
 70
0
 71
3
 72
11
 73
7
 74
0
 42
0.0000001
 43
0.0000001
 44
0.0000000001
 40
0.0
 40
0.0
 40
0.0
 40
0.0
 40
0.2500122644
 40
0.5000150193
 40
0.7500092299
 40
1.0
 40
1.0
 40
1.0
 40
1.0
 10
61.5079935573
 20
15.5691047641
 30
0.0
 10
61.0833167285
 20
15.4465111234
 30
0.0
 10
60.2278244755
 20
15.2217920607
 30
0.0
 10
58.9263379059
 20
14.9630052143
 30
0.0
 10
57.6093595685
 20
14.7983740074
 30
0.0
 10
56.7249532772
 20
14.7607913669
 30
0.0
 10
56.2829736211
 20
14.7607913669
 30
0.0
  0
SPLINE
  5
25A
100
AcDbEntity
  8
0
100
AcDbSpline
 62
7
  6
BYLAYER
 70
0
 71
3
 72
11
 73
7
 74
0
 42
0.0000001
 43
0.0000001
 44
0.0000000001
 40
0.0
 40
0.0
 40
0.0
 40
0.0
 40
0.2499908913
 40
0.4999851166
 40
0.7499878191
 40
1.0
 40
1.0
 40
1.0
 40
1.0
 10
56.2829736211
 20
14.7607913669
 30
0.0
 10
55.8409937489
 20
14.7607913669
 30
0.0
 10
54.9565872142
 20
14.7983740788
 30
0.0
 10
53.6396087313
 20
14.9630052601
 30
0.0
 10
52.3381222903
 20
15.2217917436
 30
0.0
 10
51.4826303735
 20
15.4465111638
 30
0.0
 10
51.0579536849
 20
15.5691047641
 30
0.0
  0
SPLINE
  5
25B
100
AcDbEntity
  8
0
100
AcDbSpline
 62
7
  6
BYLAYER
 70
0
 71
3
 72
12
 73
8
 74
0
 42
0.0000001
 43
0.0000001
 44
0.0000000001
 40
0.0
 40
0.0
 40
0.0
 40
0.0
 40
0.119962
 40
0.2405600192
 40
0.4856104421
 40
0.7384043783
 40
1.0
 40
1.0
 40
1.0
 40
1.0
 10
64.1205035254
 20
25.5607913669
 30
0.0
 10
64.2310923213
 20
25.5607913669
 30
0.0
 10
64.4529751355
 20
25.5513846882
 30
0.0
 10
64.8975309969
 20
25.4951437502
 30
0.0
 10
65.4526437249
 20
25.3552536405
 30
0.0
 10
66.1040393559
 20
25.0945883831
 30
0.0
 10
66.5241663524
 20
24.8730559229
 30
0.0
 10
66.7330134934
 20
24.7524779697
 30
0.0
  0
SPLINE
  5
25C
100
AcDbEntity
  8
0
100
AcDbSpline
 62
7
  6
BYLAYER
 70
0
 71
3
 72
12
 73
8
 74
0
 42
0.0000001
 43
0.0000001
 44
0.0000000001
 40
0.0
 40
0.0
 40
0.0
 40
0.0
 40
0.2615956782
 40
0.5143896803
 40
0.7594400946
 40
0.8800380357
 40
1.0
 40
1.0
 40
1.0
 40
1.0
 10
51.0579536849
 20
15.5691047641
 30
0.0
 10
50.849106501
 20
15.4485267862
 30
0.0
 10
50.4289792279
 20
15.2269946354
 30
0.0
 10
49.7775836388
 20
14.9663290335
 30
0.0
 10
49.2224709195
 20
14.8264389933
 30
0.0
 10
48.7779151941
 20
14.7701978853
 30
0.0
 10
48.5560324787
 20
14.7607913669
 30
0.0
 10
48.4454437169
 20
14.7607913669
 30
0.0
  0
SPLINE
  5
25D
100
AcDbEntity
  8
0
100
AcDbSpline
 62
7
  6
BYLAYER
 70
0
 71
3
 72
12
 73
8
 74
0
 42
0.0000001
 43
0.0000001
 44
0.0000000001
 40
0.0
 40
0.0
 40
0.0
 40
0.0
 40
0.2615956782
 40
0.5143896803
 40
0.7594400946
 40
0.8800380357
 40
1.0
 40
1.0
 40
1.0
 40
1.0
 10
61.5079935573
 20
24.7524779697
 30
0.0
 10
61.7168407412
 20
24.8730559476
 30
0.0
 10
62.1369680143
 20
25.0945880984
 30
0.0
 10
62.7883636034
 20
25.3552537004
 30
0.0
 10
63.3434763227
 20
25.4951437405
 30
0.0
 10
63.7880320481
 20
25.5513848485
 30
0.0
 10
64.0099147635
 20
25.5607913669
 30
0.0
 10
64.1205035254
 20
25.5607913669
 30
0.0
  0
SPLINE
  5
25E
100
AcDbEntity
  8
0
100
AcDbSpline
 62
7
  6
BYLAYER
 70
0
 71
3
 72
11
 73
7
 74
0
 42
0.0000001
 43
0.0000001
 44
0.0000000001
 40
0.0
 40
0.0
 40
0.0
 40
0.0
 40
0.2499908913
 40
0.4999851166
 40
0.7499878191
 40
1.0
 40
1.0
 40
1.0
 40
1.0
 10
56.2829736211
 20
25.5607913669
 30
0.0
 10
56.7249534933
 20
25.5607913669
 30
0.0
 10
57.609360028
 20
25.523208655
 30
0.0
 10
58.9263385109
 20
25.3585774737
 30
0.0
 10
60.2278249519
 20
25.0997909902
 30
0.0
 10
61.0833168687
 20
24.87507157
 30
0.0
 10
61.5079935573
 20
24.7524779697
 30
0.0
  0
SPLINE
  5
25F
100
AcDbEntity
  8
0
100
AcDbSpline
 62
7
  6
BYLAYER
 70
0
 71
3
 72
12
 73
8
 74
0
 42
0.0000001
 43
0.0000001
 44
0.0000000001
 40
0.0
 40
0.0
 40
0.0
 40
0.0
 40
0.119962
 40
0.2405600192
 40
0.4856104421
 40
0.7384043783
 40
1.0
 40
1.0
 40
1.0
 40
1.0
 10
48.4454437169
 20
14.7607913669
 30
0.0
 10
48.3348549209
 20
14.7607913669
 30
0.0
 10
48.1129721067
 20
14.7701980456
 30
0.0
 10
47.6684162453
 20
14.8264389836
 30
0.0
 10
47.1133035173
 20
14.9663290933
 30
0.0
 10
46.4619078863
 20
15.2269943507
 30
0.0
 10
46.0417808898
 20
15.448526811
 30
0.0
 10
45.8329337488
 20
15.5691047641
 30
0.0
  0
SPLINE
  5
260
100
AcDbEntity
  8
0
100
AcDbSpline
 62
7
  6
BYLAYER
 70
0
 71
3
 72
12
 73
8
 74
0
 42
0.0000001
 43
0.0000001
 44
0.0000000001
 40
0.0
 40
0.0
 40
0.0
 40
0.0
 40
0.2615956782
 40
0.5143896803
 40
0.7594400946
 40
0.8800380357
 40
1.0
 40
1.0
 40
1.0
 40
1.0
 10
45.8329337488
 20
24.7524779697
 30
0.0
 10
46.0417809327
 20
24.8730559476
 30
0.0
 10
46.4619082058
 20
25.0945880984
 30
0.0
 10
47.1133037949
 20
25.3552537004
 30
0.0
 10
47.6684165142
 20
25.4951437405
 30
0.0
 10
48.1129722396
 20
25.5513848485
 30
0.0
 10
48.334854955
 20
25.5607913669
 30
0.0
 10
48.4454437169
 20
25.5607913669
 30
0.0
  0
SPLINE
  5
261
100
AcDbEntity
  8
0
100
AcDbSpline
 62
7
  6
BYLAYER
 70
0
 71
3
 72
12
 73
8
 74
0
 42
0.0000001
 43
0.0000001
 44
0.0000000001
 40
0.0
 40
0.0
 40
0.0
 40
0.0
 40
0.2615956782
 40
0.5143896803
 40
0.7594400946
 40
0.8800380357
 40
1.0
 40
1.0
 40
1.0
 40
1.0
 10
66.7330134934
 20
15.5691047641
 30
0.0
 10
66.5241663095
 20
15.4485267862
 30
0.0
 10
66.1040390364
 20
15.2269946354
 30
0.0
 10
65.4526434473
 20
14.9663290335
 30
0.0
 10
64.897530728
 20
14.8264389933
 30
0.0
 10
64.4529750026
 20
14.7701978853
 30
0.0
 10
64.2310922872
 20
14.7607913669
 30
0.0
 10
64.1205035254
 20
14.7607913669
 30
0.0
  0
SPLINE
  5
262
100
AcDbEntity
  8
0
100
AcDbSpline
 62
7
  6
BYLAYER
 70
0
 71
3
 72
12
 73
8
 74
0
 42
0.0000001
 43
0.0000001
 44
0.0000000001
 40
0.0
 40
0.0
 40
0.0
 40
0.0
 40
0.119962
 40
0.2405600192
 40
0.4856104421
 40
0.7384043783
 40
1.0
 40
1.0
 40
1.0
 40
1.0
 10
48.4454437169
 20
25.5607913669
 30
0.0
 10
48.5560325128
 20
25.5607913669
 30
0.0
 10
48.777915327
 20
25.5513846882
 30
0.0
 10
49.2224711884
 20
25.4951437502
 30
0.0
 10
49.7775839164
 20
25.3552536405
 30
0.0
 10
50.4289795474
 20
25.0945883831
 30
0.0
 10
50.8491065439
 20
24.8730559229
 30
0.0
 10
51.0579536849
 20
24.7524779697
 30
0.0
  0
ENDSEC
  0
SECTION
  2
OBJECTS
  0
DICTIONARY
  5
C
100
AcDbDictionary
280
0
281
1
  3
ACAD_GROUP
350
D
  3
ACAD_MLINESTYLE
350
17
  3
ACAD_LAYOUT
350
1A
  3
ACAD_PLOTSETTINGS
350
19
  3
ACAD_PLOTSTYLENAME
350
E
  0
DICTIONARY
  5
D
102
{ACAD_REACTORS
330
C
102
}
100
AcDbDictionary
280
0
281
1
  0
ACDBDICTIONARYWDFLT
  5
E
102
{ACAD_REACTORS
330
C
102
}
100
AcDbDictionary
281
1
  3
Normal
350
F
100
AcDbDictionaryWithDefault
340
F
  0
DICTIONARY
  5
17
102
{ACAD_REACTORS
330
C
102
}
100
AcDbDictionary
280
0
281
1
  3
Standard
350
18
  0
DICTIONARY
  5
19
102
{ACAD_REACTORS
330
C
102
}
100
AcDbDictionary
281
1
  0
DICTIONARY
  5
1A
102
{ACAD_REACTORS
330
C
102
}
100
AcDbDictionary
281
1
  3
Model
350
263
  3
Layout1
350
264
  0
ACDBPLACEHOLDER
  5
F
102
{ACAD_REACTORS
330
E
102
}
  0
MLINESTYLE
  5
18
102
{ACAD_REACTORS
330
17
102
}
100
AcDbMlineStyle
  2
STANDARD
 70
0
  3

 62
256
 51
90.0
 52
90.0
 71
2
 49
0.5
 62
256
  6
BYLAYER
 49
-0.5
 62
256
  6
BYLAYER
  0
LAYOUT
  5
263
102
{ACAD_REACTORS
330
1A
102
}
100
AcDbPlotSettings
  1

  2
none_device
  4

  6

 40
0.0
 41
0.0
 42
0.0
 43
0.0
 44
210.0
 45
297.0
 46
0.0
 47
0.0
 48
0.0
 49
0.0
140
0.0
141
0.0
142
1.0
143
1.0
 70
1024
 72
1
 73
0
 74
0
  7

 75
0
147
1.0
148
0.0
149
0.0
100
AcDbLayout
  1
Model
 70
0
 71
0
 10
0.0
 20
0.0
 11
210.0
 21
297.0
 12
0.0
 22
0.0
 32
0.0
 14
0.0
 24
0.0
 34
0.0
 15
0.0
 25
0.0
 35
0.0
146
0.0
 13
0.0
 23
0.0
 33
0.0
 16
1.0
 26
0.0
 36
0.0
 17
0.0
 27
1.0
 37
0.0
 76
0
330
210
345
0
346
0
  0
LAYOUT
  5
264
102
{ACAD_REACTORS
330
1A
102
}
100
AcDbPlotSettings
  1

  2
none_device
  4

  6

 40
0.0
 41
0.0
 42
0.0
 43
0.0
 44
210.0
 45
297.0
 46
0.0
 47
0.0
 48
0.0
 49
0.0
140
0.0
141
0.0
142
1.0
143
1.0
 70
0
 72
1
 73
0
 74
0
  7

 75
0
147
1.0
148
0.0
149
0.0
100
AcDbLayout
  1
Layout1
 70
0
 71
1
 10
0.0
 20
0.0
 11
210.0
 21
297.0
 12
0.0
 22
0.0
 32
0.0
 14
0.0
 24
0.0
 34
0.0
 15
0.0
 25
0.0
 35
0.0
146
0.0
 13
0.0
 23
0.0
 33
0.0
 16
1.0
 26
0.0
 36
0.0
 17
0.0
 27
1.0
 37
0.0
 76
0
330
211
345
0
346
0
  0
ENDSEC
  0
EOF
