999
DXF file: C:\Users\sesa63760\Dev\_Creo\CAD\MCADID0004479_3D-CAD\drw0001_2.dxf
999
Pro/ENGINEER 2019471 by Parametric Technology Corporation
  0
SECTION
  2
HEADER
  9
$ACADVER
  1
AC1024
  9
$DWGCODEPAGE
  3
ANSI_1252
  9
$EXTMAX
 10
108.1607565012
 20
152.970212766
 30
0.0
  9
$EXTMIN
 10
0.0
 20
0.0
 30
0.0
  9
$LIMMIN
 10
0.0
 20
0.0
  9
$LIMMAX
 10
108.1607565012
 20
152.970212766
  9
$VIEWCTR
 10
54.0803782506
 20
76.485106383
  9
$VIEWSIZE
 40
152.970212766
  9
$CLAYER
  8
0
  9
$LTSCALE
 40
9.971391647
  9
$CELTYPE
  6
BYLAYER
  9
$DIMSCALE
 40
1.0
  9
$DIMASZ
 40
1.2876280536
  9
$DIMEXO
 40
1.0
  9
$DIMDLI
 40
6.8893251379
  9
$DIMEXE
 40
1.0
  9
$DIMCEN
 40
1.6316822695
  9
$DIMLFAC
 40
1.0
  9
$DIMBLK
  1
_FILLED
  9
$DIMALT
 70
0
  9
$DIMALTF
 40
0.0393700787
  9
$DIMTXT
 40
1.802679275
  9
$DIMTOL
 70
1
  9
$DIMLIM
 70
0
  9
$DIMTFAC
 40
1.0
  9
$DIMTP
 40
0.01
  9
$DIMTM
 40
0.01
  9
$DIMGAP
 40
0.625
  9
$DIMDSEP
 70
46
  9
$AUNITS
 70
0
  9
$PDMODE
 70
3
  9
$PDSIZE
 40
0.3125
  9
$HANDSEED
  5
265
  9
$TILEMODE
 70
1
  9
$MEASUREMENT
 70
1
  9
$INSUNITS
 70
4
  0
ENDSEC
  0
SECTION
  2
CLASSES
  0
CLASS
  1
ACDBDICTIONARYWDFLT
  2
AcDbDictionaryWithDefault
  3
AutoCAD 2000
 90
0
 91
1
280
0
281
0
  0
CLASS
  1
ACDBPLACEHOLDER
  2
AcDbPlaceHolder
  3
AutoCAD 2000
 90
0
 91
1
280
0
281
0
  0
CLASS
  1
LAYOUT
  2
AcDbLayout
  3
AutoCAD 2000
 90
0
 91
0
280
0
281
0
  0
ENDSEC
  0
SECTION
  2
TABLES
  0
TABLE
  2
VPORT
  5
8
100
AcDbSymbolTable
 70
2
  0
VPORT
  5
1F4
100
AcDbSymbolTableRecord
100
AcDbViewportTableRecord
  2
*ACTIVE
 70
0
 10
0.0
 20
0.0
 11
1.0
 21
1.0
 12
54.0803782506
 22
76.485106383
 13
0.0
 23
0.0
 14
1.0
 24
1.0
 15
0.0
 25
0.0
 16
0.0
 26
0.0
 36
1.0
 17
0.0
 27
0.0
 37
0.0
 40
152.970212766
 41
0.7070707071
 42
50.0
 43
0.0
 44
0.0
 50
0.0
 51
0.0
 71
0
 72
100
 73
1
 74
1
 75
0
 76
0
 77
0
 78
0
  0
ENDTAB
  0
TABLE
  2
LTYPE
  5
5
100
AcDbSymbolTable
 70
6
  0
LTYPE
  5
14
100
AcDbSymbolTableRecord
100
AcDbLinetypeTableRecord
  2
BYBLOCK
 70
0
  3

 72
65
 73
0
 40
0.0
  0
LTYPE
  5
15
100
AcDbSymbolTableRecord
100
AcDbLinetypeTableRecord
  2
BYLAYER
 70
0
  3

 72
65
 73
0
 40
0.0
  0
LTYPE
  5
16
100
AcDbSymbolTableRecord
100
AcDbLinetypeTableRecord
  2
CONTINUOUS
 70
64
  3
Solid line
 72
65
 73
0
 40
0.0
  0
LTYPE
  5
1F5
100
AcDbSymbolTableRecord
100
AcDbLinetypeTableRecord
  2
CENTER
 70
64
  3
____ _ ____ _ ____ _ ____ _ ____ _ ____ _ ____
 72
65
 73
4
 40
0.6
 49
0.375
 74
0
 49
-0.075
 74
0
 49
0.075
 74
0
 49
-0.075
 74
0
  0
LTYPE
  5
1F6
100
AcDbSymbolTableRecord
100
AcDbLinetypeTableRecord
  2
HIDDEN
 70
64
  3
- - - - - - - - - - - - - - - - - - - -
 72
65
 73
2
 40
0.2
 49
0.1
 74
0
 49
-0.1
 74
0
  0
LTYPE
  5
1F7
100
AcDbSymbolTableRecord
100
AcDbLinetypeTableRecord
  2
PHANTOM
 70
64
  3
_____ _ _ _____ _ _ _____ _ _ _____
 72
65
 73
6
 40
0.8
 49
0.45
 74
0
 49
-0.05
 74
0
 49
0.1
 74
0
 49
-0.05
 74
0
 49
0.1
 74
0
 49
-0.05
 74
0
  0
LTYPE
  5
1F8
100
AcDbSymbolTableRecord
100
AcDbLinetypeTableRecord
  2
DOT
 70
64
  3
. . . . . . . . . . . . . . . . . . . .
 72
65
 73
2
 40
0.2
 49
0.1
 74
0
 49
-0.1
 74
0
  0
LTYPE
  5
1F9
100
AcDbSymbolTableRecord
100
AcDbLinetypeTableRecord
  2
DASHED
 70
64
  3
- - - - - - - - - - - - - - - - - - - -
 72
65
 73
2
 40
0.2
 49
0.1
 74
0
 49
-0.1
 74
0
  0
ENDTAB
  0
TABLE
  2
LAYER
  5
2
100
AcDbSymbolTable
 70
36
  0
LAYER
  5
10
100
AcDbSymbolTableRecord
100
AcDbLayerTableRecord
  2
0
 70
0
 62
7
  6
CONTINUOUS
370
-3
390
F
  0
LAYER
  5
1FA
100
AcDbSymbolTableRecord
100
AcDbLayerTableRecord
  2
DEFAULT_1
 70
0
 62
7
  6
CENTER
370
-3
390
F
  0
LAYER
  5
1FB
100
AcDbSymbolTableRecord
100
AcDbLayerTableRecord
  2
DEFAULT_2
 70
0
 62
7
  6
HIDDEN
370
-3
390
F
  0
LAYER
  5
1FC
100
AcDbSymbolTableRecord
100
AcDbLayerTableRecord
  2
DEFAULT_3
 70
0
 62
7
  6
PHANTOM
370
-3
390
F
  0
LAYER
  5
1FD
100
AcDbSymbolTableRecord
100
AcDbLayerTableRecord
  2
00_COMPONENTS
 70
0
 62
7
  6
CONTINUOUS
370
-3
390
F
  0
LAYER
  5
1FE
100
AcDbSymbolTableRecord
100
AcDbLayerTableRecord
  2
01_1_DEFAULT_DATUMS
 70
0
 62
7
  6
CONTINUOUS
370
-3
390
F
  0
LAYER
  5
1FF
100
AcDbSymbolTableRecord
100
AcDbLayerTableRecord
  2
01_PLANES
 70
0
 62
7
  6
CONTINUOUS
370
-3
390
F
  0
LAYER
  5
200
100
AcDbSymbolTableRecord
100
AcDbLayerTableRecord
  2
02_COORD_SYS
 70
0
 62
7
  6
CONTINUOUS
370
-3
390
F
  0
LAYER
  5
201
100
AcDbSymbolTableRecord
100
AcDbLayerTableRecord
  2
03_AXES
 70
0
 62
7
  6
CONTINUOUS
370
-3
390
F
  0
LAYER
  5
202
100
AcDbSymbolTableRecord
100
AcDbLayerTableRecord
  2
04_POINTS
 70
0
 62
7
  6
CONTINUOUS
370
-3
390
F
  0
LAYER
  5
203
100
AcDbSymbolTableRecord
100
AcDbLayerTableRecord
  2
05_CURVES
 70
0
 62
7
  6
CONTINUOUS
370
-3
390
F
  0
LAYER
  5
204
100
AcDbSymbolTableRecord
100
AcDbLayerTableRecord
  2
06_SURFS
 70
0
 62
7
  6
CONTINUOUS
370
-3
390
F
  0
LAYER
  5
205
100
AcDbSymbolTableRecord
100
AcDbLayerTableRecord
  2
07_COSMETICS
 70
0
 62
7
  6
CONTINUOUS
370
-3
390
F
  0
LAYER
  5
206
100
AcDbSymbolTableRecord
100
AcDbLayerTableRecord
  2
10_NOTES
 70
0
 62
7
  6
CONTINUOUS
370
-3
390
F
  0
LAYER
  5
207
100
AcDbSymbolTableRecord
100
AcDbLayerTableRecord
  2
11_NOTES_PUB
 70
0
 62
7
  6
CONTINUOUS
370
-3
390
F
  0
LAYER
  5
208
100
AcDbSymbolTableRecord
100
AcDbLayerTableRecord
  2
13_REF_GTOL
 70
0
 62
7
  6
CONTINUOUS
370
-3
390
F
  0
LAYER
  5
209
100
AcDbSymbolTableRecord
100
AcDbLayerTableRecord
  2
16_MISC
 70
0
 62
7
  6
CONTINUOUS
370
-3
390
F
  0
LAYER
  5
20A
100
AcDbSymbolTableRecord
100
AcDbLayerTableRecord
  2
17_NO_PRINT
 70
0
 62
7
  6
CONTINUOUS
370
-3
390
F
  0
LAYER
  5
20B
100
AcDbSymbolTableRecord
100
AcDbLayerTableRecord
  2
18_DATUM_CAMS_JOINTS
 70
0
 62
7
  6
CONTINUOUS
370
-3
390
F
  0
LAYER
  5
20C
100
AcDbSymbolTableRecord
100
AcDbLayerTableRecord
  2
19_DATUM_FUNCTIONAL
 70
0
 62
7
  6
CONTINUOUS
370
-3
390
F
  0
LAYER
  5
20D
100
AcDbSymbolTableRecord
100
AcDbLayerTableRecord
  2
20_DATUM_KINEMATIC_SCHEME
 70
0
 62
7
  6
CONTINUOUS
370
-3
390
F
  0
ENDTAB
  0
TABLE
  2
STYLE
  5
3
100
AcDbSymbolTable
 70
1
  0
STYLE
  5
11
100
AcDbSymbolTableRecord
100
AcDbTextStyleTableRecord
  2
STANDARD
 70
0
 40
0.0
 41
1.0
 50
0.0
 71
0
 42
0.2
  3
ARIAL.TTF
  4

  0
STYLE
  5
20E
100
AcDbSymbolTableRecord
100
AcDbTextStyleTableRecord
  2
TEXTSTYLE_1
 70
0
 40
0.0
 41
0.8
 50
0.0
 71
0
 42
0.2
  3
gdt
  4

  0
ENDTAB
  0
TABLE
  2
VIEW
  5
6
100
AcDbSymbolTable
 70
0
  0
ENDTAB
  0
TABLE
  2
UCS
  5
7
100
AcDbSymbolTable
 70
0
  0
ENDTAB
  0
TABLE
  2
APPID
  5
9
100
AcDbSymbolTable
 70
1
  0
APPID
  5
20F
100
AcDbSymbolTableRecord
100
AcDbRegAppTableRecord
  2
ACAD
 70
0
  0
ENDTAB
  0
TABLE
  2
BLOCK_RECORD
  5
1
100
AcDbSymbolTable
 70
0
  0
BLOCK_RECORD
  5
210
100
AcDbSymbolTableRecord
100
AcDbBlockTableRecord
  2
*Model_Space
  0
BLOCK_RECORD
  5
211
100
AcDbSymbolTableRecord
100
AcDbBlockTableRecord
  2
*Paper_Space
  0
BLOCK_RECORD
  5
212
100
AcDbSymbolTableRecord
100
AcDbBlockTableRecord
  2
_FILLED
  0
ENDTAB
  0
TABLE
  2
DIMSTYLE
  5
A
100
AcDbSymbolTable
 70
1
100
AcDbDimStyleTable
 71
0
  0
DIMSTYLE
105
213
100
AcDbSymbolTableRecord
100
AcDbDimStyleTableRecord
  2
STANDARD
 70
0
  3

  4

 40
1.0
 41
1.2876280536
 42
1.0
 43
0.38
 44
1.0
 45
0.0
 46
0.0
 47
0.01
 48
0.01
140
1.802679275
141
0.09
142
0.0
143
25.4
144
1.0
145
0.0
146
1.0
147
0.625
 71
1
 72
0
 73
0
 74
0
 75
0
 76
0
 77
1
 78
8
 79
2
170
0
171
1
172
0
173
0
174
0
175
0
176
0
177
0
178
0
270
2
179
2
271
2
272
2
273
2
274
2
275
0
280
0
281
0
282
0
283
1
284
8
285
0
286
0
287
3
288
0
340
11
278
46
341
212
342
212
343
212
344
212
  0
ENDTAB
  0
ENDSEC
  0
SECTION
  2
BLOCKS
  0
BLOCK
  5
20
100
AcDbEntity
  8
0
100
AcDbBlockBegin
  2
*Model_Space
 70
0
 10
0.0
 20
0.0
 30
0.0
  3
*Model_Space
  1

  0
ENDBLK
  5
21
100
AcDbEntity
  8
0
100
AcDbBlockEnd
  0
BLOCK
  5
1C
100
AcDbEntity
  8
0
100
AcDbBlockBegin
  2
*Paper_Space
 70
0
 10
0.0
 20
0.0
 30
0.0
  3
*Paper_Space
  1

  0
ENDBLK
  5
1D
100
AcDbEntity
  8
0
100
AcDbBlockEnd
  0
BLOCK
  5
214
100
AcDbEntity
  8
0
100
AcDbBlockBegin
  2
_FILLED
 70
64
 10
0.0
 20
0.0
  3
_FILLED
  1

  0
SOLID
  5
215
100
AcDbEntity
  8
0
  6
BYBLOCK
 62
0
100
AcDbTrace
 10
0.0
 20
0.0
 11
-1.0
 21
0.25
 12
-1.0
 22
-0.25
 13
-1.0
 23
-0.25
  0
ENDBLK
  5
216
100
AcDbEntity
  8
0
  6
BYBLOCK
 62
0
100
AcDbBlockEnd
  0
ENDSEC
  0
SECTION
  2
ENTITIES
  0
LINE
  5
217
100
AcDbEntity
  8
0
100
AcDbLine
 62
7
  6
BYLAYER
 10
59.8822144208
 20
10.2042553191
 11
49.7764144208
 21
10.2042553191
  0
LINE
  5
218
100
AcDbEntity
  8
0
100
AcDbLine
 62
7
  6
BYLAYER
 10
60.8293144208
 20
11.1513553191
 11
48.8293144208
 21
11.1513553191
  0
LINE
  5
219
100
AcDbEntity
  8
0
100
AcDbLine
 62
7
  6
BYLAYER
 10
63.8793144208
 20
13.8542553191
 11
45.7793144208
 21
13.8542553191
  0
LINE
  5
21A
100
AcDbEntity
  8
0
100
AcDbLine
 62
7
  6
BYLAYER
 10
44.3792745485
 20
14.6625687163
 11
45.7793144208
 21
13.8542553191
  0
LINE
  5
21B
100
AcDbEntity
  8
0
100
AcDbLine
 62
7
  6
BYLAYER
 10
46.2993144208
 20
142.2042553191
 11
45.8293144208
 21
141.7342553191
  0
LINE
  5
21C
100
AcDbEntity
  8
0
100
AcDbLine
 62
7
  6
BYLAYER
 10
66.6293144208
 20
24.6542553191
 11
43.0293144208
 21
24.6542553191
  0
LINE
  5
21D
100
AcDbEntity
  8
0
100
AcDbLine
 62
7
  6
BYLAYER
 10
43.0293144208
 20
27.2542553191
 11
66.6293144208
 21
27.2542553191
  0
LINE
  5
21E
100
AcDbEntity
  8
0
100
AcDbLine
 62
7
  6
BYLAYER
 10
48.8293144208
 20
11.1513553191
 11
49.7764144208
 21
10.2042553191
  0
LINE
  5
21F
100
AcDbEntity
  8
0
100
AcDbLine
 62
7
  6
BYLAYER
 10
66.6293144208
 20
30.3542553191
 11
43.0293144208
 21
30.3542553191
  0
LINE
  5
220
100
AcDbEntity
  8
0
100
AcDbLine
 62
7
  6
BYLAYER
 10
43.0293144208
 20
32.9542553191
 11
66.6293144208
 21
32.9542553191
  0
LINE
  5
221
100
AcDbEntity
  8
0
100
AcDbLine
 62
7
  6
BYLAYER
 10
44.3792745485
 20
33.7625687163
 11
45.7793144208
 21
32.9542553191
  0
LINE
  5
222
100
AcDbEntity
  8
0
100
AcDbLine
 62
7
  6
BYLAYER
 10
65.2793542931
 20
23.845941922
 11
63.8793144208
 21
24.6542553191
  0
LINE
  5
223
100
AcDbEntity
  8
0
100
AcDbLine
 62
7
  6
BYLAYER
 10
45.7793144208
 20
43.7542553191
 11
63.8793144208
 21
43.7542553191
  0
LINE
  5
224
100
AcDbEntity
  8
0
100
AcDbLine
 62
7
  6
BYLAYER
 10
48.8293144208
 20
50.2042553191
 11
60.8293144208
 21
50.2042553191
  0
LINE
  5
225
100
AcDbEntity
  8
0
100
AcDbLine
 62
7
  6
BYLAYER
 10
60.8293144208
 20
51.1513553191
 11
48.8293144208
 21
51.1513553191
  0
LINE
  5
226
100
AcDbEntity
  8
0
100
AcDbLine
 62
7
  6
BYLAYER
 10
65.2793542931
 20
42.945941922
 11
63.8793144208
 21
43.7542553191
  0
LINE
  5
227
100
AcDbEntity
  8
0
100
AcDbLine
 62
7
  6
BYLAYER
 10
48.8293144208
 20
51.1513553191
 11
49.7764144208
 21
50.2042553191
  0
LINE
  5
228
100
AcDbEntity
  8
0
100
AcDbLine
 62
7
  6
BYLAYER
 10
43.0293144208
 20
32.9542553191
 11
43.0293144208
 21
30.3542553191
  0
LINE
  5
229
100
AcDbEntity
  8
0
100
AcDbLine
 62
7
  6
BYLAYER
 10
43.0293144208
 20
27.2542553191
 11
43.0293144208
 21
24.6542553191
  0
LINE
  5
22A
100
AcDbEntity
  8
0
100
AcDbLine
 62
7
  6
BYLAYER
 10
44.3792745485
 20
42.945941922
 11
44.3792745485
 21
33.7625687163
  0
LINE
  5
22B
100
AcDbEntity
  8
0
100
AcDbLine
 62
7
  6
BYLAYER
 10
44.3792745485
 20
23.845941922
 11
44.3792745485
 21
14.6625687163
  0
LINE
  5
22C
100
AcDbEntity
  8
0
100
AcDbLine
 62
7
  6
BYLAYER
 10
45.8293144208
 20
141.7342553191
 11
45.8293144208
 21
130.6042553191
  0
LINE
  5
22D
100
AcDbEntity
  8
0
100
AcDbLine
 62
7
  6
BYLAYER
 10
48.8293144208
 20
130.0242553191
 11
48.8293144208
 21
51.1513553191
  0
LINE
  5
22E
100
AcDbEntity
  8
0
100
AcDbLine
 62
7
  6
BYLAYER
 10
48.8293144208
 20
50.2042553191
 11
48.8293144208
 21
43.7542553191
  0
LINE
  5
22F
100
AcDbEntity
  8
0
100
AcDbLine
 62
7
  6
BYLAYER
 10
48.8293144208
 20
30.3542553191
 11
48.8293144208
 21
27.2542553191
  0
LINE
  5
230
100
AcDbEntity
  8
0
100
AcDbLine
 62
7
  6
BYLAYER
 10
48.8293144208
 20
13.8542553191
 11
48.8293144208
 21
11.1513553191
  0
LINE
  5
231
100
AcDbEntity
  8
0
100
AcDbLine
 62
7
  6
BYLAYER
 10
49.6042944846
 20
42.945941922
 11
49.6042944846
 21
33.7625687163
  0
LINE
  5
232
100
AcDbEntity
  8
0
100
AcDbLine
 62
7
  6
BYLAYER
 10
49.6042944846
 20
23.845941922
 11
49.6042944846
 21
14.6625687163
  0
LINE
  5
233
100
AcDbEntity
  8
0
100
AcDbLine
 62
7
  6
BYLAYER
 10
60.054334357
 20
42.945941922
 11
60.054334357
 21
33.7625687163
  0
LINE
  5
234
100
AcDbEntity
  8
0
100
AcDbLine
 62
7
  6
BYLAYER
 10
60.054334357
 20
23.845941922
 11
60.054334357
 21
14.6625687163
  0
LINE
  5
235
100
AcDbEntity
  8
0
100
AcDbLine
 62
7
  6
BYLAYER
 10
60.8293144208
 20
11.1513553191
 11
60.8293144208
 21
13.8542553191
  0
LINE
  5
236
100
AcDbEntity
  8
0
100
AcDbLine
 62
7
  6
BYLAYER
 10
60.8293144208
 20
27.2542553191
 11
60.8293144208
 21
30.3542553191
  0
LINE
  5
237
100
AcDbEntity
  8
0
100
AcDbLine
 62
7
  6
BYLAYER
 10
60.8293144208
 20
43.7542553191
 11
60.8293144208
 21
50.2042553191
  0
LINE
  5
238
100
AcDbEntity
  8
0
100
AcDbLine
 62
7
  6
BYLAYER
 10
60.8293144208
 20
51.1513553191
 11
60.8293144208
 21
130.0242553191
  0
LINE
  5
239
100
AcDbEntity
  8
0
100
AcDbLine
 62
7
  6
BYLAYER
 10
63.8293144208
 20
130.6042553191
 11
63.8293144208
 21
141.7342553191
  0
LINE
  5
23A
100
AcDbEntity
  8
0
100
AcDbLine
 62
7
  6
BYLAYER
 10
65.2793542931
 20
42.945941922
 11
65.2793542931
 21
33.7625687163
  0
LINE
  5
23B
100
AcDbEntity
  8
0
100
AcDbLine
 62
7
  6
BYLAYER
 10
65.2793542931
 20
23.845941922
 11
65.2793542931
 21
14.6625687163
  0
LINE
  5
23C
100
AcDbEntity
  8
0
100
AcDbLine
 62
7
  6
BYLAYER
 10
66.6293144208
 20
24.6542553191
 11
66.6293144208
 21
27.2542553191
  0
LINE
  5
23D
100
AcDbEntity
  8
0
100
AcDbLine
 62
7
  6
BYLAYER
 10
66.6293144208
 20
30.3542553191
 11
66.6293144208
 21
32.9542553191
  0
LINE
  5
23E
100
AcDbEntity
  8
0
100
AcDbLine
 62
7
  6
BYLAYER
 10
59.8822144208
 20
50.2042553191
 11
60.8293144208
 21
51.1513553191
  0
LINE
  5
23F
100
AcDbEntity
  8
0
100
AcDbLine
 62
7
  6
BYLAYER
 10
45.7793144208
 20
43.7542553191
 11
44.3792745485
 21
42.945941922
  0
LINE
  5
240
100
AcDbEntity
  8
0
100
AcDbLine
 62
7
  6
BYLAYER
 10
45.7793144208
 20
24.6542553191
 11
44.3792745485
 21
23.845941922
  0
LINE
  5
241
100
AcDbEntity
  8
0
100
AcDbLine
 62
7
  6
BYLAYER
 10
63.8793144208
 20
32.9542553191
 11
65.2793542931
 21
33.7625687163
  0
LINE
  5
242
100
AcDbEntity
  8
0
100
AcDbLine
 62
7
  6
BYLAYER
 10
59.8822144208
 20
10.2042553191
 11
60.8293144208
 21
11.1513553191
  0
LINE
  5
243
100
AcDbEntity
  8
0
100
AcDbLine
 62
7
  6
BYLAYER
 10
48.8293144208
 20
130.0242553191
 11
60.8293144208
 21
130.0242553191
  0
LINE
  5
244
100
AcDbEntity
  8
0
100
AcDbLine
 62
7
  6
BYLAYER
 10
63.8293144208
 20
141.7342553191
 11
63.3593144208
 21
142.2042553191
  0
LINE
  5
245
100
AcDbEntity
  8
0
100
AcDbLine
 62
7
  6
BYLAYER
 10
63.8793144208
 20
13.8542553191
 11
65.2793542931
 21
14.6625687163
  0
LINE
  5
246
100
AcDbEntity
  8
0
100
AcDbLine
 62
7
  6
BYLAYER
 10
63.8293144208
 20
130.6042553191
 11
45.8293144208
 21
130.6042553191
  0
LINE
  5
247
100
AcDbEntity
  8
0
100
AcDbLine
 62
7
  6
BYLAYER
 10
45.8293144208
 20
141.7342553191
 11
63.8293144208
 21
141.7342553191
  0
LINE
  5
248
100
AcDbEntity
  8
0
100
AcDbLine
 62
7
  6
BYLAYER
 10
46.2993144208
 20
142.2042553191
 11
63.3593144208
 21
142.2042553191
  0
ARC
  5
249
100
AcDbEntity
  8
0
100
AcDbCircle
 62
7
  6
BYLAYER
 10
61.4093144208
 20
130.0242553191
 40
0.58
100
AcDbArc
 50
90.0
 51
180.0
  0
ARC
  5
24A
100
AcDbEntity
  8
0
100
AcDbCircle
 62
7
  6
BYLAYER
 10
48.2493144208
 20
130.0242553191
 40
0.58
100
AcDbArc
 50
0.0
 51
90.0
  0
SPLINE
  5
24B
100
AcDbEntity
  8
0
100
AcDbSpline
 62
7
  6
BYLAYER
 70
0
 71
3
 72
12
 73
8
 74
0
 42
0.0000001
 43
0.0000001
 44
0.0000000001
 40
0.0
 40
0.0
 40
0.0
 40
0.0
 40
0.119962
 40
0.2405600192
 40
0.4856104421
 40
0.7384043783
 40
1.0
 40
1.0
 40
1.0
 40
1.0
 10
46.9917845166
 20
32.9542553191
 30
0.0
 10
46.8811957206
 20
32.9542553191
 30
0.0
 10
46.6593129064
 20
32.9636619978
 30
0.0
 10
46.214757045
 20
33.0199029358
 30
0.0
 10
45.659644317
 20
33.1597930455
 30
0.0
 10
45.008248686
 20
33.4204583029
 30
0.0
 10
44.5881216895
 20
33.6419907632
 30
0.0
 10
44.3792745485
 20
33.7625687163
 30
0.0
  0
SPLINE
  5
24C
100
AcDbEntity
  8
0
100
AcDbSpline
 62
7
  6
BYLAYER
 70
0
 71
3
 72
12
 73
8
 74
0
 42
0.0000001
 43
0.0000001
 44
0.0000000001
 40
0.0
 40
0.0
 40
0.0
 40
0.0
 40
0.2615956782
 40
0.5143896803
 40
0.7594400946
 40
0.8800380357
 40
1.0
 40
1.0
 40
1.0
 40
1.0
 10
60.054334357
 20
42.945941922
 30
0.0
 10
60.2631815409
 20
43.0665198999
 30
0.0
 10
60.683308814
 20
43.2880520507
 30
0.0
 10
61.3347044031
 20
43.5487176526
 30
0.0
 10
61.8898171224
 20
43.6886076927
 30
0.0
 10
62.3343728478
 20
43.7448488008
 30
0.0
 10
62.5562555632
 20
43.7542553191
 30
0.0
 10
62.6668443251
 20
43.7542553191
 30
0.0
  0
SPLINE
  5
24D
100
AcDbEntity
  8
0
100
AcDbSpline
 62
7
  6
BYLAYER
 70
0
 71
3
 72
11
 73
7
 74
0
 42
0.0000001
 43
0.0000001
 44
0.0000000001
 40
0.0
 40
0.0
 40
0.0
 40
0.0
 40
0.2499908913
 40
0.4999851166
 40
0.7499878191
 40
1.0
 40
1.0
 40
1.0
 40
1.0
 10
54.8293144208
 20
32.9542553191
 30
0.0
 10
54.3873345486
 20
32.9542553191
 30
0.0
 10
53.5029280139
 20
32.9918380311
 30
0.0
 10
52.185949531
 20
33.1564692124
 30
0.0
 10
50.88446309
 20
33.4152556958
 30
0.0
 10
50.0289711732
 20
33.6399751161
 30
0.0
 10
49.6042944846
 20
33.7625687163
 30
0.0
  0
SPLINE
  5
24E
100
AcDbEntity
  8
0
100
AcDbSpline
 62
7
  6
BYLAYER
 70
0
 71
3
 72
12
 73
8
 74
0
 42
0.0000001
 43
0.0000001
 44
0.0000000001
 40
0.0
 40
0.0
 40
0.0
 40
0.0
 40
0.2615956782
 40
0.5143896803
 40
0.7594400946
 40
0.8800380357
 40
1.0
 40
1.0
 40
1.0
 40
1.0
 10
49.6042944846
 20
33.7625687163
 30
0.0
 10
49.3954473007
 20
33.6419907384
 30
0.0
 10
48.9753200276
 20
33.4204585876
 30
0.0
 10
48.3239244385
 20
33.1597929857
 30
0.0
 10
47.7688117192
 20
33.0199029456
 30
0.0
 10
47.3242559938
 20
32.9636618375
 30
0.0
 10
47.1023732784
 20
32.9542553191
 30
0.0
 10
46.9917845166
 20
32.9542553191
 30
0.0
  0
SPLINE
  5
24F
100
AcDbEntity
  8
0
100
AcDbSpline
 62
7
  6
BYLAYER
 70
0
 71
3
 72
12
 73
8
 74
0
 42
0.0000001
 43
0.0000001
 44
0.0000000001
 40
0.0
 40
0.0
 40
0.0
 40
0.0
 40
0.119962
 40
0.2405600192
 40
0.4856104421
 40
0.7384043783
 40
1.0
 40
1.0
 40
1.0
 40
1.0
 10
62.6668443251
 20
32.9542553191
 30
0.0
 10
62.5562555291
 20
32.9542553191
 30
0.0
 10
62.3343727149
 20
32.9636619978
 30
0.0
 10
61.8898168535
 20
33.0199029358
 30
0.0
 10
61.3347041255
 20
33.1597930455
 30
0.0
 10
60.6833084945
 20
33.4204583029
 30
0.0
 10
60.263181498
 20
33.6419907632
 30
0.0
 10
60.054334357
 20
33.7625687163
 30
0.0
  0
SPLINE
  5
250
100
AcDbEntity
  8
0
100
AcDbSpline
 62
7
  6
BYLAYER
 70
0
 71
3
 72
11
 73
7
 74
0
 42
0.0000001
 43
0.0000001
 44
0.0000000001
 40
0.0
 40
0.0
 40
0.0
 40
0.0
 40
0.2500122644
 40
0.5000150193
 40
0.7500092299
 40
1.0
 40
1.0
 40
1.0
 40
1.0
 10
60.054334357
 20
33.7625687163
 30
0.0
 10
59.6296575282
 20
33.6399750756
 30
0.0
 10
58.7741652752
 20
33.4152560129
 30
0.0
 10
57.4726787056
 20
33.1564691665
 30
0.0
 10
56.1557003682
 20
32.9918379597
 30
0.0
 10
55.2712940769
 20
32.9542553191
 30
0.0
 10
54.8293144208
 20
32.9542553191
 30
0.0
  0
SPLINE
  5
251
100
AcDbEntity
  8
0
100
AcDbSpline
 62
7
  6
BYLAYER
 70
0
 71
3
 72
12
 73
8
 74
0
 42
0.0000001
 43
0.0000001
 44
0.0000000001
 40
0.0
 40
0.0
 40
0.0
 40
0.0
 40
0.2615956782
 40
0.5143896803
 40
0.7594400946
 40
0.8800380357
 40
1.0
 40
1.0
 40
1.0
 40
1.0
 10
44.3792745485
 20
42.945941922
 30
0.0
 10
44.5881217324
 20
43.0665198999
 30
0.0
 10
45.0082490055
 20
43.2880520507
 30
0.0
 10
45.6596445946
 20
43.5487176526
 30
0.0
 10
46.2147573139
 20
43.6886076927
 30
0.0
 10
46.6593130393
 20
43.7448488008
 30
0.0
 10
46.8811957547
 20
43.7542553191
 30
0.0
 10
46.9917845166
 20
43.7542553191
 30
0.0
  0
SPLINE
  5
252
100
AcDbEntity
  8
0
100
AcDbSpline
 62
7
  6
BYLAYER
 70
0
 71
3
 72
12
 73
8
 74
0
 42
0.0000001
 43
0.0000001
 44
0.0000000001
 40
0.0
 40
0.0
 40
0.0
 40
0.0
 40
0.2615956782
 40
0.5143896803
 40
0.7594400946
 40
0.8800380357
 40
1.0
 40
1.0
 40
1.0
 40
1.0
 10
65.2793542931
 20
33.7625687163
 30
0.0
 10
65.0705071092
 20
33.6419907384
 30
0.0
 10
64.6503798361
 20
33.4204585876
 30
0.0
 10
63.998984247
 20
33.1597929857
 30
0.0
 10
63.4438715277
 20
33.0199029456
 30
0.0
 10
62.9993158023
 20
32.9636618375
 30
0.0
 10
62.7774330869
 20
32.9542553191
 30
0.0
 10
62.6668443251
 20
32.9542553191
 30
0.0
  0
SPLINE
  5
253
100
AcDbEntity
  8
0
100
AcDbSpline
 62
7
  6
BYLAYER
 70
0
 71
3
 72
11
 73
7
 74
0
 42
0.0000001
 43
0.0000001
 44
0.0000000001
 40
0.0
 40
0.0
 40
0.0
 40
0.0
 40
0.2499908913
 40
0.4999851166
 40
0.7499878191
 40
1.0
 40
1.0
 40
1.0
 40
1.0
 10
54.8293144208
 20
43.7542553191
 30
0.0
 10
55.271294293
 20
43.7542553191
 30
0.0
 10
56.1557008277
 20
43.7166726072
 30
0.0
 10
57.4726793106
 20
43.5520414259
 30
0.0
 10
58.7741657516
 20
43.2932549425
 30
0.0
 10
59.6296576684
 20
43.0685355222
 30
0.0
 10
60.054334357
 20
42.945941922
 30
0.0
  0
SPLINE
  5
254
100
AcDbEntity
  8
0
100
AcDbSpline
 62
7
  6
BYLAYER
 70
0
 71
3
 72
11
 73
7
 74
0
 42
0.0000001
 43
0.0000001
 44
0.0000000001
 40
0.0
 40
0.0
 40
0.0
 40
0.0
 40
0.2500122644
 40
0.5000150193
 40
0.7500092299
 40
1.0
 40
1.0
 40
1.0
 40
1.0
 10
49.6042944846
 20
42.945941922
 30
0.0
 10
50.0289713134
 20
43.0685355627
 30
0.0
 10
50.8844635664
 20
43.2932546254
 30
0.0
 10
52.185950136
 20
43.5520414718
 30
0.0
 10
53.5029284734
 20
43.7166726786
 30
0.0
 10
54.3873347647
 20
43.7542553191
 30
0.0
 10
54.8293144208
 20
43.7542553191
 30
0.0
  0
SPLINE
  5
255
100
AcDbEntity
  8
0
100
AcDbSpline
 62
7
  6
BYLAYER
 70
0
 71
3
 72
12
 73
8
 74
0
 42
0.0000001
 43
0.0000001
 44
0.0000000001
 40
0.0
 40
0.0
 40
0.0
 40
0.0
 40
0.119962
 40
0.2405600192
 40
0.4856104421
 40
0.7384043783
 40
1.0
 40
1.0
 40
1.0
 40
1.0
 10
62.6668443251
 20
43.7542553191
 30
0.0
 10
62.777433121
 20
43.7542553191
 30
0.0
 10
62.9993159352
 20
43.7448486405
 30
0.0
 10
63.4438717966
 20
43.6886077025
 30
0.0
 10
63.9989845246
 20
43.5487175927
 30
0.0
 10
64.6503801556
 20
43.2880523354
 30
0.0
 10
65.0705071521
 20
43.0665198751
 30
0.0
 10
65.2793542931
 20
42.945941922
 30
0.0
  0
SPLINE
  5
256
100
AcDbEntity
  8
0
100
AcDbSpline
 62
7
  6
BYLAYER
 70
0
 71
3
 72
12
 73
8
 74
0
 42
0.0000001
 43
0.0000001
 44
0.0000000001
 40
0.0
 40
0.0
 40
0.0
 40
0.0
 40
0.119962
 40
0.2405600192
 40
0.4856104421
 40
0.7384043783
 40
1.0
 40
1.0
 40
1.0
 40
1.0
 10
46.9917845166
 20
43.7542553191
 30
0.0
 10
47.1023733125
 20
43.7542553191
 30
0.0
 10
47.3242561267
 20
43.7448486405
 30
0.0
 10
47.7688119881
 20
43.6886077025
 30
0.0
 10
48.3239247161
 20
43.5487175927
 30
0.0
 10
48.9753203471
 20
43.2880523354
 30
0.0
 10
49.3954473436
 20
43.0665198751
 30
0.0
 10
49.6042944846
 20
42.945941922
 30
0.0
  0
SPLINE
  5
257
100
AcDbEntity
  8
0
100
AcDbSpline
 62
7
  6
BYLAYER
 70
0
 71
3
 72
12
 73
8
 74
0
 42
0.0000001
 43
0.0000001
 44
0.0000000001
 40
0.0
 40
0.0
 40
0.0
 40
0.0
 40
0.119962
 40
0.2405600192
 40
0.4856104421
 40
0.7384043783
 40
1.0
 40
1.0
 40
1.0
 40
1.0
 10
46.9917845166
 20
13.8542553191
 30
0.0
 10
46.8811957206
 20
13.8542553191
 30
0.0
 10
46.6593129064
 20
13.8636619978
 30
0.0
 10
46.214757045
 20
13.9199029358
 30
0.0
 10
45.659644317
 20
14.0597930455
 30
0.0
 10
45.008248686
 20
14.3204583029
 30
0.0
 10
44.5881216895
 20
14.5419907632
 30
0.0
 10
44.3792745485
 20
14.6625687163
 30
0.0
  0
SPLINE
  5
258
100
AcDbEntity
  8
0
100
AcDbSpline
 62
7
  6
BYLAYER
 70
0
 71
3
 72
12
 73
8
 74
0
 42
0.0000001
 43
0.0000001
 44
0.0000000001
 40
0.0
 40
0.0
 40
0.0
 40
0.0
 40
0.2615956782
 40
0.5143896803
 40
0.7594400946
 40
0.8800380357
 40
1.0
 40
1.0
 40
1.0
 40
1.0
 10
60.054334357
 20
23.845941922
 30
0.0
 10
60.2631815409
 20
23.9665198999
 30
0.0
 10
60.683308814
 20
24.1880520507
 30
0.0
 10
61.3347044031
 20
24.4487176526
 30
0.0
 10
61.8898171224
 20
24.5886076927
 30
0.0
 10
62.3343728478
 20
24.6448488008
 30
0.0
 10
62.5562555632
 20
24.6542553191
 30
0.0
 10
62.6668443251
 20
24.6542553191
 30
0.0
  0
SPLINE
  5
259
100
AcDbEntity
  8
0
100
AcDbSpline
 62
7
  6
BYLAYER
 70
0
 71
3
 72
11
 73
7
 74
0
 42
0.0000001
 43
0.0000001
 44
0.0000000001
 40
0.0
 40
0.0
 40
0.0
 40
0.0
 40
0.2499908913
 40
0.4999851166
 40
0.7499878191
 40
1.0
 40
1.0
 40
1.0
 40
1.0
 10
54.8293144208
 20
13.8542553191
 30
0.0
 10
54.3873345486
 20
13.8542553191
 30
0.0
 10
53.5029280139
 20
13.8918380311
 30
0.0
 10
52.185949531
 20
14.0564692124
 30
0.0
 10
50.88446309
 20
14.3152556958
 30
0.0
 10
50.0289711732
 20
14.5399751161
 30
0.0
 10
49.6042944846
 20
14.6625687163
 30
0.0
  0
SPLINE
  5
25A
100
AcDbEntity
  8
0
100
AcDbSpline
 62
7
  6
BYLAYER
 70
0
 71
3
 72
12
 73
8
 74
0
 42
0.0000001
 43
0.0000001
 44
0.0000000001
 40
0.0
 40
0.0
 40
0.0
 40
0.0
 40
0.2615956782
 40
0.5143896803
 40
0.7594400946
 40
0.8800380357
 40
1.0
 40
1.0
 40
1.0
 40
1.0
 10
49.6042944846
 20
14.6625687163
 30
0.0
 10
49.3954473007
 20
14.5419907384
 30
0.0
 10
48.9753200276
 20
14.3204585876
 30
0.0
 10
48.3239244385
 20
14.0597929857
 30
0.0
 10
47.7688117192
 20
13.9199029456
 30
0.0
 10
47.3242559938
 20
13.8636618375
 30
0.0
 10
47.1023732784
 20
13.8542553191
 30
0.0
 10
46.9917845166
 20
13.8542553191
 30
0.0
  0
SPLINE
  5
25B
100
AcDbEntity
  8
0
100
AcDbSpline
 62
7
  6
BYLAYER
 70
0
 71
3
 72
12
 73
8
 74
0
 42
0.0000001
 43
0.0000001
 44
0.0000000001
 40
0.0
 40
0.0
 40
0.0
 40
0.0
 40
0.119962
 40
0.2405600192
 40
0.4856104421
 40
0.7384043783
 40
1.0
 40
1.0
 40
1.0
 40
1.0
 10
62.6668443251
 20
13.8542553191
 30
0.0
 10
62.5562555291
 20
13.8542553191
 30
0.0
 10
62.3343727149
 20
13.8636619978
 30
0.0
 10
61.8898168535
 20
13.9199029358
 30
0.0
 10
61.3347041255
 20
14.0597930455
 30
0.0
 10
60.6833084945
 20
14.3204583029
 30
0.0
 10
60.263181498
 20
14.5419907632
 30
0.0
 10
60.054334357
 20
14.6625687163
 30
0.0
  0
SPLINE
  5
25C
100
AcDbEntity
  8
0
100
AcDbSpline
 62
7
  6
BYLAYER
 70
0
 71
3
 72
11
 73
7
 74
0
 42
0.0000001
 43
0.0000001
 44
0.0000000001
 40
0.0
 40
0.0
 40
0.0
 40
0.0
 40
0.2500122644
 40
0.5000150193
 40
0.7500092299
 40
1.0
 40
1.0
 40
1.0
 40
1.0
 10
60.054334357
 20
14.6625687163
 30
0.0
 10
59.6296575282
 20
14.5399750756
 30
0.0
 10
58.7741652752
 20
14.3152560129
 30
0.0
 10
57.4726787056
 20
14.0564691665
 30
0.0
 10
56.1557003682
 20
13.8918379597
 30
0.0
 10
55.2712940769
 20
13.8542553191
 30
0.0
 10
54.8293144208
 20
13.8542553191
 30
0.0
  0
SPLINE
  5
25D
100
AcDbEntity
  8
0
100
AcDbSpline
 62
7
  6
BYLAYER
 70
0
 71
3
 72
12
 73
8
 74
0
 42
0.0000001
 43
0.0000001
 44
0.0000000001
 40
0.0
 40
0.0
 40
0.0
 40
0.0
 40
0.2615956782
 40
0.5143896803
 40
0.7594400946
 40
0.8800380357
 40
1.0
 40
1.0
 40
1.0
 40
1.0
 10
44.3792745485
 20
23.845941922
 30
0.0
 10
44.5881217324
 20
23.9665198999
 30
0.0
 10
45.0082490055
 20
24.1880520507
 30
0.0
 10
45.6596445946
 20
24.4487176526
 30
0.0
 10
46.2147573139
 20
24.5886076927
 30
0.0
 10
46.6593130393
 20
24.6448488008
 30
0.0
 10
46.8811957547
 20
24.6542553191
 30
0.0
 10
46.9917845166
 20
24.6542553191
 30
0.0
  0
SPLINE
  5
25E
100
AcDbEntity
  8
0
100
AcDbSpline
 62
7
  6
BYLAYER
 70
0
 71
3
 72
12
 73
8
 74
0
 42
0.0000001
 43
0.0000001
 44
0.0000000001
 40
0.0
 40
0.0
 40
0.0
 40
0.0
 40
0.2615956782
 40
0.5143896803
 40
0.7594400946
 40
0.8800380357
 40
1.0
 40
1.0
 40
1.0
 40
1.0
 10
65.2793542931
 20
14.6625687163
 30
0.0
 10
65.0705071092
 20
14.5419907384
 30
0.0
 10
64.6503798361
 20
14.3204585876
 30
0.0
 10
63.998984247
 20
14.0597929857
 30
0.0
 10
63.4438715277
 20
13.9199029456
 30
0.0
 10
62.9993158023
 20
13.8636618375
 30
0.0
 10
62.7774330869
 20
13.8542553191
 30
0.0
 10
62.6668443251
 20
13.8542553191
 30
0.0
  0
SPLINE
  5
25F
100
AcDbEntity
  8
0
100
AcDbSpline
 62
7
  6
BYLAYER
 70
0
 71
3
 72
11
 73
7
 74
0
 42
0.0000001
 43
0.0000001
 44
0.0000000001
 40
0.0
 40
0.0
 40
0.0
 40
0.0
 40
0.2499908913
 40
0.4999851166
 40
0.7499878191
 40
1.0
 40
1.0
 40
1.0
 40
1.0
 10
54.8293144208
 20
24.6542553191
 30
0.0
 10
55.271294293
 20
24.6542553191
 30
0.0
 10
56.1557008277
 20
24.6166726072
 30
0.0
 10
57.4726793106
 20
24.4520414259
 30
0.0
 10
58.7741657516
 20
24.1932549425
 30
0.0
 10
59.6296576684
 20
23.9685355222
 30
0.0
 10
60.054334357
 20
23.845941922
 30
0.0
  0
SPLINE
  5
260
100
AcDbEntity
  8
0
100
AcDbSpline
 62
7
  6
BYLAYER
 70
0
 71
3
 72
11
 73
7
 74
0
 42
0.0000001
 43
0.0000001
 44
0.0000000001
 40
0.0
 40
0.0
 40
0.0
 40
0.0
 40
0.2500122644
 40
0.5000150193
 40
0.7500092299
 40
1.0
 40
1.0
 40
1.0
 40
1.0
 10
49.6042944846
 20
23.845941922
 30
0.0
 10
50.0289713134
 20
23.9685355627
 30
0.0
 10
50.8844635664
 20
24.1932546254
 30
0.0
 10
52.185950136
 20
24.4520414718
 30
0.0
 10
53.5029284734
 20
24.6166726786
 30
0.0
 10
54.3873347647
 20
24.6542553191
 30
0.0
 10
54.8293144208
 20
24.6542553191
 30
0.0
  0
SPLINE
  5
261
100
AcDbEntity
  8
0
100
AcDbSpline
 62
7
  6
BYLAYER
 70
0
 71
3
 72
12
 73
8
 74
0
 42
0.0000001
 43
0.0000001
 44
0.0000000001
 40
0.0
 40
0.0
 40
0.0
 40
0.0
 40
0.119962
 40
0.2405600192
 40
0.4856104421
 40
0.7384043783
 40
1.0
 40
1.0
 40
1.0
 40
1.0
 10
62.6668443251
 20
24.6542553191
 30
0.0
 10
62.777433121
 20
24.6542553191
 30
0.0
 10
62.9993159352
 20
24.6448486405
 30
0.0
 10
63.4438717966
 20
24.5886077025
 30
0.0
 10
63.9989845246
 20
24.4487175927
 30
0.0
 10
64.6503801556
 20
24.1880523354
 30
0.0
 10
65.0705071521
 20
23.9665198751
 30
0.0
 10
65.2793542931
 20
23.845941922
 30
0.0
  0
SPLINE
  5
262
100
AcDbEntity
  8
0
100
AcDbSpline
 62
7
  6
BYLAYER
 70
0
 71
3
 72
12
 73
8
 74
0
 42
0.0000001
 43
0.0000001
 44
0.0000000001
 40
0.0
 40
0.0
 40
0.0
 40
0.0
 40
0.119962
 40
0.2405600192
 40
0.4856104421
 40
0.7384043783
 40
1.0
 40
1.0
 40
1.0
 40
1.0
 10
46.9917845166
 20
24.6542553191
 30
0.0
 10
47.1023733125
 20
24.6542553191
 30
0.0
 10
47.3242561267
 20
24.6448486405
 30
0.0
 10
47.7688119881
 20
24.5886077025
 30
0.0
 10
48.3239247161
 20
24.4487175927
 30
0.0
 10
48.9753203471
 20
24.1880523354
 30
0.0
 10
49.3954473436
 20
23.9665198751
 30
0.0
 10
49.6042944846
 20
23.845941922
 30
0.0
  0
ENDSEC
  0
SECTION
  2
OBJECTS
  0
DICTIONARY
  5
C
100
AcDbDictionary
280
0
281
1
  3
ACAD_GROUP
350
D
  3
ACAD_MLINESTYLE
350
17
  3
ACAD_LAYOUT
350
1A
  3
ACAD_PLOTSETTINGS
350
19
  3
ACAD_PLOTSTYLENAME
350
E
  0
DICTIONARY
  5
D
102
{ACAD_REACTORS
330
C
102
}
100
AcDbDictionary
280
0
281
1
  0
ACDBDICTIONARYWDFLT
  5
E
102
{ACAD_REACTORS
330
C
102
}
100
AcDbDictionary
281
1
  3
Normal
350
F
100
AcDbDictionaryWithDefault
340
F
  0
DICTIONARY
  5
17
102
{ACAD_REACTORS
330
C
102
}
100
AcDbDictionary
280
0
281
1
  3
Standard
350
18
  0
DICTIONARY
  5
19
102
{ACAD_REACTORS
330
C
102
}
100
AcDbDictionary
281
1
  0
DICTIONARY
  5
1A
102
{ACAD_REACTORS
330
C
102
}
100
AcDbDictionary
281
1
  3
Model
350
263
  3
Layout1
350
264
  0
ACDBPLACEHOLDER
  5
F
102
{ACAD_REACTORS
330
E
102
}
  0
MLINESTYLE
  5
18
102
{ACAD_REACTORS
330
17
102
}
100
AcDbMlineStyle
  2
STANDARD
 70
0
  3

 62
256
 51
90.0
 52
90.0
 71
2
 49
0.5
 62
256
  6
BYLAYER
 49
-0.5
 62
256
  6
BYLAYER
  0
LAYOUT
  5
263
102
{ACAD_REACTORS
330
1A
102
}
100
AcDbPlotSettings
  1

  2
none_device
  4

  6

 40
0.0
 41
0.0
 42
0.0
 43
0.0
 44
210.0
 45
297.0
 46
0.0
 47
0.0
 48
0.0
 49
0.0
140
0.0
141
0.0
142
1.0
143
1.0
 70
1024
 72
1
 73
0
 74
0
  7

 75
0
147
1.0
148
0.0
149
0.0
100
AcDbLayout
  1
Model
 70
0
 71
0
 10
0.0
 20
0.0
 11
210.0
 21
297.0
 12
0.0
 22
0.0
 32
0.0
 14
0.0
 24
0.0
 34
0.0
 15
0.0
 25
0.0
 35
0.0
146
0.0
 13
0.0
 23
0.0
 33
0.0
 16
1.0
 26
0.0
 36
0.0
 17
0.0
 27
1.0
 37
0.0
 76
0
330
210
345
0
346
0
  0
LAYOUT
  5
264
102
{ACAD_REACTORS
330
1A
102
}
100
AcDbPlotSettings
  1

  2
none_device
  4

  6

 40
0.0
 41
0.0
 42
0.0
 43
0.0
 44
210.0
 45
297.0
 46
0.0
 47
0.0
 48
0.0
 49
0.0
140
0.0
141
0.0
142
1.0
143
1.0
 70
0
 72
1
 73
0
 74
0
  7

 75
0
147
1.0
148
0.0
149
0.0
100
AcDbLayout
  1
Layout1
 70
0
 71
1
 10
0.0
 20
0.0
 11
210.0
 21
297.0
 12
0.0
 22
0.0
 32
0.0
 14
0.0
 24
0.0
 34
0.0
 15
0.0
 25
0.0
 35
0.0
146
0.0
 13
0.0
 23
0.0
 33
0.0
 16
1.0
 26
0.0
 36
0.0
 17
0.0
 27
1.0
 37
0.0
 76
0
330
211
345
0
346
0
  0
ENDSEC
  0
EOF
