999
DXF file: C:\Users\sesa63760\Dev\_Creo\CAD\MCADID0003610_3D-CAD\drw0001_4.dxf
999
Pro/ENGINEER 2019471 by Parametric Technology Corporation
  0
SECTION
  2
HEADER
  9
$ACADVER
  1
AC1024
  9
$DWGCODEPAGE
  3
ANSI_1252
  9
$EXTMAX
 10
92.6902161291
 20
131.0904485254
 30
0.0
  9
$EXTMIN
 10
0.0
 20
0.0
 30
0.0
  9
$LIMMIN
 10
0.0
 20
0.0
  9
$LIMMAX
 10
92.6902161291
 20
131.0904485254
  9
$VIEWCTR
 10
46.3451080645
 20
65.5452242627
  9
$VIEWSIZE
 40
131.0904485254
  9
$CLAYER
  8
0
  9
$LTSCALE
 40
8.5451551631
  9
$CELTYPE
  6
BYLAYER
  9
$DIMSCALE
 40
1.0
  9
$DIMASZ
 40
1.1034549539
  9
$DIMEXO
 40
1.0
  9
$DIMDLI
 40
5.9039253854
  9
$DIMEXE
 40
1.0
  9
$DIMCEN
 40
1.3982981176
  9
$DIMLFAC
 40
1.0
  9
$DIMBLK
  1
_FILLED
  9
$DIMALT
 70
0
  9
$DIMALTF
 40
0.0393700787
  9
$DIMTXT
 40
1.5448369355
  9
$DIMTOL
 70
1
  9
$DIMLIM
 70
0
  9
$DIMTFAC
 40
1.0
  9
$DIMTP
 40
0.01
  9
$DIMTM
 40
0.01
  9
$DIMGAP
 40
0.625
  9
$DIMDSEP
 70
46
  9
$AUNITS
 70
0
  9
$PDMODE
 70
3
  9
$PDSIZE
 40
0.3125
  9
$HANDSEED
  5
273
  9
$TILEMODE
 70
1
  9
$MEASUREMENT
 70
1
  9
$INSUNITS
 70
4
  0
ENDSEC
  0
SECTION
  2
CLASSES
  0
CLASS
  1
ACDBDICTIONARYWDFLT
  2
AcDbDictionaryWithDefault
  3
AutoCAD 2000
 90
0
 91
1
280
0
281
0
  0
CLASS
  1
ACDBPLACEHOLDER
  2
AcDbPlaceHolder
  3
AutoCAD 2000
 90
0
 91
1
280
0
281
0
  0
CLASS
  1
LAYOUT
  2
AcDbLayout
  3
AutoCAD 2000
 90
0
 91
0
280
0
281
0
  0
ENDSEC
  0
SECTION
  2
TABLES
  0
TABLE
  2
VPORT
  5
8
100
AcDbSymbolTable
 70
2
  0
VPORT
  5
1F4
100
AcDbSymbolTableRecord
100
AcDbViewportTableRecord
  2
*ACTIVE
 70
0
 10
0.0
 20
0.0
 11
1.0
 21
1.0
 12
46.3451080645
 22
65.5452242627
 13
0.0
 23
0.0
 14
1.0
 24
1.0
 15
0.0
 25
0.0
 16
0.0
 26
0.0
 36
1.0
 17
0.0
 27
0.0
 37
0.0
 40
131.0904485254
 41
0.7070707071
 42
50.0
 43
0.0
 44
0.0
 50
0.0
 51
0.0
 71
0
 72
100
 73
1
 74
1
 75
0
 76
0
 77
0
 78
0
  0
ENDTAB
  0
TABLE
  2
LTYPE
  5
5
100
AcDbSymbolTable
 70
6
  0
LTYPE
  5
14
100
AcDbSymbolTableRecord
100
AcDbLinetypeTableRecord
  2
BYBLOCK
 70
0
  3

 72
65
 73
0
 40
0.0
  0
LTYPE
  5
15
100
AcDbSymbolTableRecord
100
AcDbLinetypeTableRecord
  2
BYLAYER
 70
0
  3

 72
65
 73
0
 40
0.0
  0
LTYPE
  5
16
100
AcDbSymbolTableRecord
100
AcDbLinetypeTableRecord
  2
CONTINUOUS
 70
64
  3
Solid line
 72
65
 73
0
 40
0.0
  0
LTYPE
  5
1F5
100
AcDbSymbolTableRecord
100
AcDbLinetypeTableRecord
  2
CENTER
 70
64
  3
____ _ ____ _ ____ _ ____ _ ____ _ ____ _ ____
 72
65
 73
4
 40
0.6
 49
0.375
 74
0
 49
-0.075
 74
0
 49
0.075
 74
0
 49
-0.075
 74
0
  0
LTYPE
  5
1F6
100
AcDbSymbolTableRecord
100
AcDbLinetypeTableRecord
  2
HIDDEN
 70
64
  3
- - - - - - - - - - - - - - - - - - - -
 72
65
 73
2
 40
0.2
 49
0.1
 74
0
 49
-0.1
 74
0
  0
LTYPE
  5
1F7
100
AcDbSymbolTableRecord
100
AcDbLinetypeTableRecord
  2
PHANTOM
 70
64
  3
_____ _ _ _____ _ _ _____ _ _ _____
 72
65
 73
6
 40
0.8
 49
0.45
 74
0
 49
-0.05
 74
0
 49
0.1
 74
0
 49
-0.05
 74
0
 49
0.1
 74
0
 49
-0.05
 74
0
  0
LTYPE
  5
1F8
100
AcDbSymbolTableRecord
100
AcDbLinetypeTableRecord
  2
DOT
 70
64
  3
. . . . . . . . . . . . . . . . . . . .
 72
65
 73
2
 40
0.2
 49
0.1
 74
0
 49
-0.1
 74
0
  0
LTYPE
  5
1F9
100
AcDbSymbolTableRecord
100
AcDbLinetypeTableRecord
  2
DASHED
 70
64
  3
- - - - - - - - - - - - - - - - - - - -
 72
65
 73
2
 40
0.2
 49
0.1
 74
0
 49
-0.1
 74
0
  0
ENDTAB
  0
TABLE
  2
LAYER
  5
2
100
AcDbSymbolTable
 70
36
  0
LAYER
  5
10
100
AcDbSymbolTableRecord
100
AcDbLayerTableRecord
  2
0
 70
0
 62
7
  6
CONTINUOUS
370
-3
390
F
  0
LAYER
  5
1FA
100
AcDbSymbolTableRecord
100
AcDbLayerTableRecord
  2
DEFAULT_1
 70
0
 62
7
  6
CENTER
370
-3
390
F
  0
LAYER
  5
1FB
100
AcDbSymbolTableRecord
100
AcDbLayerTableRecord
  2
DEFAULT_2
 70
0
 62
7
  6
HIDDEN
370
-3
390
F
  0
LAYER
  5
1FC
100
AcDbSymbolTableRecord
100
AcDbLayerTableRecord
  2
DEFAULT_3
 70
0
 62
7
  6
PHANTOM
370
-3
390
F
  0
LAYER
  5
1FD
100
AcDbSymbolTableRecord
100
AcDbLayerTableRecord
  2
00_COMPONENTS
 70
0
 62
7
  6
CONTINUOUS
370
-3
390
F
  0
LAYER
  5
1FE
100
AcDbSymbolTableRecord
100
AcDbLayerTableRecord
  2
01_1_DEFAULT_DATUMS
 70
0
 62
7
  6
CONTINUOUS
370
-3
390
F
  0
LAYER
  5
1FF
100
AcDbSymbolTableRecord
100
AcDbLayerTableRecord
  2
01_PLANES
 70
0
 62
7
  6
CONTINUOUS
370
-3
390
F
  0
LAYER
  5
200
100
AcDbSymbolTableRecord
100
AcDbLayerTableRecord
  2
02_COORD_SYS
 70
0
 62
7
  6
CONTINUOUS
370
-3
390
F
  0
LAYER
  5
201
100
AcDbSymbolTableRecord
100
AcDbLayerTableRecord
  2
03_AXES
 70
0
 62
7
  6
CONTINUOUS
370
-3
390
F
  0
LAYER
  5
202
100
AcDbSymbolTableRecord
100
AcDbLayerTableRecord
  2
04_POINTS
 70
0
 62
7
  6
CONTINUOUS
370
-3
390
F
  0
LAYER
  5
203
100
AcDbSymbolTableRecord
100
AcDbLayerTableRecord
  2
05_CURVES
 70
0
 62
7
  6
CONTINUOUS
370
-3
390
F
  0
LAYER
  5
204
100
AcDbSymbolTableRecord
100
AcDbLayerTableRecord
  2
06_SURFS
 70
0
 62
7
  6
CONTINUOUS
370
-3
390
F
  0
LAYER
  5
205
100
AcDbSymbolTableRecord
100
AcDbLayerTableRecord
  2
07_COSMETICS
 70
0
 62
7
  6
CONTINUOUS
370
-3
390
F
  0
LAYER
  5
206
100
AcDbSymbolTableRecord
100
AcDbLayerTableRecord
  2
10_NOTES
 70
0
 62
7
  6
CONTINUOUS
370
-3
390
F
  0
LAYER
  5
207
100
AcDbSymbolTableRecord
100
AcDbLayerTableRecord
  2
11_NOTES_PUB
 70
0
 62
7
  6
CONTINUOUS
370
-3
390
F
  0
LAYER
  5
208
100
AcDbSymbolTableRecord
100
AcDbLayerTableRecord
  2
13_REF_GTOL
 70
0
 62
7
  6
CONTINUOUS
370
-3
390
F
  0
LAYER
  5
209
100
AcDbSymbolTableRecord
100
AcDbLayerTableRecord
  2
16_MISC
 70
0
 62
7
  6
CONTINUOUS
370
-3
390
F
  0
LAYER
  5
20A
100
AcDbSymbolTableRecord
100
AcDbLayerTableRecord
  2
17_NO_PRINT
 70
0
 62
7
  6
CONTINUOUS
370
-3
390
F
  0
LAYER
  5
20B
100
AcDbSymbolTableRecord
100
AcDbLayerTableRecord
  2
18_DATUM_CAMS_JOINTS
 70
0
 62
7
  6
CONTINUOUS
370
-3
390
F
  0
LAYER
  5
20C
100
AcDbSymbolTableRecord
100
AcDbLayerTableRecord
  2
19_DATUM_FUNCTIONAL
 70
0
 62
7
  6
CONTINUOUS
370
-3
390
F
  0
LAYER
  5
20D
100
AcDbSymbolTableRecord
100
AcDbLayerTableRecord
  2
20_DATUM_KINEMATIC_SCHEME
 70
0
 62
7
  6
CONTINUOUS
370
-3
390
F
  0
ENDTAB
  0
TABLE
  2
STYLE
  5
3
100
AcDbSymbolTable
 70
1
  0
STYLE
  5
11
100
AcDbSymbolTableRecord
100
AcDbTextStyleTableRecord
  2
STANDARD
 70
0
 40
0.0
 41
1.0
 50
0.0
 71
0
 42
0.2
  3
ARIAL.TTF
  4

  0
STYLE
  5
20E
100
AcDbSymbolTableRecord
100
AcDbTextStyleTableRecord
  2
TEXTSTYLE_1
 70
0
 40
0.0
 41
0.8
 50
0.0
 71
0
 42
0.2
  3
gdt
  4

  0
ENDTAB
  0
TABLE
  2
VIEW
  5
6
100
AcDbSymbolTable
 70
0
  0
ENDTAB
  0
TABLE
  2
UCS
  5
7
100
AcDbSymbolTable
 70
0
  0
ENDTAB
  0
TABLE
  2
APPID
  5
9
100
AcDbSymbolTable
 70
1
  0
APPID
  5
20F
100
AcDbSymbolTableRecord
100
AcDbRegAppTableRecord
  2
ACAD
 70
0
  0
ENDTAB
  0
TABLE
  2
BLOCK_RECORD
  5
1
100
AcDbSymbolTable
 70
0
  0
BLOCK_RECORD
  5
210
100
AcDbSymbolTableRecord
100
AcDbBlockTableRecord
  2
*Model_Space
  0
BLOCK_RECORD
  5
211
100
AcDbSymbolTableRecord
100
AcDbBlockTableRecord
  2
*Paper_Space
  0
BLOCK_RECORD
  5
212
100
AcDbSymbolTableRecord
100
AcDbBlockTableRecord
  2
_FILLED
  0
ENDTAB
  0
TABLE
  2
DIMSTYLE
  5
A
100
AcDbSymbolTable
 70
1
100
AcDbDimStyleTable
 71
0
  0
DIMSTYLE
105
213
100
AcDbSymbolTableRecord
100
AcDbDimStyleTableRecord
  2
STANDARD
 70
0
  3

  4

 40
1.0
 41
1.1034549539
 42
1.0
 43
0.38
 44
1.0
 45
0.0
 46
0.0
 47
0.01
 48
0.01
140
1.5448369355
141
0.09
142
0.0
143
25.4
144
1.0
145
0.0
146
1.0
147
0.625
 71
1
 72
0
 73
0
 74
0
 75
0
 76
0
 77
1
 78
8
 79
2
170
0
171
1
172
0
173
0
174
0
175
0
176
0
177
0
178
0
270
2
179
2
271
2
272
2
273
2
274
2
275
0
280
0
281
0
282
0
283
1
284
8
285
0
286
0
287
3
288
0
340
11
278
46
341
212
342
212
343
212
344
212
  0
ENDTAB
  0
ENDSEC
  0
SECTION
  2
BLOCKS
  0
BLOCK
  5
20
100
AcDbEntity
  8
0
100
AcDbBlockBegin
  2
*Model_Space
 70
0
 10
0.0
 20
0.0
 30
0.0
  3
*Model_Space
  1

  0
ENDBLK
  5
21
100
AcDbEntity
  8
0
100
AcDbBlockEnd
  0
BLOCK
  5
1C
100
AcDbEntity
  8
0
100
AcDbBlockBegin
  2
*Paper_Space
 70
0
 10
0.0
 20
0.0
 30
0.0
  3
*Paper_Space
  1

  0
ENDBLK
  5
1D
100
AcDbEntity
  8
0
100
AcDbBlockEnd
  0
BLOCK
  5
214
100
AcDbEntity
  8
0
100
AcDbBlockBegin
  2
_FILLED
 70
64
 10
0.0
 20
0.0
  3
_FILLED
  1

  0
SOLID
  5
215
100
AcDbEntity
  8
0
  6
BYBLOCK
 62
0
100
AcDbTrace
 10
0.0
 20
0.0
 11
-1.0
 21
0.25
 12
-1.0
 22
-0.25
 13
-1.0
 23
-0.25
  0
ENDBLK
  5
216
100
AcDbEntity
  8
0
  6
BYBLOCK
 62
0
100
AcDbBlockEnd
  0
ENDSEC
  0
SECTION
  2
ENTITIES
  0
LINE
  5
217
100
AcDbEntity
  8
0
100
AcDbLine
 62
7
  6
BYLAYER
 10
12.3233140695
 20
14.3560338643
 11
33.3233140695
 21
14.3560338643
  0
LINE
  5
218
100
AcDbEntity
  8
0
100
AcDbLine
 62
7
  6
BYLAYER
 10
57.3233140695
 20
14.3560338643
 11
78.3233140695
 21
14.3560338643
  0
LINE
  5
219
100
AcDbEntity
  8
0
100
AcDbLine
 62
7
  6
BYLAYER
 10
57.3233140695
 20
14.5024804737
 11
56.5720885187
 21
14.5024804737
  0
LINE
  5
21A
100
AcDbEntity
  8
0
100
AcDbLine
 62
7
  6
BYLAYER
 10
34.0745396203
 20
14.5024804737
 11
33.3233140695
 21
14.5024804737
  0
LINE
  5
21B
100
AcDbEntity
  8
0
100
AcDbLine
 62
7
  6
BYLAYER
 10
80.2598057426
 20
15.8560338643
 11
57.3233140695
 21
15.8560338643
  0
LINE
  5
21C
100
AcDbEntity
  8
0
100
AcDbLine
 62
7
  6
BYLAYER
 10
33.3233140695
 20
15.8560338643
 11
10.3868223964
 21
15.8560338643
  0
LINE
  5
21D
100
AcDbEntity
  8
0
100
AcDbLine
 62
7
  6
BYLAYER
 10
24.8233140695
 20
17.1060338643
 11
28.3233140695
 21
17.1060338643
  0
LINE
  5
21E
100
AcDbEntity
  8
0
100
AcDbLine
 62
7
  6
BYLAYER
 10
62.3233140695
 20
17.1060338643
 11
65.8233140695
 21
17.1060338643
  0
LINE
  5
21F
100
AcDbEntity
  8
0
100
AcDbLine
 62
7
  6
BYLAYER
 10
65.8233140695
 20
21.6060338643
 11
62.3233140695
 21
21.6060338643
  0
LINE
  5
220
100
AcDbEntity
  8
0
100
AcDbLine
 62
7
  6
BYLAYER
 10
28.3233140695
 20
21.6060338643
 11
24.8233140695
 21
21.6060338643
  0
LINE
  5
221
100
AcDbEntity
  8
0
100
AcDbLine
 62
7
  6
BYLAYER
 10
10.3233140695
 20
23.3560338643
 11
33.3233140695
 21
23.3560338643
  0
LINE
  5
222
100
AcDbEntity
  8
0
100
AcDbLine
 62
7
  6
BYLAYER
 10
57.3233140695
 20
23.3560338643
 11
80.3233140695
 21
23.3560338643
  0
LINE
  5
223
100
AcDbEntity
  8
0
100
AcDbLine
 62
7
  6
BYLAYER
 10
10.3233140695
 20
16.3560338643
 11
10.3233140695
 21
100.3560338643
  0
LINE
  5
224
100
AcDbEntity
  8
0
100
AcDbLine
 62
7
  6
BYLAYER
 10
33.3233140695
 20
24.7095872549
 11
35.3233140695
 21
24.7095872549
  0
LINE
  5
225
100
AcDbEntity
  8
0
100
AcDbLine
 62
7
  6
BYLAYER
 10
55.3233140695
 20
24.7095872549
 11
57.3233140695
 21
24.7095872549
  0
LINE
  5
226
100
AcDbEntity
  8
0
100
AcDbLine
 62
7
  6
BYLAYER
 10
10.3233140695
 20
24.8560338643
 11
33.3233140695
 21
24.8560338643
  0
LINE
  5
227
100
AcDbEntity
  8
0
100
AcDbLine
 62
7
  6
BYLAYER
 10
57.3233140695
 20
24.8560338643
 11
80.3233140695
 21
24.8560338643
  0
LINE
  5
228
100
AcDbEntity
  8
0
100
AcDbLine
 62
7
  6
BYLAYER
 10
57.3233140695
 20
25.0631406455
 11
55.3233140695
 21
25.0631406455
  0
LINE
  5
229
100
AcDbEntity
  8
0
100
AcDbLine
 62
7
  6
BYLAYER
 10
35.3233140695
 20
25.0631406455
 11
33.3233140695
 21
25.0631406455
  0
LINE
  5
22A
100
AcDbEntity
  8
0
100
AcDbLine
 62
7
  6
BYLAYER
 10
80.3233140695
 20
26.3560338643
 11
57.3233140695
 21
26.3560338643
  0
LINE
  5
22B
100
AcDbEntity
  8
0
100
AcDbLine
 62
7
  6
BYLAYER
 10
33.3233140695
 20
26.3560338643
 11
10.3233140695
 21
26.3560338643
  0
LINE
  5
22C
100
AcDbEntity
  8
0
100
AcDbLine
 62
7
  6
BYLAYER
 10
33.3233140695
 20
14.3560338643
 11
33.3233140695
 21
26.3560338643
  0
LINE
  5
22D
100
AcDbEntity
  8
0
100
AcDbLine
 62
7
  6
BYLAYER
 10
33.3233140695
 20
90.3560338643
 11
33.3233140695
 21
102.3560338643
  0
LINE
  5
22E
100
AcDbEntity
  8
0
100
AcDbLine
 62
7
  6
BYLAYER
 10
35.3233140695
 20
100.3560338643
 11
35.3233140695
 21
16.3560338643
  0
LINE
  5
22F
100
AcDbEntity
  8
0
100
AcDbLine
 62
7
  6
BYLAYER
 10
55.3233140695
 20
16.3560338643
 11
55.3233140695
 21
100.3560338643
  0
LINE
  5
230
100
AcDbEntity
  8
0
100
AcDbLine
 62
7
  6
BYLAYER
 10
57.3233140695
 20
102.3560338643
 11
57.3233140695
 21
90.3560338643
  0
LINE
  5
231
100
AcDbEntity
  8
0
100
AcDbLine
 62
7
  6
BYLAYER
 10
57.3233140695
 20
26.3560338643
 11
57.3233140695
 21
14.3560338643
  0
LINE
  5
232
100
AcDbEntity
  8
0
100
AcDbLine
 62
7
  6
BYLAYER
 10
72.3173825503
 20
91.8560338643
 11
73.0185666688
 21
103.0010362801
  0
LINE
  5
233
100
AcDbEntity
  8
0
100
AcDbLine
 62
7
  6
BYLAYER
 10
10.3233140695
 20
90.3560338643
 11
33.3233140695
 21
90.3560338643
  0
LINE
  5
234
100
AcDbEntity
  8
0
100
AcDbLine
 62
7
  6
BYLAYER
 10
57.3233140695
 20
90.3560338643
 11
80.3233140695
 21
90.3560338643
  0
LINE
  5
235
100
AcDbEntity
  8
0
100
AcDbLine
 62
7
  6
BYLAYER
 10
79.0067270394
 20
102.6242931629
 11
78.3292455887
 21
91.8560338643
  0
LINE
  5
236
100
AcDbEntity
  8
0
100
AcDbLine
 62
7
  6
BYLAYER
 10
33.3233140695
 20
91.6489270831
 11
35.3233140695
 21
91.6489270831
  0
LINE
  5
237
100
AcDbEntity
  8
0
100
AcDbLine
 62
7
  6
BYLAYER
 10
55.3233140695
 20
91.6489270831
 11
57.3233140695
 21
91.6489270831
  0
LINE
  5
238
100
AcDbEntity
  8
0
100
AcDbLine
 62
7
  6
BYLAYER
 10
80.3233140695
 20
91.8560338643
 11
57.3233140695
 21
91.8560338643
  0
LINE
  5
239
100
AcDbEntity
  8
0
100
AcDbLine
 62
7
  6
BYLAYER
 10
33.3233140695
 20
91.8560338643
 11
10.3233140695
 21
91.8560338643
  0
LINE
  5
23A
100
AcDbEntity
  8
0
100
AcDbLine
 62
7
  6
BYLAYER
 10
57.3233140695
 20
92.0024804737
 11
55.3233140695
 21
92.0024804737
  0
LINE
  5
23B
100
AcDbEntity
  8
0
100
AcDbLine
 62
7
  6
BYLAYER
 10
35.3233140695
 20
92.0024804737
 11
33.3233140695
 21
92.0024804737
  0
LINE
  5
23C
100
AcDbEntity
  8
0
100
AcDbLine
 62
7
  6
BYLAYER
 10
80.3233140695
 20
93.3560338643
 11
78.4236175896
 21
93.3560338643
  0
LINE
  5
23D
100
AcDbEntity
  8
0
100
AcDbLine
 62
7
  6
BYLAYER
 10
72.4117545512
 20
93.3560338643
 11
57.3233140695
 21
93.3560338643
  0
LINE
  5
23E
100
AcDbEntity
  8
0
100
AcDbLine
 62
7
  6
BYLAYER
 10
33.3233140695
 20
93.3560338643
 11
10.3233140695
 21
93.3560338643
  0
LINE
  5
23F
100
AcDbEntity
  8
0
100
AcDbLine
 62
7
  6
BYLAYER
 10
80.3233140695
 20
16.3560338643
 11
80.3233140695
 21
100.3560338643
  0
LINE
  5
240
100
AcDbEntity
  8
0
100
AcDbLine
 62
7
  6
BYLAYER
 10
24.8233140695
 20
95.1060338643
 11
28.3233140695
 21
95.1060338643
  0
LINE
  5
241
100
AcDbEntity
  8
0
100
AcDbLine
 62
7
  6
BYLAYER
 10
62.3233140695
 20
95.1060338643
 11
65.8233140695
 21
95.1060338643
  0
LINE
  5
242
100
AcDbEntity
  8
0
100
AcDbLine
 62
7
  6
BYLAYER
 10
65.8233140695
 20
99.6060338643
 11
62.3233140695
 21
99.6060338643
  0
LINE
  5
243
100
AcDbEntity
  8
0
100
AcDbLine
 62
7
  6
BYLAYER
 10
28.3233140695
 20
99.6060338643
 11
24.8233140695
 21
99.6060338643
  0
LINE
  5
244
100
AcDbEntity
  8
0
100
AcDbLine
 62
7
  6
BYLAYER
 10
10.3868223964
 20
100.8560338643
 11
33.3233140695
 21
100.8560338643
  0
LINE
  5
245
100
AcDbEntity
  8
0
100
AcDbLine
 62
7
  6
BYLAYER
 10
57.3233140695
 20
100.8560338643
 11
72.8836145556
 21
100.8560338643
  0
LINE
  5
246
100
AcDbEntity
  8
0
100
AcDbLine
 62
7
  6
BYLAYER
 10
78.895477594
 20
100.8560338643
 11
80.2598057426
 21
100.8560338643
  0
LINE
  5
247
100
AcDbEntity
  8
0
100
AcDbLine
 62
7
  6
BYLAYER
 10
33.3233140695
 20
102.2095872549
 11
34.0745396203
 21
102.2095872549
  0
LINE
  5
248
100
AcDbEntity
  8
0
100
AcDbLine
 62
7
  6
BYLAYER
 10
56.5720885187
 20
102.2095872549
 11
57.3233140695
 21
102.2095872549
  0
LINE
  5
249
100
AcDbEntity
  8
0
100
AcDbLine
 62
7
  6
BYLAYER
 10
72.9779865564
 20
102.3560338643
 11
57.3233140695
 21
102.3560338643
  0
LINE
  5
24A
100
AcDbEntity
  8
0
100
AcDbLine
 62
7
  6
BYLAYER
 10
33.3233140695
 20
102.3560338643
 11
12.3233140695
 21
102.3560338643
  0
LINE
  5
24B
100
AcDbEntity
  8
0
100
AcDbLine
 62
7
  6
BYLAYER
 10
83.2881755717
 20
111.0067586895
 11
83.5854273961
 21
111.0428908825
  0
LINE
  5
24C
100
AcDbEntity
  8
0
100
AcDbLine
 62
7
  6
BYLAYER
 10
82.6811820235
 20
115.9321475343
 11
82.3839301991
 21
115.8960153413
  0
ARC
  5
24D
100
AcDbEntity
  8
0
100
AcDbCircle
 62
7
  6
BYLAYER
 10
28.3233140695
 20
19.3560338643
 40
2.25
100
AcDbArc
 50
270.0
 51
90.0
  0
ARC
  5
24E
100
AcDbEntity
  8
0
100
AcDbCircle
 62
7
  6
BYLAYER
 10
24.8233140695
 20
19.3560338643
 40
2.25
100
AcDbArc
 50
90.0
 51
270.0
  0
CIRCLE
  5
24F
100
AcDbEntity
  8
0
100
AcDbCircle
 62
7
  6
BYLAYER
 10
16.8233140695
 20
19.3560338643
 40
2.25
  0
ARC
  5
250
100
AcDbEntity
  8
0
100
AcDbCircle
 62
7
  6
BYLAYER
 10
12.3233140695
 20
16.3560338643
 40
2.0
100
AcDbArc
 50
180.0
 51
270.0
  0
ARC
  5
251
100
AcDbEntity
  8
0
100
AcDbCircle
 62
7
  6
BYLAYER
 10
33.3233140695
 20
16.3560338643
 40
2.0
100
AcDbArc
 50
270.0
 51
360.0
  0
CIRCLE
  5
252
100
AcDbEntity
  8
0
100
AcDbCircle
 62
7
  6
BYLAYER
 10
16.8233140695
 20
97.3560338643
 40
2.25
  0
ARC
  5
253
100
AcDbEntity
  8
0
100
AcDbCircle
 62
7
  6
BYLAYER
 10
24.8233140695
 20
97.3560338643
 40
2.25
100
AcDbArc
 50
90.0
 51
270.0
  0
ARC
  5
254
100
AcDbEntity
  8
0
100
AcDbCircle
 62
7
  6
BYLAYER
 10
28.3233140695
 20
97.3560338643
 40
2.25
100
AcDbArc
 50
270.0
 51
90.0
  0
ARC
  5
255
100
AcDbEntity
  8
0
100
AcDbCircle
 62
7
  6
BYLAYER
 10
33.3233140695
 20
100.3560338643
 40
2.0
100
AcDbArc
 50
0.0
 51
90.0
  0
ARC
  5
256
100
AcDbEntity
  8
0
100
AcDbCircle
 62
7
  6
BYLAYER
 10
12.3233140695
 20
100.3560338643
 40
2.0
100
AcDbArc
 50
90.0
 51
180.0
  0
CIRCLE
  5
257
100
AcDbEntity
  8
0
100
AcDbCircle
 62
7
  6
BYLAYER
 10
73.8233140695
 20
19.3560338643
 40
2.25
  0
ARC
  5
258
100
AcDbEntity
  8
0
100
AcDbCircle
 62
7
  6
BYLAYER
 10
65.8233140695
 20
19.3560338643
 40
2.25
100
AcDbArc
 50
270.0
 51
90.0
  0
ARC
  5
259
100
AcDbEntity
  8
0
100
AcDbCircle
 62
7
  6
BYLAYER
 10
62.3233140695
 20
19.3560338643
 40
2.25
100
AcDbArc
 50
90.0
 51
270.0
  0
ARC
  5
25A
100
AcDbEntity
  8
0
100
AcDbCircle
 62
7
  6
BYLAYER
 10
57.3233140695
 20
16.3560338643
 40
2.0
100
AcDbArc
 50
180.0
 51
270.0
  0
ARC
  5
25B
100
AcDbEntity
  8
0
100
AcDbCircle
 62
7
  6
BYLAYER
 10
78.3233140695
 20
16.3560338643
 40
2.0
100
AcDbArc
 50
270.0
 51
360.0
  0
ARC
  5
25C
100
AcDbEntity
  8
0
100
AcDbCircle
 62
7
  6
BYLAYER
 10
71.3233140695
 20
24.8560338643
 40
1.5
100
AcDbArc
 50
180.0
 51
360.0
  0
ARC
  5
25D
100
AcDbEntity
  8
0
100
AcDbCircle
 62
7
  6
BYLAYER
 10
73.756043937
 20
95.6657043359
 40
7.4114791858
100
AcDbArc
 50
92.0116599347
 51
92.1344634244
  0
ARC
  5
25E
100
AcDbEntity
  8
0
100
AcDbCircle
 62
7
  6
BYLAYER
 10
78.3140906168
 20
108.7979650914
 40
6.2489551461
100
AcDbArc
 50
272.1246640799
 51
273.0927483626
  0
ARC
  5
25F
100
AcDbEntity
  8
0
100
AcDbCircle
 62
7
  6
BYLAYER
 10
77.6188508137
 20
97.0088865598
 40
5.8199298887
100
AcDbArc
 50
79.6287566491
 51
80.7031152699
  0
ARC
  5
260
100
AcDbEntity
  8
0
100
AcDbCircle
 62
7
  6
BYLAYER
 10
84.5136585932
 20
107.3003510899
 40
3.8557533547
100
AcDbArc
 50
103.9295183329
 51
108.0027856822
  0
ARC
  5
261
100
AcDbEntity
  8
0
100
AcDbCircle
 62
7
  6
BYLAYER
 10
62.3233140695
 20
97.3560338643
 40
2.25
100
AcDbArc
 50
90.0
 51
270.0
  0
ARC
  5
262
100
AcDbEntity
  8
0
100
AcDbCircle
 62
7
  6
BYLAYER
 10
65.8233140695
 20
97.3560338643
 40
2.25
100
AcDbArc
 50
270.0
 51
90.0
  0
ARC
  5
263
100
AcDbEntity
  8
0
100
AcDbCircle
 62
7
  6
BYLAYER
 10
73.8233140695
 20
97.3560338643
 40
2.25
100
AcDbArc
 50
117.6460182181
 51
234.598165902
  0
ARC
  5
264
100
AcDbEntity
  8
0
100
AcDbCircle
 62
7
  6
BYLAYER
 10
57.3233140695
 20
100.3560338643
 40
2.0
100
AcDbArc
 50
90.0
 51
180.0
  0
ARC
  5
265
100
AcDbEntity
  8
0
100
AcDbCircle
 62
7
  6
BYLAYER
 10
78.3233140695
 20
100.3560338643
 40
2.0
100
AcDbArc
 50
0.0
 51
70.1402115609
  0
SPLINE
  5
266
100
AcDbEntity
  8
0
100
AcDbSpline
 62
7
  6
BYLAYER
 70
0
 71
3
 72
20
 73
16
 74
0
 42
0.0000001
 43
0.0000001
 44
0.0000000001
 40
0.0
 40
0.0
 40
0.0
 40
0.0
 40
0.0507614976
 40
0.1032266255
 40
0.1588037257
 40
0.2182467481
 40
0.3483972546
 40
0.4183645902
 40
0.490134951
 40
0.6338604894
 40
0.7701251314
 40
0.8332860599
 40
0.8924084261
 40
0.9477371858
 40
1.0
 40
1.0
 40
1.0
 40
1.0
 10
83.5854550612
 20
111.0427790789
 30
0.0
 10
83.6906552048
 20
111.0687959315
 30
0.0
 10
83.8983869894
 20
111.1511278529
 30
0.0
 10
84.1733703856
 20
111.3550380817
 30
0.0
 10
84.405228221
 20
111.6311184808
 30
0.0
 10
84.6545066859
 20
112.0946229565
 30
0.0
 10
84.7787031874
 20
112.6462714291
 30
0.0
 10
84.787245413
 20
113.2275807855
 30
0.0
 10
84.714915562
 20
113.8344431094
 30
0.0
 10
84.4832836638
 20
114.5575809621
 30
0.0
 10
84.0804321342
 20
115.1828612145
 30
0.0
 10
83.6775484974
 20
115.5636969957
 30
0.0
 10
83.3576850996
 20
115.7718337372
 30
0.0
 10
83.0232317376
 20
115.9013472021
 30
0.0
 10
82.7927566395
 20
115.932133737
 30
0.0
 10
82.6811820235
 20
115.9321475343
 30
0.0
  0
SPLINE
  5
267
100
AcDbEntity
  8
0
100
AcDbSpline
 62
7
  6
BYLAYER
 70
0
 71
3
 72
15
 73
11
 74
0
 42
0.0000001
 43
0.0000001
 44
0.0000000001
 40
0.0
 40
0.0
 40
0.0
 40
0.0
 40
0.1530427932
 40
0.3020351673
 40
0.4445492441
 40
0.5784042801
 40
0.7016746826
 40
0.8129972871
 40
0.9120283397
 40
1.0
 40
1.0
 40
1.0
 40
1.0
 10
78.5080526885
 20
102.6555742472
 30
0.0
 10
78.5440194694
 20
103.1702151953
 30
0.0
 10
78.6696413671
 20
104.1829884285
 30
0.0
 10
79.0183331575
 20
105.6435755948
 30
0.0
 10
79.5130188284
 20
106.9931764173
 30
0.0
 10
80.1337096069
 20
108.1932339917
 30
0.0
 10
80.8539479943
 20
109.2105085995
 30
0.0
 10
81.6413945783
 20
110.0206991163
 30
0.0
 10
82.461446019
 20
110.6121192139
 30
0.0
 10
83.0399458621
 20
110.8757224362
 30
0.0
 10
83.3219869929
 20
110.9673325092
 30
0.0
  0
SPLINE
  5
268
100
AcDbEntity
  8
0
100
AcDbSpline
 62
7
  6
BYLAYER
 70
0
 71
3
 72
14
 73
10
 74
0
 42
0.0000001
 43
0.0000001
 44
0.0000000001
 40
0.0
 40
0.0
 40
0.0
 40
0.0
 40
0.0347723843
 40
0.0898622408
 40
0.1713723376
 40
0.2808979853
 40
0.4188563453
 40
0.5850171491
 40
1.0
 40
1.0
 40
1.0
 40
1.0
 10
79.0067270394
 20
102.6242931629
 30
0.0
 10
79.0069922998
 20
102.6285093564
 30
0.0
 10
79.0010603209
 20
102.6391119712
 30
0.0
 10
78.9836247709
 20
102.6504834327
 30
0.0
 10
78.9564814912
 20
102.6633007885
 30
0.0
 10
78.9186978297
 20
102.6764214028
 30
0.0
 10
78.8703757079
 20
102.6902886086
 30
0.0
 10
78.785475883
 20
102.7109576794
 30
0.0
 10
78.7161765356
 20
102.724638371
 30
0.0
 10
78.666586426
 20
102.7337301381
 30
0.0
  0
SPLINE
  5
269
100
AcDbEntity
  8
0
100
AcDbSpline
 62
7
  6
BYLAYER
 70
0
 71
3
 72
15
 73
11
 74
0
 42
0.0000001
 43
0.0000001
 44
0.0000000001
 40
0.0
 40
0.0
 40
0.0
 40
0.0
 40
0.4169079493
 40
0.5841637642
 40
0.7230734899
 40
0.8331517869
 40
0.9144508134
 40
0.9446552567
 40
0.9683379032
 40
1.0
 40
1.0
 40
1.0
 40
1.0
 10
73.4800048896
 20
103.0720412284
 30
0.0
 10
73.4140709891
 20
103.06958328
 30
0.0
 10
73.3216979854
 20
103.0650307144
 30
0.0
 10
73.2077010446
 20
103.0548797013
 30
0.0
 10
73.1423078249
 20
103.0467816923
 30
0.0
 10
73.0908121276
 20
103.0375787559
 30
0.0
 10
73.0568411793
 20
103.0287144699
 30
0.0
 10
73.0369875077
 20
103.0203049607
 30
0.0
 10
73.0254763082
 20
103.0136656881
 30
0.0
 10
73.0188813015
 20
103.0060372242
 30
0.0
 10
73.0185666688
 20
103.0010362801
 30
0.0
  0
SPLINE
  5
26A
100
AcDbEntity
  8
0
100
AcDbSpline
 62
7
  6
BYLAYER
 70
0
 71
3
 72
15
 73
11
 74
0
 42
0.0000001
 43
0.0000001
 44
0.0000000001
 40
0.0
 40
0.0
 40
0.0
 40
0.0
 40
0.1365593904
 40
0.2709386176
 40
0.4020308501
 40
0.5291229249
 40
0.6519820585
 40
0.7708884312
 40
0.8865653078
 40
1.0
 40
1.0
 40
1.0
 40
1.0
 10
73.5178387563
 20
102.9696613904
 30
0.0
 10
73.5694906575
 20
103.7282952743
 30
0.0
 10
73.7605686232
 20
105.2290412681
 30
0.0
 10
74.3107958314
 20
107.4046050194
 30
0.0
 10
75.1142505819
 20
109.4443546535
 30
0.0
 10
76.1585190777
 20
111.2996700362
 30
0.0
 10
77.4284900053
 20
112.9247220599
 30
0.0
 10
78.905653611
 20
114.2741946906
 30
0.0
 10
80.5624916972
 20
115.3013434548
 30
0.0
 10
81.7707701208
 20
115.7443989779
 30
0.0
 10
82.3838872429
 20
115.8961895021
 30
0.0
  0
SPLINE
  5
26B
100
AcDbEntity
  8
0
100
AcDbSpline
 62
7
  6
BYLAYER
 70
0
 71
3
 72
15
 73
11
 74
0
 42
0.0000001
 43
0.0000001
 44
0.0000000001
 40
0.0
 40
0.0
 40
0.0
 40
0.0
 40
0.0316806979
 40
0.0553687482
 40
0.0855766628
 40
0.1668783106
 40
0.2769543507
 40
0.4158565241
 40
0.5831035525
 40
1.0
 40
1.0
 40
1.0
 40
1.0
 10
73.0185666688
 20
103.0010362801
 30
0.0
 10
73.018252359
 20
102.9960404693
 30
0.0
 10
73.0238273408
 20
102.9876536713
 30
0.0
 10
73.0343991948
 20
102.9796296322
 30
0.0
 10
73.0530099646
 20
102.9688084553
 30
0.0
 10
73.0855469323
 20
102.9557685262
 30
0.0
 10
73.1353983264
 20
102.9401995635
 30
0.0
 10
73.1991524125
 20
102.9239855569
 30
0.0
 10
73.3107900907
 20
102.8996514423
 30
0.0
 10
73.4017123296
 20
102.88357381
 30
0.0
 10
73.4667102873
 20
102.8728820262
 30
0.0
  0
SPLINE
  5
26C
100
AcDbEntity
  8
0
100
AcDbSpline
 62
7
  6
BYLAYER
 70
0
 71
3
 72
15
 73
11
 74
0
 42
0.0000001
 43
0.0000001
 44
0.0000000001
 40
0.0
 40
0.0
 40
0.0
 40
0.0
 40
0.094317055
 40
0.2143279076
 40
0.3524650613
 40
0.4999689909
 40
0.6474761097
 40
0.7856246789
 40
0.9056564858
 40
1.0
 40
1.0
 40
1.0
 40
1.0
 10
73.4667102873
 20
102.8728820262
 30
0.0
 10
73.6247279466
 20
102.8468890455
 30
0.0
 10
73.9855054346
 20
102.7983406549
 30
0.0
 10
74.5805585696
 20
102.734451744
 30
0.0
 10
75.2667594498
 20
102.6746255457
 30
0.0
 10
76.000399238
 20
102.6227467101
 30
0.0
 10
76.7347750496
 20
102.5822567001
 30
0.0
 10
77.4231231749
 20
102.5555954818
 30
0.0
 10
78.0215912369
 20
102.5443877512
 30
0.0
 10
78.3856890867
 20
102.5473279883
 30
0.0
 10
78.545763665
 20
102.553305932
 30
0.0
  0
SPLINE
  5
26D
100
AcDbEntity
  8
0
100
AcDbSpline
 62
7
  6
BYLAYER
 70
0
 71
3
 72
14
 73
10
 74
0
 42
0.0000001
 43
0.0000001
 44
0.0000000001
 40
0.0
 40
0.0
 40
0.0
 40
0.0
 40
0.4150977331
 40
0.5813164085
 40
0.7193200814
 40
0.8288656948
 40
0.9103586626
 40
0.9653776676
 40
1.0
 40
1.0
 40
1.0
 40
1.0
 10
78.6512369495
 20
102.5581115059
 30
0.0
 10
78.7021881982
 20
102.5609062018
 30
0.0
 10
78.7735157318
 20
102.5657867079
 30
0.0
 10
78.8614027098
 20
102.5756689535
 30
0.0
 10
78.9116959882
 20
102.5833949259
 30
0.0
 10
78.9513083186
 20
102.5917068926
 30
0.0
 10
78.9801955182
 20
102.6010703988
 30
0.0
 10
78.9991358901
 20
102.6101975448
 30
0.0
 10
79.0064597959
 20
102.6200454488
 30
0.0
 10
79.0067270394
 20
102.6242931629
 30
0.0
  0
SPLINE
  5
26E
100
AcDbEntity
  8
0
100
AcDbSpline
 62
7
  6
BYLAYER
 70
0
 71
3
 72
20
 73
16
 74
0
 42
0.0000001
 43
0.0000001
 44
0.0000000001
 40
0.0
 40
0.0
 40
0.0
 40
0.0
 40
0.0507614976
 40
0.1032266255
 40
0.1588037257
 40
0.2182467481
 40
0.3483972546
 40
0.4183645902
 40
0.490134951
 40
0.6338604894
 40
0.7701251314
 40
0.8332860599
 40
0.8924084261
 40
0.9477371858
 40
1.0
 40
1.0
 40
1.0
 40
1.0
 10
82.383902534
 20
115.8961271448
 30
0.0
 10
82.2787023904
 20
115.8701102923
 30
0.0
 10
82.0709706058
 20
115.7877783708
 30
0.0
 10
81.7959872096
 20
115.583868142
 30
0.0
 10
81.5641293742
 20
115.307787743
 30
0.0
 10
81.3148509093
 20
114.8442832673
 30
0.0
 10
81.1906544078
 20
114.2926347947
 30
0.0
 10
81.1821121822
 20
113.7113254382
 30
0.0
 10
81.2544420332
 20
113.1044631143
 30
0.0
 10
81.4860739314
 20
112.3813252617
 30
0.0
 10
81.888925461
 20
111.7560450092
 30
0.0
 10
82.2918090978
 20
111.3752092281
 30
0.0
 10
82.6116724956
 20
111.1670724866
 30
0.0
 10
82.9461258576
 20
111.0375590216
 30
0.0
 10
83.1766009557
 20
111.0067724867
 30
0.0
 10
83.2881755717
 20
111.0067586895
 30
0.0
  0
SPLINE
  5
26F
100
AcDbEntity
  8
0
100
AcDbSpline
 62
7
  6
BYLAYER
 70
0
 71
3
 72
16
 73
12
 74
0
 42
0.0000001
 43
0.0000001
 44
0.0000000001
 40
0.0
 40
0.0
 40
0.0
 40
0.0
 40
0.4162259663
 40
0.5858248208
 40
0.7271805089
 40
0.8392835442
 40
0.8841220973
 40
0.9214153336
 40
0.9512360661
 40
0.9737993585
 40
1.0
 40
1.0
 40
1.0
 40
1.0
 10
77.7703316676
 20
102.5908382569
 30
0.0
 10
77.8741713286
 20
102.5908254162
 30
0.0
 10
78.0203491792
 20
102.592266574
 30
0.0
 10
78.2016348842
 20
102.5994194245
 30
0.0
 10
78.3069714282
 20
102.6064081242
 30
0.0
 10
78.3809995398
 20
102.6141006521
 30
0.0
 10
78.4289256246
 20
102.6216832917
 30
0.0
 10
78.4561862339
 20
102.6272794032
 30
0.0
 10
78.4780341463
 20
102.6335027687
 30
0.0
 10
78.4954718934
 20
102.6403559528
 30
0.0
 10
78.5075894345
 20
102.649054188
 30
0.0
 10
78.5080514616
 20
102.6555743499
 30
0.0
  0
SPLINE
  5
270
100
AcDbEntity
  8
0
100
AcDbSpline
 62
7
  6
BYLAYER
 70
0
 71
3
 72
24
 73
20
 74
0
 42
0.0000001
 43
0.0000001
 44
0.0000000001
 40
0.0
 40
0.0
 40
0.0
 40
0.0
 40
0.0031190455
 40
0.0055025655
 40
0.0085635444
 40
0.0168429756
 40
0.0280821052
 40
0.0422768538
 40
0.0593652323
 40
0.1019080816
 40
0.1548666031
 40
0.2171268556
 40
0.2873540077
 40
0.3640515571
 40
0.4455576217
 40
0.530125469
 40
0.7011163797
 40
0.8623353319
 40
1.0
 40
1.0
 40
1.0
 40
1.0
 10
73.5178387852
 20
102.9696613886
 30
0.0
 10
73.5175333481
 20
102.9652155257
 30
0.0
 10
73.5228195203
 20
102.9577562444
 30
0.0
 10
73.5325327431
 20
102.9507602196
 30
0.0
 10
73.5498290282
 20
102.9411750744
 30
0.0
 10
73.5799852397
 20
102.9296609614
 30
0.0
 10
73.6261776893
 20
102.9158642972
 30
0.0
 10
73.6852190188
 20
102.9014878246
 30
0.0
 10
73.7884817197
 20
102.8799085073
 30
0.0
 10
73.9471134852
 20
102.8529415629
 30
0.0
 10
74.1702858879
 20
102.8212265466
 30
0.0
 10
74.4333092474
 20
102.789155262
 30
0.0
 10
74.7305011689
 20
102.7574195936
 30
0.0
 10
75.0554384406
 20
102.7267849055
 30
0.0
 10
75.4011002769
 20
102.6979024399
 30
0.0
 10
75.8813844703
 20
102.6624962584
 30
0.0
 10
76.4758287267
 20
102.6268591309
 30
0.0
 10
77.146619561
 20
102.5991126164
 30
0.0
 10
77.5736429937
 20
102.5908625793
 30
0.0
 10
77.7703316676
 20
102.5908382569
 30
0.0
  0
ENDSEC
  0
SECTION
  2
OBJECTS
  0
DICTIONARY
  5
C
100
AcDbDictionary
280
0
281
1
  3
ACAD_GROUP
350
D
  3
ACAD_MLINESTYLE
350
17
  3
ACAD_LAYOUT
350
1A
  3
ACAD_PLOTSETTINGS
350
19
  3
ACAD_PLOTSTYLENAME
350
E
  0
DICTIONARY
  5
D
102
{ACAD_REACTORS
330
C
102
}
100
AcDbDictionary
280
0
281
1
  0
ACDBDICTIONARYWDFLT
  5
E
102
{ACAD_REACTORS
330
C
102
}
100
AcDbDictionary
281
1
  3
Normal
350
F
100
AcDbDictionaryWithDefault
340
F
  0
DICTIONARY
  5
17
102
{ACAD_REACTORS
330
C
102
}
100
AcDbDictionary
280
0
281
1
  3
Standard
350
18
  0
DICTIONARY
  5
19
102
{ACAD_REACTORS
330
C
102
}
100
AcDbDictionary
281
1
  0
DICTIONARY
  5
1A
102
{ACAD_REACTORS
330
C
102
}
100
AcDbDictionary
281
1
  3
Model
350
271
  3
Layout1
350
272
  0
ACDBPLACEHOLDER
  5
F
102
{ACAD_REACTORS
330
E
102
}
  0
MLINESTYLE
  5
18
102
{ACAD_REACTORS
330
17
102
}
100
AcDbMlineStyle
  2
STANDARD
 70
0
  3

 62
256
 51
90.0
 52
90.0
 71
2
 49
0.5
 62
256
  6
BYLAYER
 49
-0.5
 62
256
  6
BYLAYER
  0
LAYOUT
  5
271
102
{ACAD_REACTORS
330
1A
102
}
100
AcDbPlotSettings
  1

  2
none_device
  4

  6

 40
0.0
 41
0.0
 42
0.0
 43
0.0
 44
210.0
 45
297.0
 46
0.0
 47
0.0
 48
0.0
 49
0.0
140
0.0
141
0.0
142
1.0
143
1.0
 70
1024
 72
1
 73
0
 74
0
  7

 75
0
147
1.0
148
0.0
149
0.0
100
AcDbLayout
  1
Model
 70
0
 71
0
 10
0.0
 20
0.0
 11
210.0
 21
297.0
 12
0.0
 22
0.0
 32
0.0
 14
0.0
 24
0.0
 34
0.0
 15
0.0
 25
0.0
 35
0.0
146
0.0
 13
0.0
 23
0.0
 33
0.0
 16
1.0
 26
0.0
 36
0.0
 17
0.0
 27
1.0
 37
0.0
 76
0
330
210
345
0
346
0
  0
LAYOUT
  5
272
102
{ACAD_REACTORS
330
1A
102
}
100
AcDbPlotSettings
  1

  2
none_device
  4

  6

 40
0.0
 41
0.0
 42
0.0
 43
0.0
 44
210.0
 45
297.0
 46
0.0
 47
0.0
 48
0.0
 49
0.0
140
0.0
141
0.0
142
1.0
143
1.0
 70
0
 72
1
 73
0
 74
0
  7

 75
0
147
1.0
148
0.0
149
0.0
100
AcDbLayout
  1
Layout1
 70
0
 71
1
 10
0.0
 20
0.0
 11
210.0
 21
297.0
 12
0.0
 22
0.0
 32
0.0
 14
0.0
 24
0.0
 34
0.0
 15
0.0
 25
0.0
 35
0.0
146
0.0
 13
0.0
 23
0.0
 33
0.0
 16
1.0
 26
0.0
 36
0.0
 17
0.0
 27
1.0
 37
0.0
 76
0
330
211
345
0
346
0
  0
ENDSEC
  0
EOF
