999
DXF file: C:\Users\sesa63760\Dev\_Creo\CAD\MCADID0004748_3D-CAD\drw0001_5.dxf
999
Pro/ENGINEER 2019471 by Parametric Technology Corporation
  0
SECTION
  2
HEADER
  9
$ACADVER
  1
AC1024
  9
$DWGCODEPAGE
  3
ANSI_1252
  9
$EXTMAX
 10
38.9140220674
 20
55.0355454953
 30
0.0
  9
$EXTMIN
 10
0.0
 20
0.0
 30
0.0
  9
$LIMMIN
 10
0.0
 20
0.0
  9
$LIMMAX
 10
38.9140220674
 20
55.0355454953
  9
$VIEWCTR
 10
19.4570110337
 20
27.5177727476
  9
$VIEWSIZE
 40
55.0355454953
  9
$CLAYER
  8
0
  9
$LTSCALE
 40
3.5875022249
  9
$CELTYPE
  6
BYLAYER
  9
$DIMSCALE
 40
1.0
  9
$DIMASZ
 40
0.4632621675
  9
$DIMEXO
 40
1.0
  9
$DIMDLI
 40
2.4786379008
  9
$DIMEXE
 40
1.0
  9
$DIMCEN
 40
0.5870458186
  9
$DIMLFAC
 40
1.0
  9
$DIMBLK
  1
_FILLED
  9
$DIMALT
 70
0
  9
$DIMALTF
 40
0.0393700787
  9
$DIMTXT
 40
0.6485670345
  9
$DIMTOL
 70
1
  9
$DIMLIM
 70
0
  9
$DIMTFAC
 40
1.0
  9
$DIMTP
 40
0.01
  9
$DIMTM
 40
0.01
  9
$DIMGAP
 40
0.625
  9
$DIMDSEP
 70
46
  9
$AUNITS
 70
0
  9
$PDMODE
 70
3
  9
$PDSIZE
 40
0.3125
  9
$HANDSEED
  5
286
  9
$TILEMODE
 70
1
  9
$MEASUREMENT
 70
1
  9
$INSUNITS
 70
4
  0
ENDSEC
  0
SECTION
  2
CLASSES
  0
CLASS
  1
ACDBDICTIONARYWDFLT
  2
AcDbDictionaryWithDefault
  3
AutoCAD 2000
 90
0
 91
1
280
0
281
0
  0
CLASS
  1
ACDBPLACEHOLDER
  2
AcDbPlaceHolder
  3
AutoCAD 2000
 90
0
 91
1
280
0
281
0
  0
CLASS
  1
LAYOUT
  2
AcDbLayout
  3
AutoCAD 2000
 90
0
 91
0
280
0
281
0
  0
ENDSEC
  0
SECTION
  2
TABLES
  0
TABLE
  2
VPORT
  5
8
100
AcDbSymbolTable
 70
2
  0
VPORT
  5
1F4
100
AcDbSymbolTableRecord
100
AcDbViewportTableRecord
  2
*ACTIVE
 70
0
 10
0.0
 20
0.0
 11
1.0
 21
1.0
 12
19.4570110337
 22
27.5177727476
 13
0.0
 23
0.0
 14
1.0
 24
1.0
 15
0.0
 25
0.0
 16
0.0
 26
0.0
 36
1.0
 17
0.0
 27
0.0
 37
0.0
 40
55.0355454953
 41
0.7070707071
 42
50.0
 43
0.0
 44
0.0
 50
0.0
 51
0.0
 71
0
 72
100
 73
1
 74
1
 75
0
 76
0
 77
0
 78
0
  0
ENDTAB
  0
TABLE
  2
LTYPE
  5
5
100
AcDbSymbolTable
 70
6
  0
LTYPE
  5
14
100
AcDbSymbolTableRecord
100
AcDbLinetypeTableRecord
  2
BYBLOCK
 70
0
  3

 72
65
 73
0
 40
0.0
  0
LTYPE
  5
15
100
AcDbSymbolTableRecord
100
AcDbLinetypeTableRecord
  2
BYLAYER
 70
0
  3

 72
65
 73
0
 40
0.0
  0
LTYPE
  5
16
100
AcDbSymbolTableRecord
100
AcDbLinetypeTableRecord
  2
CONTINUOUS
 70
64
  3
Solid line
 72
65
 73
0
 40
0.0
  0
LTYPE
  5
1F5
100
AcDbSymbolTableRecord
100
AcDbLinetypeTableRecord
  2
CENTER
 70
64
  3
____ _ ____ _ ____ _ ____ _ ____ _ ____ _ ____
 72
65
 73
4
 40
0.6
 49
0.375
 74
0
 49
-0.075
 74
0
 49
0.075
 74
0
 49
-0.075
 74
0
  0
LTYPE
  5
1F6
100
AcDbSymbolTableRecord
100
AcDbLinetypeTableRecord
  2
HIDDEN
 70
64
  3
- - - - - - - - - - - - - - - - - - - -
 72
65
 73
2
 40
0.2
 49
0.1
 74
0
 49
-0.1
 74
0
  0
LTYPE
  5
1F7
100
AcDbSymbolTableRecord
100
AcDbLinetypeTableRecord
  2
PHANTOM
 70
64
  3
_____ _ _ _____ _ _ _____ _ _ _____
 72
65
 73
6
 40
0.8
 49
0.45
 74
0
 49
-0.05
 74
0
 49
0.1
 74
0
 49
-0.05
 74
0
 49
0.1
 74
0
 49
-0.05
 74
0
  0
LTYPE
  5
1F8
100
AcDbSymbolTableRecord
100
AcDbLinetypeTableRecord
  2
DOT
 70
64
  3
. . . . . . . . . . . . . . . . . . . .
 72
65
 73
2
 40
0.2
 49
0.1
 74
0
 49
-0.1
 74
0
  0
LTYPE
  5
1F9
100
AcDbSymbolTableRecord
100
AcDbLinetypeTableRecord
  2
DASHED
 70
64
  3
- - - - - - - - - - - - - - - - - - - -
 72
65
 73
2
 40
0.2
 49
0.1
 74
0
 49
-0.1
 74
0
  0
ENDTAB
  0
TABLE
  2
LAYER
  5
2
100
AcDbSymbolTable
 70
36
  0
LAYER
  5
10
100
AcDbSymbolTableRecord
100
AcDbLayerTableRecord
  2
0
 70
0
 62
7
  6
CONTINUOUS
370
-3
390
F
  0
LAYER
  5
1FA
100
AcDbSymbolTableRecord
100
AcDbLayerTableRecord
  2
DEFAULT_1
 70
0
 62
7
  6
CENTER
370
-3
390
F
  0
LAYER
  5
1FB
100
AcDbSymbolTableRecord
100
AcDbLayerTableRecord
  2
DEFAULT_2
 70
0
 62
7
  6
HIDDEN
370
-3
390
F
  0
LAYER
  5
1FC
100
AcDbSymbolTableRecord
100
AcDbLayerTableRecord
  2
DEFAULT_3
 70
0
 62
7
  6
PHANTOM
370
-3
390
F
  0
LAYER
  5
1FD
100
AcDbSymbolTableRecord
100
AcDbLayerTableRecord
  2
00_COMPONENTS
 70
0
 62
7
  6
CONTINUOUS
370
-3
390
F
  0
LAYER
  5
1FE
100
AcDbSymbolTableRecord
100
AcDbLayerTableRecord
  2
01_1_DEFAULT_DATUMS
 70
0
 62
7
  6
CONTINUOUS
370
-3
390
F
  0
LAYER
  5
1FF
100
AcDbSymbolTableRecord
100
AcDbLayerTableRecord
  2
01_PLANES
 70
0
 62
7
  6
CONTINUOUS
370
-3
390
F
  0
LAYER
  5
200
100
AcDbSymbolTableRecord
100
AcDbLayerTableRecord
  2
02_COORD_SYS
 70
0
 62
7
  6
CONTINUOUS
370
-3
390
F
  0
LAYER
  5
201
100
AcDbSymbolTableRecord
100
AcDbLayerTableRecord
  2
03_AXES
 70
0
 62
7
  6
CONTINUOUS
370
-3
390
F
  0
LAYER
  5
202
100
AcDbSymbolTableRecord
100
AcDbLayerTableRecord
  2
04_POINTS
 70
0
 62
7
  6
CONTINUOUS
370
-3
390
F
  0
LAYER
  5
203
100
AcDbSymbolTableRecord
100
AcDbLayerTableRecord
  2
05_CURVES
 70
0
 62
7
  6
CONTINUOUS
370
-3
390
F
  0
LAYER
  5
204
100
AcDbSymbolTableRecord
100
AcDbLayerTableRecord
  2
06_SURFS
 70
0
 62
7
  6
CONTINUOUS
370
-3
390
F
  0
LAYER
  5
205
100
AcDbSymbolTableRecord
100
AcDbLayerTableRecord
  2
07_COSMETICS
 70
0
 62
7
  6
CONTINUOUS
370
-3
390
F
  0
LAYER
  5
206
100
AcDbSymbolTableRecord
100
AcDbLayerTableRecord
  2
10_NOTES
 70
0
 62
7
  6
CONTINUOUS
370
-3
390
F
  0
LAYER
  5
207
100
AcDbSymbolTableRecord
100
AcDbLayerTableRecord
  2
11_NOTES_PUB
 70
0
 62
7
  6
CONTINUOUS
370
-3
390
F
  0
LAYER
  5
208
100
AcDbSymbolTableRecord
100
AcDbLayerTableRecord
  2
13_REF_GTOL
 70
0
 62
7
  6
CONTINUOUS
370
-3
390
F
  0
LAYER
  5
209
100
AcDbSymbolTableRecord
100
AcDbLayerTableRecord
  2
16_MISC
 70
0
 62
7
  6
CONTINUOUS
370
-3
390
F
  0
LAYER
  5
20A
100
AcDbSymbolTableRecord
100
AcDbLayerTableRecord
  2
17_NO_PRINT
 70
0
 62
7
  6
CONTINUOUS
370
-3
390
F
  0
LAYER
  5
20B
100
AcDbSymbolTableRecord
100
AcDbLayerTableRecord
  2
18_DATUM_CAMS_JOINTS
 70
0
 62
7
  6
CONTINUOUS
370
-3
390
F
  0
LAYER
  5
20C
100
AcDbSymbolTableRecord
100
AcDbLayerTableRecord
  2
19_DATUM_FUNCTIONAL
 70
0
 62
7
  6
CONTINUOUS
370
-3
390
F
  0
LAYER
  5
20D
100
AcDbSymbolTableRecord
100
AcDbLayerTableRecord
  2
20_DATUM_KINEMATIC_SCHEME
 70
0
 62
7
  6
CONTINUOUS
370
-3
390
F
  0
ENDTAB
  0
TABLE
  2
STYLE
  5
3
100
AcDbSymbolTable
 70
1
  0
STYLE
  5
11
100
AcDbSymbolTableRecord
100
AcDbTextStyleTableRecord
  2
STANDARD
 70
0
 40
0.0
 41
1.0
 50
0.0
 71
0
 42
0.2
  3
ARIAL.TTF
  4

  0
STYLE
  5
20E
100
AcDbSymbolTableRecord
100
AcDbTextStyleTableRecord
  2
TEXTSTYLE_1
 70
0
 40
0.0
 41
0.8
 50
0.0
 71
0
 42
0.2
  3
gdt
  4

  0
ENDTAB
  0
TABLE
  2
VIEW
  5
6
100
AcDbSymbolTable
 70
0
  0
ENDTAB
  0
TABLE
  2
UCS
  5
7
100
AcDbSymbolTable
 70
0
  0
ENDTAB
  0
TABLE
  2
APPID
  5
9
100
AcDbSymbolTable
 70
1
  0
APPID
  5
20F
100
AcDbSymbolTableRecord
100
AcDbRegAppTableRecord
  2
ACAD
 70
0
  0
ENDTAB
  0
TABLE
  2
BLOCK_RECORD
  5
1
100
AcDbSymbolTable
 70
0
  0
BLOCK_RECORD
  5
210
100
AcDbSymbolTableRecord
100
AcDbBlockTableRecord
  2
*Model_Space
  0
BLOCK_RECORD
  5
211
100
AcDbSymbolTableRecord
100
AcDbBlockTableRecord
  2
*Paper_Space
  0
BLOCK_RECORD
  5
212
100
AcDbSymbolTableRecord
100
AcDbBlockTableRecord
  2
_FILLED
  0
ENDTAB
  0
TABLE
  2
DIMSTYLE
  5
A
100
AcDbSymbolTable
 70
1
100
AcDbDimStyleTable
 71
0
  0
DIMSTYLE
105
213
100
AcDbSymbolTableRecord
100
AcDbDimStyleTableRecord
  2
STANDARD
 70
0
  3

  4

 40
1.0
 41
0.4632621675
 42
1.0
 43
0.38
 44
1.0
 45
0.0
 46
0.0
 47
0.01
 48
0.01
140
0.6485670345
141
0.09
142
0.0
143
25.4
144
1.0
145
0.0
146
1.0
147
0.625
 71
1
 72
0
 73
0
 74
0
 75
0
 76
0
 77
1
 78
8
 79
2
170
0
171
1
172
0
173
0
174
0
175
0
176
0
177
0
178
0
270
2
179
2
271
2
272
2
273
2
274
2
275
0
280
0
281
0
282
0
283
1
284
8
285
0
286
0
287
3
288
0
340
11
278
46
341
212
342
212
343
212
344
212
  0
ENDTAB
  0
ENDSEC
  0
SECTION
  2
BLOCKS
  0
BLOCK
  5
20
100
AcDbEntity
  8
0
100
AcDbBlockBegin
  2
*Model_Space
 70
0
 10
0.0
 20
0.0
 30
0.0
  3
*Model_Space
  1

  0
ENDBLK
  5
21
100
AcDbEntity
  8
0
100
AcDbBlockEnd
  0
BLOCK
  5
1C
100
AcDbEntity
  8
0
100
AcDbBlockBegin
  2
*Paper_Space
 70
0
 10
0.0
 20
0.0
 30
0.0
  3
*Paper_Space
  1

  0
ENDBLK
  5
1D
100
AcDbEntity
  8
0
100
AcDbBlockEnd
  0
BLOCK
  5
214
100
AcDbEntity
  8
0
100
AcDbBlockBegin
  2
_FILLED
 70
64
 10
0.0
 20
0.0
  3
_FILLED
  1

  0
SOLID
  5
215
100
AcDbEntity
  8
0
  6
BYBLOCK
 62
0
100
AcDbTrace
 10
0.0
 20
0.0
 11
-1.0
 21
0.25
 12
-1.0
 22
-0.25
 13
-1.0
 23
-0.25
  0
ENDBLK
  5
216
100
AcDbEntity
  8
0
  6
BYBLOCK
 62
0
100
AcDbBlockEnd
  0
ENDSEC
  0
SECTION
  2
ENTITIES
  0
LINE
  5
217
100
AcDbEntity
  8
0
100
AcDbLine
 62
7
  6
BYLAYER
 10
25.845914667
 20
4.479637424
 11
14.1459760402
 21
4.479637424
  0
LINE
  5
218
100
AcDbEntity
  8
0
100
AcDbLine
 62
7
  6
BYLAYER
 10
26.3459147839
 20
4.979637424
 11
13.6459147839
 21
4.979637424
  0
LINE
  5
219
100
AcDbEntity
  8
0
100
AcDbLine
 62
7
  6
BYLAYER
 10
13.6459147839
 20
6.979637424
 11
26.3459147839
 21
6.979637424
  0
LINE
  5
21A
100
AcDbEntity
  8
0
100
AcDbLine
 62
7
  6
BYLAYER
 10
25.9959147839
 20
7.079637424
 11
13.9959147839
 21
7.079637424
  0
LINE
  5
21B
100
AcDbEntity
  8
0
100
AcDbLine
 62
7
  6
BYLAYER
 10
25.9959147839
 20
8.079637424
 11
13.9959147839
 21
8.079637424
  0
LINE
  5
21C
100
AcDbEntity
  8
0
100
AcDbLine
 62
7
  6
BYLAYER
 10
26.3459147839
 20
8.179637424
 11
13.6459147839
 21
8.179637424
  0
LINE
  5
21D
100
AcDbEntity
  8
0
100
AcDbLine
 62
7
  6
BYLAYER
 10
13.6459147839
 20
9.329637424
 11
26.3459147839
 21
9.329637424
  0
LINE
  5
21E
100
AcDbEntity
  8
0
100
AcDbLine
 62
7
  6
BYLAYER
 10
26.6959076268
 20
10.669637424
 11
13.2959219411
 21
10.669637424
  0
LINE
  5
21F
100
AcDbEntity
  8
0
100
AcDbLine
 62
7
  6
BYLAYER
 10
27.9959147839
 20
12.779637424
 11
11.9959147839
 21
12.779637424
  0
LINE
  5
220
100
AcDbEntity
  8
0
100
AcDbLine
 62
7
  6
BYLAYER
 10
11.9959147839
 20
16.179637424
 11
27.9959147839
 21
16.179637424
  0
LINE
  5
221
100
AcDbEntity
  8
0
100
AcDbLine
 62
7
  6
BYLAYER
 10
12.4959147839
 20
16.679637424
 11
27.4959147839
 21
16.679637424
  0
LINE
  5
222
100
AcDbEntity
  8
0
100
AcDbLine
 62
7
  6
BYLAYER
 10
16.1459147839
 20
16.979637424
 11
16.4959147839
 21
16.979637424
  0
LINE
  5
223
100
AcDbEntity
  8
0
100
AcDbLine
 62
7
  6
BYLAYER
 10
23.4959147839
 20
16.979637424
 11
23.8459147839
 21
16.979637424
  0
LINE
  5
224
100
AcDbEntity
  8
0
100
AcDbLine
 62
7
  6
BYLAYER
 10
11.9959147839
 20
12.779637424
 11
11.9959147839
 21
26.079631596
  0
LINE
  5
225
100
AcDbEntity
  8
0
100
AcDbLine
 62
7
  6
BYLAYER
 10
27.9959147839
 20
18.379637424
 11
23.9959147839
 21
18.379637424
  0
LINE
  5
226
100
AcDbEntity
  8
0
100
AcDbLine
 62
7
  6
BYLAYER
 10
15.9959147839
 20
18.379637424
 11
11.9959147839
 21
18.379637424
  0
LINE
  5
227
100
AcDbEntity
  8
0
100
AcDbLine
 62
7
  6
BYLAYER
 10
23.8459147839
 20
19.304637424
 11
23.9959147839
 21
19.304637424
  0
LINE
  5
228
100
AcDbEntity
  8
0
100
AcDbLine
 62
7
  6
BYLAYER
 10
15.9959147839
 20
19.5355775317
 11
16.1459147839
 21
19.4489749913
  0
LINE
  5
229
100
AcDbEntity
  8
0
100
AcDbLine
 62
7
  6
BYLAYER
 10
12.4959147839
 20
16.679637424
 11
12.4959147839
 21
26.579637424
  0
LINE
  5
22A
100
AcDbEntity
  8
0
100
AcDbLine
 62
7
  6
BYLAYER
 10
13.2959147839
 20
10.669637424
 11
13.2959147839
 21
12.779637424
  0
LINE
  5
22B
100
AcDbEntity
  8
0
100
AcDbLine
 62
7
  6
BYLAYER
 10
13.6459147839
 20
9.329637424
 11
13.6459147839
 21
8.179637424
  0
LINE
  5
22C
100
AcDbEntity
  8
0
100
AcDbLine
 62
7
  6
BYLAYER
 10
13.6459147839
 20
6.979637424
 11
13.6459147839
 21
4.979637424
  0
LINE
  5
22D
100
AcDbEntity
  8
0
100
AcDbLine
 62
7
  6
BYLAYER
 10
23.2459147839
 20
36.9640086059
 11
22.9959147839
 21
36.8196710386
  0
LINE
  5
22E
100
AcDbEntity
  8
0
100
AcDbLine
 62
7
  6
BYLAYER
 10
13.9959147839
 20
25.6303132882
 11
13.9959147839
 21
44.5079646739
  0
LINE
  5
22F
100
AcDbEntity
  8
0
100
AcDbLine
 62
7
  6
BYLAYER
 10
14.3959147839
 20
8.079637424
 11
14.3959147839
 21
8.179637424
  0
LINE
  5
230
100
AcDbEntity
  8
0
100
AcDbLine
 62
7
  6
BYLAYER
 10
14.4959147839
 20
10.669637424
 11
14.4959147839
 21
9.329637424
  0
LINE
  5
231
100
AcDbEntity
  8
0
100
AcDbLine
 62
7
  6
BYLAYER
 10
26.0459147839
 20
37.9390086059
 11
25.9959147839
 21
37.9101410924
  0
LINE
  5
232
100
AcDbEntity
  8
0
100
AcDbLine
 62
7
  6
BYLAYER
 10
11.9959147839
 20
21.779637424
 11
15.9959147839
 21
21.779637424
  0
LINE
  5
233
100
AcDbEntity
  8
0
100
AcDbLine
 62
7
  6
BYLAYER
 10
23.9959147839
 20
21.779637424
 11
27.9959147839
 21
21.779637424
  0
LINE
  5
234
100
AcDbEntity
  8
0
100
AcDbLine
 62
7
  6
BYLAYER
 10
16.4959147839
 20
22.441620927
 11
23.4959147839
 21
22.441620927
  0
LINE
  5
235
100
AcDbEntity
  8
0
100
AcDbLine
 62
7
  6
BYLAYER
 10
16.6625807496
 20
22.6388234661
 11
23.3292488183
 21
22.6388234661
  0
LINE
  5
236
100
AcDbEntity
  8
0
100
AcDbLine
 62
7
  6
BYLAYER
 10
16.9959147839
 20
22.834637424
 11
22.9959147839
 21
22.834637424
  0
LINE
  5
237
100
AcDbEntity
  8
0
100
AcDbLine
 62
7
  6
BYLAYER
 10
15.9959147839
 20
25.6303132882
 11
15.9959147839
 21
17.179637424
  0
LINE
  5
238
100
AcDbEntity
  8
0
100
AcDbLine
 62
7
  6
BYLAYER
 10
16.1459147839
 20
16.9796587956
 11
16.1459147839
 21
25.6303132882
  0
LINE
  5
239
100
AcDbEntity
  8
0
100
AcDbLine
 62
7
  6
BYLAYER
 10
16.4959147839
 20
22.4416209252
 11
16.4959147839
 21
16.679637424
  0
LINE
  5
23A
100
AcDbEntity
  8
0
100
AcDbLine
 62
7
  6
BYLAYER
 10
16.7459147839
 20
44.5079646872
 11
16.7459147839
 21
28.2744082828
  0
LINE
  5
23B
100
AcDbEntity
  8
0
100
AcDbLine
 62
7
  6
BYLAYER
 10
11.9959147839
 20
26.079637424
 11
12.4959147839
 21
26.579637424
  0
LINE
  5
23C
100
AcDbEntity
  8
0
100
AcDbLine
 62
7
  6
BYLAYER
 10
16.6625814506
 20
22.6388235846
 11
18.995914784
 21
22.834637424
  0
LINE
  5
23D
100
AcDbEntity
  8
0
100
AcDbLine
 62
7
  6
BYLAYER
 10
22.9959147839
 20
23.7799167865
 11
16.9959147839
 21
23.7799167865
  0
LINE
  5
23E
100
AcDbEntity
  8
0
100
AcDbLine
 62
7
  6
BYLAYER
 10
23.9959147839
 20
24.254637424
 11
23.8459147839
 21
24.254637424
  0
LINE
  5
23F
100
AcDbEntity
  8
0
100
AcDbLine
 62
7
  6
BYLAYER
 10
23.3292481173
 20
22.6388235846
 11
20.9959147839
 21
22.834637424
  0
LINE
  5
240
100
AcDbEntity
  8
0
100
AcDbLine
 62
7
  6
BYLAYER
 10
16.9959147839
 20
33.3202627831
 11
16.9959147839
 21
32.5228428959
  0
LINE
  5
241
100
AcDbEntity
  8
0
100
AcDbLine
 62
7
  6
BYLAYER
 10
16.9959147839
 20
22.8346643463
 11
16.9959147839
 21
25.6303132882
  0
LINE
  5
242
100
AcDbEntity
  8
0
100
AcDbLine
 62
7
  6
BYLAYER
 10
16.9959147839
 20
35.7081079455
 11
16.9959147839
 21
43.7080290509
  0
LINE
  5
243
100
AcDbEntity
  8
0
100
AcDbLine
 62
7
  6
BYLAYER
 10
17.2459147839
 20
28.7081202248
 11
17.2459147839
 21
50.7080167715
  0
LINE
  5
244
100
AcDbEntity
  8
0
100
AcDbLine
 62
7
  6
BYLAYER
 10
13.9959147839
 20
25.6303132882
 11
25.9959147839
 21
25.6303132882
  0
LINE
  5
245
100
AcDbEntity
  8
0
100
AcDbLine
 62
7
  6
BYLAYER
 10
27.9959147839
 20
16.179637424
 11
27.4959147839
 21
16.679637424
  0
LINE
  5
246
100
AcDbEntity
  8
0
100
AcDbLine
 62
7
  6
BYLAYER
 10
12.4959147839
 20
26.579637424
 11
13.9959147839
 21
26.579637424
  0
LINE
  5
247
100
AcDbEntity
  8
0
100
AcDbLine
 62
7
  6
BYLAYER
 10
25.9959147839
 20
26.579637424
 11
27.4959147839
 21
26.579637424
  0
LINE
  5
248
100
AcDbEntity
  8
0
100
AcDbLine
 62
7
  6
BYLAYER
 10
13.9959147839
 20
26.6270881472
 11
25.9959147839
 21
26.6270881472
  0
LINE
  5
249
100
AcDbEntity
  8
0
100
AcDbLine
 62
7
  6
BYLAYER
 10
25.9959147839
 20
26.6889642201
 11
13.9959147839
 21
26.6889642201
  0
LINE
  5
24A
100
AcDbEntity
  8
0
100
AcDbLine
 62
7
  6
BYLAYER
 10
16.1459147839
 20
24.1102998567
 11
15.9959147839
 21
24.0236973164
  0
LINE
  5
24B
100
AcDbEntity
  8
0
100
AcDbLine
 62
7
  6
BYLAYER
 10
25.9959147839
 20
28.2744082828
 11
23.2459147839
 21
28.2744082828
  0
LINE
  5
24C
100
AcDbEntity
  8
0
100
AcDbLine
 62
7
  6
BYLAYER
 10
16.7459147839
 20
28.2744082828
 11
13.9959147839
 21
28.2744082828
  0
LINE
  5
24D
100
AcDbEntity
  8
0
100
AcDbLine
 62
7
  6
BYLAYER
 10
17.2459147839
 20
28.7080684982
 11
22.7459147839
 21
28.7080684982
  0
LINE
  5
24E
100
AcDbEntity
  8
0
100
AcDbLine
 62
7
  6
BYLAYER
 10
22.7459147839
 20
50.7080246179
 11
22.7459147839
 21
28.7081123785
  0
LINE
  5
24F
100
AcDbEntity
  8
0
100
AcDbLine
 62
7
  6
BYLAYER
 10
22.9959147839
 20
43.7079634854
 11
22.9959147839
 21
35.708173511
  0
LINE
  5
250
100
AcDbEntity
  8
0
100
AcDbLine
 62
7
  6
BYLAYER
 10
22.9959147839
 20
25.6303132882
 11
22.9959147839
 21
22.8346643463
  0
LINE
  5
251
100
AcDbEntity
  8
0
100
AcDbLine
 62
7
  6
BYLAYER
 10
22.9959147839
 20
32.5228428959
 11
22.9959147839
 21
33.3202627831
  0
LINE
  5
252
100
AcDbEntity
  8
0
100
AcDbLine
 62
7
  6
BYLAYER
 10
23.2459147839
 20
28.2744082828
 11
23.2459147839
 21
44.5079646739
  0
LINE
  5
253
100
AcDbEntity
  8
0
100
AcDbLine
 62
7
  6
BYLAYER
 10
12.4959147839
 20
16.679637424
 11
11.9959147839
 21
16.179637424
  0
LINE
  5
254
100
AcDbEntity
  8
0
100
AcDbLine
 62
7
  6
BYLAYER
 10
16.7459147839
 20
29.982871541
 11
17.2459147839
 21
29.982871541
  0
LINE
  5
255
100
AcDbEntity
  8
0
100
AcDbLine
 62
7
  6
BYLAYER
 10
22.7459147839
 20
29.982871541
 11
23.2459147839
 21
29.982871541
  0
LINE
  5
256
100
AcDbEntity
  8
0
100
AcDbLine
 62
7
  6
BYLAYER
 10
23.4959147839
 20
22.4416209252
 11
23.4959147839
 21
16.679637424
  0
LINE
  5
257
100
AcDbEntity
  8
0
100
AcDbLine
 62
7
  6
BYLAYER
 10
23.8459147839
 20
25.6303132882
 11
23.8459147839
 21
16.9796420652
  0
LINE
  5
258
100
AcDbEntity
  8
0
100
AcDbLine
 62
7
  6
BYLAYER
 10
23.9959147839
 20
17.179637424
 11
23.9959147839
 21
25.6303132882
  0
LINE
  5
259
100
AcDbEntity
  8
0
100
AcDbLine
 62
7
  6
BYLAYER
 10
16.7459147839
 20
31.9861257894
 11
17.2459147839
 21
31.9861257894
  0
LINE
  5
25A
100
AcDbEntity
  8
0
100
AcDbLine
 62
7
  6
BYLAYER
 10
22.7459147839
 20
31.9861257894
 11
23.2459147839
 21
31.9861257894
  0
LINE
  5
25B
100
AcDbEntity
  8
0
100
AcDbLine
 62
7
  6
BYLAYER
 10
27.9959147839
 20
26.079637424
 11
27.4959147839
 21
26.579637424
  0
LINE
  5
25C
100
AcDbEntity
  8
0
100
AcDbLine
 62
7
  6
BYLAYER
 10
25.4959147839
 20
9.329637424
 11
25.4959147839
 21
10.669637424
  0
LINE
  5
25D
100
AcDbEntity
  8
0
100
AcDbLine
 62
7
  6
BYLAYER
 10
25.5959147839
 20
8.079637424
 11
25.5959147839
 21
8.179637424
  0
LINE
  5
25E
100
AcDbEntity
  8
0
100
AcDbLine
 62
7
  6
BYLAYER
 10
25.9959147839
 20
25.6303132882
 11
25.9959147839
 21
44.5079646872
  0
LINE
  5
25F
100
AcDbEntity
  8
0
100
AcDbLine
 62
7
  6
BYLAYER
 10
26.0459147839
 20
41.4770825441
 11
26.0459147839
 21
37.9390544522
  0
LINE
  5
260
100
AcDbEntity
  8
0
100
AcDbLine
 62
7
  6
BYLAYER
 10
26.3459147839
 20
4.979637424
 11
26.3459147839
 21
6.979637424
  0
LINE
  5
261
100
AcDbEntity
  8
0
100
AcDbLine
 62
7
  6
BYLAYER
 10
26.3459147839
 20
8.179637424
 11
26.3459147839
 21
9.329637424
  0
LINE
  5
262
100
AcDbEntity
  8
0
100
AcDbLine
 62
7
  6
BYLAYER
 10
26.6959147839
 20
10.669637424
 11
26.6959147839
 21
12.779637424
  0
LINE
  5
263
100
AcDbEntity
  8
0
100
AcDbLine
 62
7
  6
BYLAYER
 10
23.2459147839
 20
33.2731697908
 11
22.9959147839
 21
33.2731697908
  0
LINE
  5
264
100
AcDbEntity
  8
0
100
AcDbLine
 62
7
  6
BYLAYER
 10
16.9959147839
 20
33.2731697908
 11
16.7459147839
 21
33.2731697908
  0
LINE
  5
265
100
AcDbEntity
  8
0
100
AcDbLine
 62
7
  6
BYLAYER
 10
27.4959147839
 20
26.579637424
 11
27.4959147839
 21
16.679637424
  0
LINE
  5
266
100
AcDbEntity
  8
0
100
AcDbLine
 62
7
  6
BYLAYER
 10
27.9959147839
 20
12.779637424
 11
27.9959147839
 21
26.079631596
  0
LINE
  5
267
100
AcDbEntity
  8
0
100
AcDbLine
 62
7
  6
BYLAYER
 10
16.9959147839
 20
35.7080684982
 11
17.2459147839
 21
35.7080684982
  0
LINE
  5
268
100
AcDbEntity
  8
0
100
AcDbLine
 62
7
  6
BYLAYER
 10
22.7459147839
 20
35.7080684982
 11
22.9959147839
 21
35.7080684982
  0
LINE
  5
269
100
AcDbEntity
  8
0
100
AcDbLine
 62
7
  6
BYLAYER
 10
13.9959147839
 20
36.2646970359
 11
16.7459147839
 21
36.2646970359
  0
LINE
  5
26A
100
AcDbEntity
  8
0
100
AcDbLine
 62
7
  6
BYLAYER
 10
23.2459147839
 20
36.2646970359
 11
25.9959147839
 21
36.2646970359
  0
LINE
  5
26B
100
AcDbEntity
  8
0
100
AcDbLine
 62
7
  6
BYLAYER
 10
16.7459147839
 20
36.7330684982
 11
16.9959147839
 21
36.7330684982
  0
LINE
  5
26C
100
AcDbEntity
  8
0
100
AcDbLine
 62
7
  6
BYLAYER
 10
23.2459147839
 20
42.4521283905
 11
22.9959147839
 21
42.5964659578
  0
LINE
  5
26D
100
AcDbEntity
  8
0
100
AcDbLine
 62
7
  6
BYLAYER
 10
16.7459147839
 20
42.6830684982
 11
16.9959147839
 21
42.6830684982
  0
LINE
  5
26E
100
AcDbEntity
  8
0
100
AcDbLine
 62
7
  6
BYLAYER
 10
16.9959147839
 20
43.7080684982
 11
17.2459147839
 21
43.7080684982
  0
LINE
  5
26F
100
AcDbEntity
  8
0
100
AcDbLine
 62
7
  6
BYLAYER
 10
22.7459147839
 20
43.7080684982
 11
22.9959147839
 21
43.7080684982
  0
LINE
  5
270
100
AcDbEntity
  8
0
100
AcDbLine
 62
7
  6
BYLAYER
 10
26.0459147839
 20
41.4771283905
 11
25.9959147839
 21
41.505995904
  0
LINE
  5
271
100
AcDbEntity
  8
0
100
AcDbLine
 62
7
  6
BYLAYER
 10
25.9959147839
 20
44.5080684982
 11
23.2459147839
 21
44.5080684982
  0
LINE
  5
272
100
AcDbEntity
  8
0
100
AcDbLine
 62
7
  6
BYLAYER
 10
16.7459147839
 20
44.5080684982
 11
13.9959147839
 21
44.5080684982
  0
LINE
  5
273
100
AcDbEntity
  8
0
100
AcDbLine
 62
7
  6
BYLAYER
 10
17.2459147839
 20
50.7080684982
 11
22.7459147839
 21
50.7080684982
  0
ARC
  5
274
100
AcDbEntity
  8
0
100
AcDbCircle
 62
7
  6
BYLAYER
 10
25.9959147839
 20
7.579637424
 40
0.5
100
AcDbArc
 50
270.0
 51
90.0
  0
ARC
  5
275
100
AcDbEntity
  8
0
100
AcDbCircle
 62
7
  6
BYLAYER
 10
13.9959147839
 20
7.579637424
 40
0.5
100
AcDbArc
 50
90.0
 51
270.0
  0
ARC
  5
276
100
AcDbEntity
  8
0
100
AcDbCircle
 62
7
  6
BYLAYER
 10
23.4959147839
 20
17.179637424
 40
0.5
100
AcDbArc
 50
276.2079573133
 51
359.9999999939
  0
ARC
  5
277
100
AcDbEntity
  8
0
100
AcDbCircle
 62
7
  6
BYLAYER
 10
16.4959147839
 20
17.179637424
 40
0.5
100
AcDbArc
 50
180.0000000061
 51
263.7910093929
  0
ARC
  5
278
100
AcDbEntity
  8
0
100
AcDbCircle
 62
7
  6
BYLAYER
 10
14.1459147839
 20
4.979637424
 40
0.5
100
AcDbArc
 50
180.0
 51
270.0
  0
ARC
  5
279
100
AcDbEntity
  8
0
100
AcDbCircle
 62
7
  6
BYLAYER
 10
25.8459147839
 20
4.979637424
 40
0.5
100
AcDbArc
 50
270.0
 51
360.0
  0
ARC
  5
27A
100
AcDbEntity
  8
0
100
AcDbCircle
 62
7
  6
BYLAYER
 10
25.8959147839
 20
7.279637424
 40
0.3
100
AcDbArc
 50
220.6967041526
 51
269.9998922469
  0
ARC
  5
27B
100
AcDbEntity
  8
0
100
AcDbCircle
 62
7
  6
BYLAYER
 10
14.0959147839
 20
7.279637424
 40
0.3
100
AcDbArc
 50
270.0001077531
 51
319.3032958474
  0
ARC
  5
27C
100
AcDbEntity
  8
0
100
AcDbCircle
 62
7
  6
BYLAYER
 10
16.6959147839
 20
22.4416209252
 40
0.2
100
AcDbArc
 50
99.5940682268
 51
180.0
  0
ARC
  5
27D
100
AcDbEntity
  8
0
100
AcDbCircle
 62
7
  6
BYLAYER
 10
23.2959147839
 20
22.4416209252
 40
0.2
100
AcDbArc
 50
0.0
 51
80.4059317732
  0
SPLINE
  5
27E
100
AcDbEntity
  8
0
100
AcDbSpline
 62
7
  6
BYLAYER
 70
0
 71
3
 72
20
 73
16
 74
0
 42
0.0000001
 43
0.0000001
 44
0.0000000001
 40
0.0
 40
0.0
 40
0.0
 40
0.0
 40
0.0226454063
 40
0.0474462132
 40
0.0760573545
 40
0.1095660199
 40
0.1486460224
 40
0.193715098
 40
0.2450271748
 40
0.3027356836
 40
0.3669358898
 40
0.4376857927
 40
0.5989285114
 40
0.7864504452
 40
1.0
 40
1.0
 40
1.0
 40
1.0
 10
22.9959147839
 20
32.5228428959
 30
0.0
 10
22.9959147839
 20
32.5207573027
 30
0.0
 10
22.9951738427
 20
32.5163636245
 30
0.0
 10
22.9919963633
 20
32.5100362539
 30
0.0
 10
22.9868659899
 20
32.5038274107
 30
0.0
 10
22.9798160578
 20
32.4976866048
 30
0.0
 10
22.9708419129
 20
32.491580156
 30
0.0
 10
22.9599347053
 20
32.4854990177
 30
0.0
 10
22.9470923449
 20
32.4794406213
 30
0.0
 10
22.9323177769
 20
32.4734068567
 30
0.0
 10
22.9156170961
 20
32.4674009197
 30
0.0
 10
22.8896372438
 20
32.4590693462
 30
0.0
 10
22.8523390218
 20
32.4489200414
 30
0.0
 10
22.8018473876
 20
32.4373658755
 30
0.0
 10
22.7655949075
 20
32.4302531484
 30
0.0
 10
22.7462528763
 20
32.4266901976
 30
0.0
  0
SPLINE
  5
27F
100
AcDbEntity
  8
0
100
AcDbSpline
 62
7
  6
BYLAYER
 70
0
 71
3
 72
20
 73
16
 74
0
 42
0.0000001
 43
0.0000001
 44
0.0000000001
 40
0.0
 40
0.0
 40
0.0
 40
0.0
 40
0.2135595491
 40
0.4010905993
 40
0.5623401284
 40
0.6330925112
 40
0.6972944966
 40
0.7550039146
 40
0.8063158434
 40
0.8513835154
 40
0.8904607638
 40
0.9239651537
 40
0.9525703165
 40
0.9773634481
 40
1.0
 40
1.0
 40
1.0
 40
1.0
 10
17.2458200971
 20
32.4266453853
 30
0.0
 10
17.2264594911
 20
32.4302097913
 30
0.0
 10
17.1901720924
 20
32.4373254784
 30
0.0
 10
17.1396315762
 20
32.4488846211
 30
0.0
 10
17.1022969899
 20
32.4590385167
 30
0.0
 10
17.0762916596
 20
32.4673739695
 30
0.0
 10
17.0595746
 20
32.4733827192
 30
0.0
 10
17.0447855149
 20
32.47941934
 30
0.0
 10
17.0319305301
 20
32.4854806244
 30
0.0
 10
17.0210126144
 20
32.4915646893
 30
0.0
 10
17.0120296614
 20
32.4976740716
 30
0.0
 10
17.0049727893
 20
32.5038178152
 30
0.0
 10
16.9998373071
 20
32.5100296403
 30
0.0
 10
16.996656543
 20
32.5163601582
 30
0.0
 10
16.9959147839
 20
32.5207562515
 30
0.0
 10
16.9959147839
 20
32.5228428959
 30
0.0
  0
SPLINE
  5
280
100
AcDbEntity
  8
0
100
AcDbSpline
 62
7
  6
BYLAYER
 70
0
 71
3
 72
20
 73
16
 74
0
 42
0.0000001
 43
0.0000001
 44
0.0000000001
 40
0.0
 40
0.0
 40
0.0
 40
0.0
 40
0.0226454063
 40
0.0474462132
 40
0.0760573545
 40
0.1095660199
 40
0.1486460224
 40
0.193715098
 40
0.2450271748
 40
0.3027356836
 40
0.3669358898
 40
0.4376857927
 40
0.5989285114
 40
0.7864504452
 40
1.0
 40
1.0
 40
1.0
 40
1.0
 10
22.9959147839
 20
33.3202627831
 30
0.0
 10
22.9959147839
 20
33.3223483764
 30
0.0
 10
22.9951738427
 20
33.3267420546
 30
0.0
 10
22.9919963633
 20
33.3330694251
 30
0.0
 10
22.9868659899
 20
33.3392782683
 30
0.0
 10
22.9798160578
 20
33.3454190742
 30
0.0
 10
22.9708419129
 20
33.351525523
 30
0.0
 10
22.9599347053
 20
33.3576066613
 30
0.0
 10
22.9470923449
 20
33.3636650577
 30
0.0
 10
22.9323177769
 20
33.3696988224
 30
0.0
 10
22.9156170961
 20
33.3757047593
 30
0.0
 10
22.8896372438
 20
33.3840363329
 30
0.0
 10
22.8523390218
 20
33.3941856376
 30
0.0
 10
22.8018473876
 20
33.4057398035
 30
0.0
 10
22.7655949075
 20
33.4128525306
 30
0.0
 10
22.7462528763
 20
33.4164154814
 30
0.0
  0
SPLINE
  5
281
100
AcDbEntity
  8
0
100
AcDbSpline
 62
7
  6
BYLAYER
 70
0
 71
3
 72
20
 73
16
 74
0
 42
0.0000001
 43
0.0000001
 44
0.0000000001
 40
0.0
 40
0.0
 40
0.0
 40
0.0
 40
0.2135595491
 40
0.4010905993
 40
0.5623401284
 40
0.6330925112
 40
0.6972944966
 40
0.7550039146
 40
0.8063158434
 40
0.8513835154
 40
0.8904607638
 40
0.9239651537
 40
0.9525703165
 40
0.9773634481
 40
1.0
 40
1.0
 40
1.0
 40
1.0
 10
17.2458200971
 20
33.4164602937
 30
0.0
 10
17.2264594911
 20
33.4128958877
 30
0.0
 10
17.1901720924
 20
33.4057802006
 30
0.0
 10
17.1396315762
 20
33.3942210579
 30
0.0
 10
17.1022969899
 20
33.3840671623
 30
0.0
 10
17.0762916596
 20
33.3757317095
 30
0.0
 10
17.0595746
 20
33.3697229599
 30
0.0
 10
17.0447855149
 20
33.363686339
 30
0.0
 10
17.0319305301
 20
33.3576250546
 30
0.0
 10
17.0210126144
 20
33.3515409897
 30
0.0
 10
17.0120296614
 20
33.3454316074
 30
0.0
 10
17.0049727893
 20
33.3392878638
 30
0.0
 10
16.9998373071
 20
33.3330760388
 30
0.0
 10
16.996656543
 20
33.3267455208
 30
0.0
 10
16.9959147839
 20
33.3223494276
 30
0.0
 10
16.9959147839
 20
33.3202627831
 30
0.0
  0
SPLINE
  5
282
100
AcDbEntity
  8
0
100
AcDbSpline
 62
7
  6
BYLAYER
 70
0
 71
3
 72
20
 73
16
 74
0
 42
0.0000001
 43
0.0000001
 44
0.0000000001
 40
0.0
 40
0.0
 40
0.0
 40
0.0
 40
0.0226454063
 40
0.0474462132
 40
0.0760573545
 40
0.1095660199
 40
0.1486460224
 40
0.193715098
 40
0.2450271748
 40
0.3027356836
 40
0.3669358898
 40
0.4376857927
 40
0.5989285114
 40
0.7864504452
 40
1.0
 40
1.0
 40
1.0
 40
1.0
 10
16.9959147839
 20
33.3202627831
 30
0.0
 10
16.9959147839
 20
33.3181771899
 30
0.0
 10
16.9966557252
 20
33.3137835117
 30
0.0
 10
16.9998332046
 20
33.3074561412
 30
0.0
 10
17.0049635779
 20
33.3012472979
 30
0.0
 10
17.0120135101
 20
33.2951064921
 30
0.0
 10
17.0209876549
 20
33.2890000432
 30
0.0
 10
17.0318948625
 20
33.2829189049
 30
0.0
 10
17.0447372229
 20
33.2768605085
 30
0.0
 10
17.0595117909
 20
33.2708267439
 30
0.0
 10
17.0762124718
 20
33.2648208069
 30
0.0
 10
17.102192324
 20
33.2564892334
 30
0.0
 10
17.1394905461
 20
33.2463399286
 30
0.0
 10
17.1899821803
 20
33.2347857627
 30
0.0
 10
17.2262346604
 20
33.2276730356
 30
0.0
 10
17.2455766915
 20
33.2241100848
 30
0.0
  0
SPLINE
  5
283
100
AcDbEntity
  8
0
100
AcDbSpline
 62
7
  6
BYLAYER
 70
0
 71
3
 72
20
 73
16
 74
0
 42
0.0000001
 43
0.0000001
 44
0.0000000001
 40
0.0
 40
0.0
 40
0.0
 40
0.0
 40
0.2135595491
 40
0.4010905993
 40
0.5623401284
 40
0.6330925112
 40
0.6972944966
 40
0.7550039146
 40
0.8063158434
 40
0.8513835154
 40
0.8904607638
 40
0.9239651537
 40
0.9525703165
 40
0.9773634481
 40
1.0
 40
1.0
 40
1.0
 40
1.0
 10
22.7460094708
 20
33.2240652725
 30
0.0
 10
22.7653700767
 20
33.2276296785
 30
0.0
 10
22.8016574755
 20
33.2347453656
 30
0.0
 10
22.8521979916
 20
33.2463045083
 30
0.0
 10
22.889532578
 20
33.2564584039
 30
0.0
 10
22.9155379083
 20
33.2647938567
 30
0.0
 10
22.9322549678
 20
33.2708026064
 30
0.0
 10
22.947044053
 20
33.2768392272
 30
0.0
 10
22.9598990378
 20
33.2829005116
 30
0.0
 10
22.9708169535
 20
33.2889845765
 30
0.0
 10
22.9797999065
 20
33.2950939588
 30
0.0
 10
22.9868567785
 20
33.3012377024
 30
0.0
 10
22.9919922607
 20
33.3074495275
 30
0.0
 10
22.9951730249
 20
33.3137800454
 30
0.0
 10
22.9959147839
 20
33.3181761387
 30
0.0
 10
22.9959147839
 20
33.3202627831
 30
0.0
  0
ENDSEC
  0
SECTION
  2
OBJECTS
  0
DICTIONARY
  5
C
100
AcDbDictionary
280
0
281
1
  3
ACAD_GROUP
350
D
  3
ACAD_MLINESTYLE
350
17
  3
ACAD_LAYOUT
350
1A
  3
ACAD_PLOTSETTINGS
350
19
  3
ACAD_PLOTSTYLENAME
350
E
  0
DICTIONARY
  5
D
102
{ACAD_REACTORS
330
C
102
}
100
AcDbDictionary
280
0
281
1
  0
ACDBDICTIONARYWDFLT
  5
E
102
{ACAD_REACTORS
330
C
102
}
100
AcDbDictionary
281
1
  3
Normal
350
F
100
AcDbDictionaryWithDefault
340
F
  0
DICTIONARY
  5
17
102
{ACAD_REACTORS
330
C
102
}
100
AcDbDictionary
280
0
281
1
  3
Standard
350
18
  0
DICTIONARY
  5
19
102
{ACAD_REACTORS
330
C
102
}
100
AcDbDictionary
281
1
  0
DICTIONARY
  5
1A
102
{ACAD_REACTORS
330
C
102
}
100
AcDbDictionary
281
1
  3
Model
350
284
  3
Layout1
350
285
  0
ACDBPLACEHOLDER
  5
F
102
{ACAD_REACTORS
330
E
102
}
  0
MLINESTYLE
  5
18
102
{ACAD_REACTORS
330
17
102
}
100
AcDbMlineStyle
  2
STANDARD
 70
0
  3

 62
256
 51
90.0
 52
90.0
 71
2
 49
0.5
 62
256
  6
BYLAYER
 49
-0.5
 62
256
  6
BYLAYER
  0
LAYOUT
  5
284
102
{ACAD_REACTORS
330
1A
102
}
100
AcDbPlotSettings
  1

  2
none_device
  4

  6

 40
0.0
 41
0.0
 42
0.0
 43
0.0
 44
210.0
 45
297.0
 46
0.0
 47
0.0
 48
0.0
 49
0.0
140
0.0
141
0.0
142
1.0
143
1.0
 70
1024
 72
1
 73
0
 74
0
  7

 75
0
147
1.0
148
0.0
149
0.0
100
AcDbLayout
  1
Model
 70
0
 71
0
 10
0.0
 20
0.0
 11
210.0
 21
297.0
 12
0.0
 22
0.0
 32
0.0
 14
0.0
 24
0.0
 34
0.0
 15
0.0
 25
0.0
 35
0.0
146
0.0
 13
0.0
 23
0.0
 33
0.0
 16
1.0
 26
0.0
 36
0.0
 17
0.0
 27
1.0
 37
0.0
 76
0
330
210
345
0
346
0
  0
LAYOUT
  5
285
102
{ACAD_REACTORS
330
1A
102
}
100
AcDbPlotSettings
  1

  2
none_device
  4

  6

 40
0.0
 41
0.0
 42
0.0
 43
0.0
 44
210.0
 45
297.0
 46
0.0
 47
0.0
 48
0.0
 49
0.0
140
0.0
141
0.0
142
1.0
143
1.0
 70
0
 72
1
 73
0
 74
0
  7

 75
0
147
1.0
148
0.0
149
0.0
100
AcDbLayout
  1
Layout1
 70
0
 71
1
 10
0.0
 20
0.0
 11
210.0
 21
297.0
 12
0.0
 22
0.0
 32
0.0
 14
0.0
 24
0.0
 34
0.0
 15
0.0
 25
0.0
 35
0.0
146
0.0
 13
0.0
 23
0.0
 33
0.0
 16
1.0
 26
0.0
 36
0.0
 17
0.0
 27
1.0
 37
0.0
 76
0
330
211
345
0
346
0
  0
ENDSEC
  0
EOF
