999
DXF file: C:\Users\sesa63760\Dev\_Creo\CAD\MCADID0004756_3D-CAD\drw0001_4.dxf
999
Pro/ENGINEER 2019471 by Parametric Technology Corporation
  0
SECTION
  2
HEADER
  9
$ACADVER
  1
AC1024
  9
$DWGCODEPAGE
  3
ANSI_1252
  9
$EXTMAX
 10
28.468244129
 20
40.2622309824
 30
0.0
  9
$EXTMIN
 10
0.0
 20
0.0
 30
0.0
  9
$LIMMIN
 10
0.0
 20
0.0
  9
$LIMMAX
 10
28.468244129
 20
40.2622309824
  9
$VIEWCTR
 10
14.2341220645
 20
20.1311154912
  9
$VIEWSIZE
 40
40.2622309824
  9
$CLAYER
  8
0
  9
$LTSCALE
 40
2.6245009826
  9
$CELTYPE
  6
BYLAYER
  9
$DIMSCALE
 40
1.0
  9
$DIMASZ
 40
0.3389076682
  9
$DIMEXO
 40
1.0
  9
$DIMDLI
 40
1.8132915879
  9
$DIMEXE
 40
1.0
  9
$DIMCEN
 40
0.4294637971
  9
$DIMLFAC
 40
1.0
  9
$DIMBLK
  1
_FILLED
  9
$DIMALT
 70
0
  9
$DIMALTF
 40
0.0393700787
  9
$DIMTXT
 40
0.4744707355
  9
$DIMTOL
 70
1
  9
$DIMLIM
 70
0
  9
$DIMTFAC
 40
1.0
  9
$DIMTP
 40
0.01
  9
$DIMTM
 40
0.01
  9
$DIMGAP
 40
0.625
  9
$DIMDSEP
 70
46
  9
$AUNITS
 70
0
  9
$PDMODE
 70
3
  9
$PDSIZE
 40
0.3125
  9
$HANDSEED
  5
272
  9
$TILEMODE
 70
1
  9
$MEASUREMENT
 70
1
  9
$INSUNITS
 70
4
  0
ENDSEC
  0
SECTION
  2
CLASSES
  0
CLASS
  1
ACDBDICTIONARYWDFLT
  2
AcDbDictionaryWithDefault
  3
AutoCAD 2000
 90
0
 91
1
280
0
281
0
  0
CLASS
  1
ACDBPLACEHOLDER
  2
AcDbPlaceHolder
  3
AutoCAD 2000
 90
0
 91
1
280
0
281
0
  0
CLASS
  1
LAYOUT
  2
AcDbLayout
  3
AutoCAD 2000
 90
0
 91
0
280
0
281
0
  0
ENDSEC
  0
SECTION
  2
TABLES
  0
TABLE
  2
VPORT
  5
8
100
AcDbSymbolTable
 70
2
  0
VPORT
  5
1F4
100
AcDbSymbolTableRecord
100
AcDbViewportTableRecord
  2
*ACTIVE
 70
0
 10
0.0
 20
0.0
 11
1.0
 21
1.0
 12
14.2341220645
 22
20.1311154912
 13
0.0
 23
0.0
 14
1.0
 24
1.0
 15
0.0
 25
0.0
 16
0.0
 26
0.0
 36
1.0
 17
0.0
 27
0.0
 37
0.0
 40
40.2622309824
 41
0.7070707071
 42
50.0
 43
0.0
 44
0.0
 50
0.0
 51
0.0
 71
0
 72
100
 73
1
 74
1
 75
0
 76
0
 77
0
 78
0
  0
ENDTAB
  0
TABLE
  2
LTYPE
  5
5
100
AcDbSymbolTable
 70
6
  0
LTYPE
  5
14
100
AcDbSymbolTableRecord
100
AcDbLinetypeTableRecord
  2
BYBLOCK
 70
0
  3

 72
65
 73
0
 40
0.0
  0
LTYPE
  5
15
100
AcDbSymbolTableRecord
100
AcDbLinetypeTableRecord
  2
BYLAYER
 70
0
  3

 72
65
 73
0
 40
0.0
  0
LTYPE
  5
16
100
AcDbSymbolTableRecord
100
AcDbLinetypeTableRecord
  2
CONTINUOUS
 70
64
  3
Solid line
 72
65
 73
0
 40
0.0
  0
LTYPE
  5
1F5
100
AcDbSymbolTableRecord
100
AcDbLinetypeTableRecord
  2
CENTER
 70
64
  3
____ _ ____ _ ____ _ ____ _ ____ _ ____ _ ____
 72
65
 73
4
 40
0.6
 49
0.375
 74
0
 49
-0.075
 74
0
 49
0.075
 74
0
 49
-0.075
 74
0
  0
LTYPE
  5
1F6
100
AcDbSymbolTableRecord
100
AcDbLinetypeTableRecord
  2
HIDDEN
 70
64
  3
- - - - - - - - - - - - - - - - - - - -
 72
65
 73
2
 40
0.2
 49
0.1
 74
0
 49
-0.1
 74
0
  0
LTYPE
  5
1F7
100
AcDbSymbolTableRecord
100
AcDbLinetypeTableRecord
  2
PHANTOM
 70
64
  3
_____ _ _ _____ _ _ _____ _ _ _____
 72
65
 73
6
 40
0.8
 49
0.45
 74
0
 49
-0.05
 74
0
 49
0.1
 74
0
 49
-0.05
 74
0
 49
0.1
 74
0
 49
-0.05
 74
0
  0
LTYPE
  5
1F8
100
AcDbSymbolTableRecord
100
AcDbLinetypeTableRecord
  2
DOT
 70
64
  3
. . . . . . . . . . . . . . . . . . . .
 72
65
 73
2
 40
0.2
 49
0.1
 74
0
 49
-0.1
 74
0
  0
LTYPE
  5
1F9
100
AcDbSymbolTableRecord
100
AcDbLinetypeTableRecord
  2
DASHED
 70
64
  3
- - - - - - - - - - - - - - - - - - - -
 72
65
 73
2
 40
0.2
 49
0.1
 74
0
 49
-0.1
 74
0
  0
ENDTAB
  0
TABLE
  2
LAYER
  5
2
100
AcDbSymbolTable
 70
36
  0
LAYER
  5
10
100
AcDbSymbolTableRecord
100
AcDbLayerTableRecord
  2
0
 70
0
 62
7
  6
CONTINUOUS
370
-3
390
F
  0
LAYER
  5
1FA
100
AcDbSymbolTableRecord
100
AcDbLayerTableRecord
  2
DEFAULT_1
 70
0
 62
7
  6
CENTER
370
-3
390
F
  0
LAYER
  5
1FB
100
AcDbSymbolTableRecord
100
AcDbLayerTableRecord
  2
DEFAULT_2
 70
0
 62
7
  6
HIDDEN
370
-3
390
F
  0
LAYER
  5
1FC
100
AcDbSymbolTableRecord
100
AcDbLayerTableRecord
  2
DEFAULT_3
 70
0
 62
7
  6
PHANTOM
370
-3
390
F
  0
LAYER
  5
1FD
100
AcDbSymbolTableRecord
100
AcDbLayerTableRecord
  2
00_COMPONENTS
 70
0
 62
7
  6
CONTINUOUS
370
-3
390
F
  0
LAYER
  5
1FE
100
AcDbSymbolTableRecord
100
AcDbLayerTableRecord
  2
01_1_DEFAULT_DATUMS
 70
0
 62
7
  6
CONTINUOUS
370
-3
390
F
  0
LAYER
  5
1FF
100
AcDbSymbolTableRecord
100
AcDbLayerTableRecord
  2
01_PLANES
 70
0
 62
7
  6
CONTINUOUS
370
-3
390
F
  0
LAYER
  5
200
100
AcDbSymbolTableRecord
100
AcDbLayerTableRecord
  2
02_COORD_SYS
 70
0
 62
7
  6
CONTINUOUS
370
-3
390
F
  0
LAYER
  5
201
100
AcDbSymbolTableRecord
100
AcDbLayerTableRecord
  2
03_AXES
 70
0
 62
7
  6
CONTINUOUS
370
-3
390
F
  0
LAYER
  5
202
100
AcDbSymbolTableRecord
100
AcDbLayerTableRecord
  2
04_POINTS
 70
0
 62
7
  6
CONTINUOUS
370
-3
390
F
  0
LAYER
  5
203
100
AcDbSymbolTableRecord
100
AcDbLayerTableRecord
  2
05_CURVES
 70
0
 62
7
  6
CONTINUOUS
370
-3
390
F
  0
LAYER
  5
204
100
AcDbSymbolTableRecord
100
AcDbLayerTableRecord
  2
06_SURFS
 70
0
 62
7
  6
CONTINUOUS
370
-3
390
F
  0
LAYER
  5
205
100
AcDbSymbolTableRecord
100
AcDbLayerTableRecord
  2
07_COSMETICS
 70
0
 62
7
  6
CONTINUOUS
370
-3
390
F
  0
LAYER
  5
206
100
AcDbSymbolTableRecord
100
AcDbLayerTableRecord
  2
10_NOTES
 70
0
 62
7
  6
CONTINUOUS
370
-3
390
F
  0
LAYER
  5
207
100
AcDbSymbolTableRecord
100
AcDbLayerTableRecord
  2
11_NOTES_PUB
 70
0
 62
7
  6
CONTINUOUS
370
-3
390
F
  0
LAYER
  5
208
100
AcDbSymbolTableRecord
100
AcDbLayerTableRecord
  2
13_REF_GTOL
 70
0
 62
7
  6
CONTINUOUS
370
-3
390
F
  0
LAYER
  5
209
100
AcDbSymbolTableRecord
100
AcDbLayerTableRecord
  2
16_MISC
 70
0
 62
7
  6
CONTINUOUS
370
-3
390
F
  0
LAYER
  5
20A
100
AcDbSymbolTableRecord
100
AcDbLayerTableRecord
  2
17_NO_PRINT
 70
0
 62
7
  6
CONTINUOUS
370
-3
390
F
  0
LAYER
  5
20B
100
AcDbSymbolTableRecord
100
AcDbLayerTableRecord
  2
18_DATUM_CAMS_JOINTS
 70
0
 62
7
  6
CONTINUOUS
370
-3
390
F
  0
LAYER
  5
20C
100
AcDbSymbolTableRecord
100
AcDbLayerTableRecord
  2
19_DATUM_FUNCTIONAL
 70
0
 62
7
  6
CONTINUOUS
370
-3
390
F
  0
LAYER
  5
20D
100
AcDbSymbolTableRecord
100
AcDbLayerTableRecord
  2
20_DATUM_KINEMATIC_SCHEME
 70
0
 62
7
  6
CONTINUOUS
370
-3
390
F
  0
ENDTAB
  0
TABLE
  2
STYLE
  5
3
100
AcDbSymbolTable
 70
1
  0
STYLE
  5
11
100
AcDbSymbolTableRecord
100
AcDbTextStyleTableRecord
  2
STANDARD
 70
0
 40
0.0
 41
1.0
 50
0.0
 71
0
 42
0.2
  3
ARIAL.TTF
  4

  0
STYLE
  5
20E
100
AcDbSymbolTableRecord
100
AcDbTextStyleTableRecord
  2
TEXTSTYLE_1
 70
0
 40
0.0
 41
0.8
 50
0.0
 71
0
 42
0.2
  3
gdt
  4

  0
ENDTAB
  0
TABLE
  2
VIEW
  5
6
100
AcDbSymbolTable
 70
0
  0
ENDTAB
  0
TABLE
  2
UCS
  5
7
100
AcDbSymbolTable
 70
0
  0
ENDTAB
  0
TABLE
  2
APPID
  5
9
100
AcDbSymbolTable
 70
1
  0
APPID
  5
20F
100
AcDbSymbolTableRecord
100
AcDbRegAppTableRecord
  2
ACAD
 70
0
  0
ENDTAB
  0
TABLE
  2
BLOCK_RECORD
  5
1
100
AcDbSymbolTable
 70
0
  0
BLOCK_RECORD
  5
210
100
AcDbSymbolTableRecord
100
AcDbBlockTableRecord
  2
*Model_Space
  0
BLOCK_RECORD
  5
211
100
AcDbSymbolTableRecord
100
AcDbBlockTableRecord
  2
*Paper_Space
  0
BLOCK_RECORD
  5
212
100
AcDbSymbolTableRecord
100
AcDbBlockTableRecord
  2
_FILLED
  0
ENDTAB
  0
TABLE
  2
DIMSTYLE
  5
A
100
AcDbSymbolTable
 70
1
100
AcDbDimStyleTable
 71
0
  0
DIMSTYLE
105
213
100
AcDbSymbolTableRecord
100
AcDbDimStyleTableRecord
  2
STANDARD
 70
0
  3

  4

 40
1.0
 41
0.3389076682
 42
1.0
 43
0.38
 44
1.0
 45
0.0
 46
0.0
 47
0.01
 48
0.01
140
0.4744707355
141
0.09
142
0.0
143
25.4
144
1.0
145
0.0
146
1.0
147
0.625
 71
1
 72
0
 73
0
 74
0
 75
0
 76
0
 77
1
 78
8
 79
2
170
0
171
1
172
0
173
0
174
0
175
0
176
0
177
0
178
0
270
2
179
2
271
2
272
2
273
2
274
2
275
0
280
0
281
0
282
0
283
1
284
8
285
0
286
0
287
3
288
0
340
11
278
46
341
212
342
212
343
212
344
212
  0
ENDTAB
  0
ENDSEC
  0
SECTION
  2
BLOCKS
  0
BLOCK
  5
20
100
AcDbEntity
  8
0
100
AcDbBlockBegin
  2
*Model_Space
 70
0
 10
0.0
 20
0.0
 30
0.0
  3
*Model_Space
  1

  0
ENDBLK
  5
21
100
AcDbEntity
  8
0
100
AcDbBlockEnd
  0
BLOCK
  5
1C
100
AcDbEntity
  8
0
100
AcDbBlockBegin
  2
*Paper_Space
 70
0
 10
0.0
 20
0.0
 30
0.0
  3
*Paper_Space
  1

  0
ENDBLK
  5
1D
100
AcDbEntity
  8
0
100
AcDbBlockEnd
  0
BLOCK
  5
214
100
AcDbEntity
  8
0
100
AcDbBlockBegin
  2
_FILLED
 70
64
 10
0.0
 20
0.0
  3
_FILLED
  1

  0
SOLID
  5
215
100
AcDbEntity
  8
0
  6
BYBLOCK
 62
0
100
AcDbTrace
 10
0.0
 20
0.0
 11
-1.0
 21
0.25
 12
-1.0
 22
-0.25
 13
-1.0
 23
-0.25
  0
ENDBLK
  5
216
100
AcDbEntity
  8
0
  6
BYBLOCK
 62
0
100
AcDbBlockEnd
  0
ENDSEC
  0
SECTION
  2
ENTITIES
  0
LINE
  5
217
100
AcDbEntity
  8
0
100
AcDbLine
 62
7
  6
BYLAYER
 10
8.7537265811
 20
2.882913724
 11
20.4537261951
 21
2.882913724
  0
LINE
  5
218
100
AcDbEntity
  8
0
100
AcDbLine
 62
7
  6
BYLAYER
 10
20.9537263881
 20
3.382913724
 11
8.2537263881
 21
3.382913724
  0
LINE
  5
219
100
AcDbEntity
  8
0
100
AcDbLine
 62
7
  6
BYLAYER
 10
11.2498237683
 20
3.4000120921
 11
11.6110105148
 21
3.4000120921
  0
LINE
  5
21A
100
AcDbEntity
  8
0
100
AcDbLine
 62
7
  6
BYLAYER
 10
20.9503099191
 20
3.4000120921
 11
20.9537263881
 21
3.4000120921
  0
LINE
  5
21B
100
AcDbEntity
  8
0
100
AcDbLine
 62
7
  6
BYLAYER
 10
8.2537263881
 20
5.382913724
 11
20.9503022349
 21
5.382913724
  0
LINE
  5
21C
100
AcDbEntity
  8
0
100
AcDbLine
 62
7
  6
BYLAYER
 10
20.7537263881
 20
6.582913724
 11
8.4537263881
 21
6.582913724
  0
LINE
  5
21D
100
AcDbEntity
  8
0
100
AcDbLine
 62
7
  6
BYLAYER
 10
20.9503022349
 20
6.782913724
 11
11.6110105148
 21
6.782913724
  0
LINE
  5
21E
100
AcDbEntity
  8
0
100
AcDbLine
 62
7
  6
BYLAYER
 10
11.2498664145
 20
6.782913724
 11
8.2537263881
 21
6.782913724
  0
LINE
  5
21F
100
AcDbEntity
  8
0
100
AcDbLine
 62
7
  6
BYLAYER
 10
8.2537263881
 20
6.782913724
 11
8.4537263881
 21
6.582913724
  0
LINE
  5
220
100
AcDbEntity
  8
0
100
AcDbLine
 62
7
  6
BYLAYER
 10
8.2537263881
 20
7.732913724
 11
20.9503022349
 21
7.732913724
  0
LINE
  5
221
100
AcDbEntity
  8
0
100
AcDbLine
 62
7
  6
BYLAYER
 10
21.845124585
 20
9.082913724
 11
7.8537263881
 21
9.082913724
  0
LINE
  5
222
100
AcDbEntity
  8
0
100
AcDbLine
 62
7
  6
BYLAYER
 10
21.8987263881
 20
9.282913724
 11
21.336163796
 21
9.282913724
  0
LINE
  5
223
100
AcDbEntity
  8
0
100
AcDbLine
 62
7
  6
BYLAYER
 10
11.658921864
 20
9.282913724
 11
10.7037263881
 21
9.282913724
  0
LINE
  5
224
100
AcDbEntity
  8
0
100
AcDbLine
 62
7
  6
BYLAYER
 10
8.6037263881
 20
28.182913724
 11
9.6037263881
 21
29.182913724
  0
LINE
  5
225
100
AcDbEntity
  8
0
100
AcDbLine
 62
7
  6
BYLAYER
 10
22.5537263881
 20
11.182913724
 11
6.6537263881
 21
11.182913724
  0
LINE
  5
226
100
AcDbEntity
  8
0
100
AcDbLine
 62
7
  6
BYLAYER
 10
6.1037263881
 20
22.392913724
 11
6.1037263881
 21
18.8929137232
  0
LINE
  5
227
100
AcDbEntity
  8
0
100
AcDbLine
 62
7
  6
BYLAYER
 10
6.1037263881
 20
18.392913724
 11
6.1037263881
 21
14.8929137232
  0
LINE
  5
228
100
AcDbEntity
  8
0
100
AcDbLine
 62
7
  6
BYLAYER
 10
6.6537263881
 20
12.982913724
 11
6.6537263881
 21
11.182913724
  0
LINE
  5
229
100
AcDbEntity
  8
0
100
AcDbLine
 62
7
  6
BYLAYER
 10
7.8537263881
 20
9.082913724
 11
7.8537263881
 21
11.182913724
  0
LINE
  5
22A
100
AcDbEntity
  8
0
100
AcDbLine
 62
7
  6
BYLAYER
 10
8.2537263881
 20
7.732913724
 11
8.2537263881
 21
6.782913724
  0
LINE
  5
22B
100
AcDbEntity
  8
0
100
AcDbLine
 62
7
  6
BYLAYER
 10
8.2537263881
 20
5.382913724
 11
8.2537263881
 21
3.382913724
  0
LINE
  5
22C
100
AcDbEntity
  8
0
100
AcDbLine
 62
7
  6
BYLAYER
 10
6.6537263881
 20
12.982913724
 11
22.5537263881
 21
12.982913724
  0
LINE
  5
22D
100
AcDbEntity
  8
0
100
AcDbLine
 62
7
  6
BYLAYER
 10
6.8537638754
 20
13.182913724
 11
22.3537263554
 21
13.182913724
  0
LINE
  5
22E
100
AcDbEntity
  8
0
100
AcDbLine
 62
7
  6
BYLAYER
 10
10.7573162266
 20
9.082913724
 11
10.7037263881
 21
9.282913724
  0
LINE
  5
22F
100
AcDbEntity
  8
0
100
AcDbLine
 62
7
  6
BYLAYER
 10
8.6037263881
 20
13.182913724
 11
8.6037263881
 21
14.892913724
  0
LINE
  5
230
100
AcDbEntity
  8
0
100
AcDbLine
 62
7
  6
BYLAYER
 10
8.6037263881
 20
18.392913724
 11
8.6037263881
 21
18.892913724
  0
LINE
  5
231
100
AcDbEntity
  8
0
100
AcDbLine
 62
7
  6
BYLAYER
 10
8.6037263881
 20
22.392913724
 11
8.6037263881
 21
28.182913724
  0
LINE
  5
232
100
AcDbEntity
  8
0
100
AcDbLine
 62
7
  6
BYLAYER
 10
9.0037263881
 20
6.582913724
 11
9.0037263881
 21
5.382913724
  0
LINE
  5
233
100
AcDbEntity
  8
0
100
AcDbLine
 62
7
  6
BYLAYER
 10
9.1037263881
 20
7.732913724
 11
9.1037263881
 21
9.082913724
  0
LINE
  5
234
100
AcDbEntity
  8
0
100
AcDbLine
 62
7
  6
BYLAYER
 10
23.1037263881
 20
14.892913724
 11
6.1037263881
 21
14.892913724
  0
LINE
  5
235
100
AcDbEntity
  8
0
100
AcDbLine
 62
7
  6
BYLAYER
 10
10.7037263881
 20
11.182913724
 11
10.7037263881
 21
9.282913724
  0
LINE
  5
236
100
AcDbEntity
  8
0
100
AcDbLine
 62
7
  6
BYLAYER
 10
11.1037263881
 20
29.182913724
 11
11.1037263881
 21
36.0768605806
  0
LINE
  5
237
100
AcDbEntity
  8
0
100
AcDbLine
 62
7
  6
BYLAYER
 10
11.2498664145
 20
3.4000120921
 11
11.2498664145
 21
5.382913724
  0
LINE
  5
238
100
AcDbEntity
  8
0
100
AcDbLine
 62
7
  6
BYLAYER
 10
11.2498664145
 20
6.782913724
 11
11.2498664145
 21
7.732913724
  0
LINE
  5
239
100
AcDbEntity
  8
0
100
AcDbLine
 62
7
  6
BYLAYER
 10
11.6110105148
 20
3.4000120921
 11
11.6110105148
 21
5.382913724
  0
LINE
  5
23A
100
AcDbEntity
  8
0
100
AcDbLine
 62
7
  6
BYLAYER
 10
11.6110105148
 20
6.782913724
 11
11.6110105148
 21
7.732913724
  0
LINE
  5
23B
100
AcDbEntity
  8
0
100
AcDbLine
 62
7
  6
BYLAYER
 10
6.1037263881
 20
18.392913724
 11
23.1037263881
 21
18.392913724
  0
LINE
  5
23C
100
AcDbEntity
  8
0
100
AcDbLine
 62
7
  6
BYLAYER
 10
23.1037263881
 20
18.892913724
 11
6.1037263881
 21
18.892913724
  0
LINE
  5
23D
100
AcDbEntity
  8
0
100
AcDbLine
 62
7
  6
BYLAYER
 10
14.6037263881
 20
22.0405727072
 11
14.6037263881
 21
19.2452547407
  0
LINE
  5
23E
100
AcDbEntity
  8
0
100
AcDbLine
 62
7
  6
BYLAYER
 10
14.6037263881
 20
18.0405727072
 11
14.6037263881
 21
15.2452547407
  0
LINE
  5
23F
100
AcDbEntity
  8
0
100
AcDbLine
 62
7
  6
BYLAYER
 10
6.1037263881
 20
22.392913724
 11
23.1037263881
 21
22.392913724
  0
LINE
  5
240
100
AcDbEntity
  8
0
100
AcDbLine
 62
7
  6
BYLAYER
 10
18.1037263881
 20
29.182913724
 11
18.1037263881
 21
36.0768605806
  0
LINE
  5
241
100
AcDbEntity
  8
0
100
AcDbLine
 62
7
  6
BYLAYER
 10
20.1037263881
 20
9.082913724
 11
20.1037263881
 21
7.732913724
  0
LINE
  5
242
100
AcDbEntity
  8
0
100
AcDbLine
 62
7
  6
BYLAYER
 10
20.2037263881
 20
6.582913724
 11
20.2037263881
 21
5.382913724
  0
LINE
  5
243
100
AcDbEntity
  8
0
100
AcDbLine
 62
7
  6
BYLAYER
 10
20.6037263881
 20
28.182913724
 11
20.6037263881
 21
22.392913724
  0
LINE
  5
244
100
AcDbEntity
  8
0
100
AcDbLine
 62
7
  6
BYLAYER
 10
20.6037263881
 20
18.892913724
 11
20.6037263881
 21
18.392913724
  0
LINE
  5
245
100
AcDbEntity
  8
0
100
AcDbLine
 62
7
  6
BYLAYER
 10
20.6037263881
 20
14.892913724
 11
20.6037263881
 21
13.182913724
  0
LINE
  5
246
100
AcDbEntity
  8
0
100
AcDbLine
 62
7
  6
BYLAYER
 10
20.9503022349
 20
3.4000120921
 11
20.9503022349
 21
5.382913724
  0
LINE
  5
247
100
AcDbEntity
  8
0
100
AcDbLine
 62
7
  6
BYLAYER
 10
20.9503022349
 20
6.782913724
 11
20.9503022349
 21
7.732913724
  0
LINE
  5
248
100
AcDbEntity
  8
0
100
AcDbLine
 62
7
  6
BYLAYER
 10
20.9537263881
 20
3.382913724
 11
20.9537263881
 21
3.4000120921
  0
LINE
  5
249
100
AcDbEntity
  8
0
100
AcDbLine
 62
7
  6
BYLAYER
 10
21.8987263881
 20
11.182913724
 11
21.8987263881
 21
9.282913724
  0
LINE
  5
24A
100
AcDbEntity
  8
0
100
AcDbLine
 62
7
  6
BYLAYER
 10
22.5537263881
 20
11.182913724
 11
22.5537263881
 21
12.982913724
  0
LINE
  5
24B
100
AcDbEntity
  8
0
100
AcDbLine
 62
7
  6
BYLAYER
 10
23.1037263881
 20
14.892913724
 11
23.1037263881
 21
18.392913724
  0
LINE
  5
24C
100
AcDbEntity
  8
0
100
AcDbLine
 62
7
  6
BYLAYER
 10
23.1037263881
 20
18.892913724
 11
23.1037263881
 21
22.392913724
  0
LINE
  5
24D
100
AcDbEntity
  8
0
100
AcDbLine
 62
7
  6
BYLAYER
 10
8.6037263881
 20
28.182913724
 11
20.6037263881
 21
28.182913724
  0
LINE
  5
24E
100
AcDbEntity
  8
0
100
AcDbLine
 62
7
  6
BYLAYER
 10
21.8451365496
 20
9.082913724
 11
21.8987263881
 21
9.282913724
  0
LINE
  5
24F
100
AcDbEntity
  8
0
100
AcDbLine
 62
7
  6
BYLAYER
 10
9.6037263881
 20
29.182913724
 11
19.6037263881
 21
29.182913724
  0
LINE
  5
250
100
AcDbEntity
  8
0
100
AcDbLine
 62
7
  6
BYLAYER
 10
19.6037263881
 20
29.182913724
 11
20.6037263881
 21
28.182913724
  0
LINE
  5
251
100
AcDbEntity
  8
0
100
AcDbLine
 62
7
  6
BYLAYER
 10
20.9503022349
 20
6.782913724
 11
20.9037263881
 21
6.732913724
  0
LINE
  5
252
100
AcDbEntity
  8
0
100
AcDbLine
 62
7
  6
BYLAYER
 10
20.7537263881
 20
6.582913724
 11
20.9037263881
 21
6.732913724
  0
LINE
  5
253
100
AcDbEntity
  8
0
100
AcDbLine
 62
7
  6
BYLAYER
 10
11.1037263881
 20
36.0768605943
 11
18.1037263881
 21
36.0768605943
  0
LINE
  5
254
100
AcDbEntity
  8
0
100
AcDbLine
 62
7
  6
BYLAYER
 10
11.1989646389
 20
36.2472277603
 11
18.0085095133
 21
36.2472146157
  0
LINE
  5
255
100
AcDbEntity
  8
0
100
AcDbLine
 62
7
  6
BYLAYER
 10
13.603790183
 20
37.132913724
 11
15.6036625904
 21
37.132913724
  0
ARC
  5
256
100
AcDbEntity
  8
0
100
AcDbCircle
 62
7
  6
BYLAYER
 10
14.6037263881
 20
30.7102974346
 40
6.5
100
AcDbArc
 50
58.4118645008
 51
81.1501169316
  0
ARC
  5
257
100
AcDbEntity
  8
0
100
AcDbCircle
 62
7
  6
BYLAYER
 10
14.6037263881
 20
30.7102974346
 40
6.5
100
AcDbArc
 50
98.8498830986
 51
121.5881338954
  0
ARC
  5
258
100
AcDbEntity
  8
0
100
AcDbCircle
 62
7
  6
BYLAYER
 10
8.7537263881
 20
3.382913724
 40
0.5
100
AcDbArc
 50
180.0
 51
270.0
  0
ARC
  5
259
100
AcDbEntity
  8
0
100
AcDbCircle
 62
7
  6
BYLAYER
 10
20.4537263881
 20
3.382913724
 40
0.5
100
AcDbArc
 50
270.0
 51
360.0
  0
ARC
  5
25A
100
AcDbEntity
  8
0
100
AcDbCircle
 62
7
  6
BYLAYER
 10
17.9037263881
 20
36.0768605806
 40
0.2
100
AcDbArc
 50
0.0
 51
58.4118644948
  0
ARC
  5
25B
100
AcDbEntity
  8
0
100
AcDbCircle
 62
7
  6
BYLAYER
 10
11.3037263881
 20
36.0768605806
 40
0.2
100
AcDbArc
 50
121.5881355052
 51
180.0
  0
ARC
  5
25C
100
AcDbEntity
  8
0
100
AcDbCircle
 62
7
  6
BYLAYER
 10
6.8537263881
 20
12.982913724
 40
0.2
100
AcDbArc
 50
90.0
 51
180.0
  0
ARC
  5
25D
100
AcDbEntity
  8
0
100
AcDbCircle
 62
7
  6
BYLAYER
 10
22.3537263881
 20
12.982913724
 40
0.2
100
AcDbArc
 50
0.0
 51
90.0
  0
SPLINE
  5
25E
100
AcDbEntity
  8
0
100
AcDbSpline
 62
7
  6
BYLAYER
 70
0
 71
3
 72
11
 73
7
 74
0
 42
0.0000001
 43
0.0000001
 44
0.0000000001
 40
0.0
 40
0.0
 40
0.0
 40
0.0
 40
0.2503270754
 40
0.5003966947
 40
0.7502573324
 40
1.0
 40
1.0
 40
1.0
 40
1.0
 10
14.6037263881
 20
18.0405727072
 30
0.0
 10
14.955721432
 20
18.09502653
 30
0.0
 10
15.6609391324
 20
18.1939926383
 30
0.0
 10
16.722755865
 20
18.3064383535
 30
0.0
 10
17.7874080496
 20
18.3768888084
 30
0.0
 10
18.4983757652
 20
18.392913724
 30
0.0
 10
18.8537263888
 20
18.392913724
 30
0.0
  0
SPLINE
  5
25F
100
AcDbEntity
  8
0
100
AcDbSpline
 62
7
  6
BYLAYER
 70
0
 71
3
 72
11
 73
7
 74
0
 42
0.0000001
 43
0.0000001
 44
0.0000000001
 40
0.0
 40
0.0
 40
0.0
 40
0.0
 40
0.2503270754
 40
0.5003966947
 40
0.7502573324
 40
1.0
 40
1.0
 40
1.0
 40
1.0
 10
6.1037263881
 20
18.0405727072
 30
0.0
 10
6.4557214318
 20
18.0950265299
 30
0.0
 10
7.1609391319
 20
18.1939926382
 30
0.0
 10
8.222755864
 20
18.3064383534
 30
0.0
 10
9.287408048
 20
18.3768888083
 30
0.0
 10
9.9983757633
 20
18.3929137239
 30
0.0
 10
10.3537263867
 20
18.392913724
 30
0.0
  0
SPLINE
  5
260
100
AcDbEntity
  8
0
100
AcDbSpline
 62
7
  6
BYLAYER
 70
0
 71
3
 72
11
 73
7
 74
0
 42
0.0000001
 43
0.0000001
 44
0.0000000001
 40
0.0
 40
0.0
 40
0.0
 40
0.0
 40
0.2503270763
 40
0.5003966946
 40
0.7502573322
 40
1.0
 40
1.0
 40
1.0
 40
1.0
 10
23.1037263881
 20
15.2452547407
 30
0.0
 10
22.7517313429
 20
15.1908009177
 30
0.0
 10
22.0465136548
 20
15.0918347169
 30
0.0
 10
20.9846969079
 20
14.9793891332
 30
0.0
 10
19.9200447295
 20
14.90893863
 30
0.0
 10
19.2090770126
 20
14.892913724
 30
0.0
 10
18.8537263888
 20
14.8929137239
 30
0.0
  0
SPLINE
  5
261
100
AcDbEntity
  8
0
100
AcDbSpline
 62
7
  6
BYLAYER
 70
0
 71
3
 72
11
 73
7
 74
0
 42
0.0000001
 43
0.0000001
 44
0.0000000001
 40
0.0
 40
0.0
 40
0.0
 40
0.0
 40
0.2497426693
 40
0.4996033072
 40
0.7496729248
 40
1.0
 40
1.0
 40
1.0
 40
1.0
 10
18.8537263888
 20
18.392913724
 30
0.0
 10
19.2090770148
 20
18.3929137239
 30
0.0
 10
19.9200447342
 20
18.3768888184
 30
0.0
 10
20.9846969139
 20
18.3064383107
 30
0.0
 10
22.0465136588
 20
18.1939927302
 30
0.0
 10
22.7517313445
 20
18.0950265299
 30
0.0
 10
23.1037263881
 20
18.0405727072
 30
0.0
  0
SPLINE
  5
262
100
AcDbEntity
  8
0
100
AcDbSpline
 62
7
  6
BYLAYER
 70
0
 71
3
 72
11
 73
7
 74
0
 42
0.0000001
 43
0.0000001
 44
0.0000000001
 40
0.0
 40
0.0
 40
0.0
 40
0.0
 40
0.2497426693
 40
0.4996033072
 40
0.7496729248
 40
1.0
 40
1.0
 40
1.0
 40
1.0
 10
10.3537263867
 20
18.392913724
 30
0.0
 10
10.7090770129
 20
18.392913724
 30
0.0
 10
11.4200447326
 20
18.3768888185
 30
0.0
 10
12.4846969128
 20
18.3064383108
 30
0.0
 10
13.5465136583
 20
18.1939927303
 30
0.0
 10
14.2517313443
 20
18.09502653
 30
0.0
 10
14.6037263881
 20
18.0405727072
 30
0.0
  0
SPLINE
  5
263
100
AcDbEntity
  8
0
100
AcDbSpline
 62
7
  6
BYLAYER
 70
0
 71
3
 72
11
 73
7
 74
0
 42
0.0000001
 43
0.0000001
 44
0.0000000001
 40
0.0
 40
0.0
 40
0.0
 40
0.0
 40
0.2497426692
 40
0.499603307
 40
0.7496729258
 40
1.0
 40
1.0
 40
1.0
 40
1.0
 10
18.8537263888
 20
14.8929137239
 30
0.0
 10
18.498375763
 20
14.8929137239
 30
0.0
 10
17.7874080448
 20
14.908938639
 30
0.0
 10
16.7227558589
 20
14.9793890983
 30
0.0
 10
15.6609391284
 20
15.0918348104
 30
0.0
 10
14.9557214304
 20
15.1908009182
 30
0.0
 10
14.6037263881
 20
15.2452547407
 30
0.0
  0
SPLINE
  5
264
100
AcDbEntity
  8
0
100
AcDbSpline
 62
7
  6
BYLAYER
 70
0
 71
3
 72
11
 73
7
 74
0
 42
0.0000001
 43
0.0000001
 44
0.0000000001
 40
0.0
 40
0.0
 40
0.0
 40
0.0
 40
0.2497426692
 40
0.499603307
 40
0.7496729258
 40
1.0
 40
1.0
 40
1.0
 40
1.0
 10
10.3537263867
 20
14.892913724
 30
0.0
 10
9.998375761
 20
14.892913724
 30
0.0
 10
9.2874080432
 20
14.9089386391
 30
0.0
 10
8.2227558579
 20
14.9793890984
 30
0.0
 10
7.1609391279
 20
15.0918348105
 30
0.0
 10
6.4557214302
 20
15.1908009182
 30
0.0
 10
6.1037263881
 20
15.2452547407
 30
0.0
  0
SPLINE
  5
265
100
AcDbEntity
  8
0
100
AcDbSpline
 62
7
  6
BYLAYER
 70
0
 71
3
 72
11
 73
7
 74
0
 42
0.0000001
 43
0.0000001
 44
0.0000000001
 40
0.0
 40
0.0
 40
0.0
 40
0.0
 40
0.2503270763
 40
0.5003966946
 40
0.7502573322
 40
1.0
 40
1.0
 40
1.0
 40
1.0
 10
14.6037263881
 20
15.2452547407
 30
0.0
 10
14.2517313427
 20
15.1908009177
 30
0.0
 10
13.5465136543
 20
15.0918347168
 30
0.0
 10
12.4846969068
 20
14.9793891331
 30
0.0
 10
11.4200447279
 20
14.9089386299
 30
0.0
 10
10.7090770107
 20
14.8929137239
 30
0.0
 10
10.3537263867
 20
14.892913724
 30
0.0
  0
SPLINE
  5
266
100
AcDbEntity
  8
0
100
AcDbSpline
 62
7
  6
BYLAYER
 70
0
 71
3
 72
11
 73
7
 74
0
 42
0.0000001
 43
0.0000001
 44
0.0000000001
 40
0.0
 40
0.0
 40
0.0
 40
0.0
 40
0.2503270754
 40
0.5003966947
 40
0.7502573324
 40
1.0
 40
1.0
 40
1.0
 40
1.0
 10
14.6037263881
 20
22.0405727072
 30
0.0
 10
14.955721432
 20
22.09502653
 30
0.0
 10
15.6609391324
 20
22.1939926383
 30
0.0
 10
16.722755865
 20
22.3064383535
 30
0.0
 10
17.7874080496
 20
22.3768888084
 30
0.0
 10
18.4983757652
 20
22.392913724
 30
0.0
 10
18.8537263888
 20
22.392913724
 30
0.0
  0
SPLINE
  5
267
100
AcDbEntity
  8
0
100
AcDbSpline
 62
7
  6
BYLAYER
 70
0
 71
3
 72
11
 73
7
 74
0
 42
0.0000001
 43
0.0000001
 44
0.0000000001
 40
0.0
 40
0.0
 40
0.0
 40
0.0
 40
0.2503270754
 40
0.5003966947
 40
0.7502573324
 40
1.0
 40
1.0
 40
1.0
 40
1.0
 10
6.1037263881
 20
22.0405727072
 30
0.0
 10
6.4557214318
 20
22.0950265299
 30
0.0
 10
7.1609391319
 20
22.1939926382
 30
0.0
 10
8.222755864
 20
22.3064383534
 30
0.0
 10
9.287408048
 20
22.3768888083
 30
0.0
 10
9.9983757633
 20
22.3929137239
 30
0.0
 10
10.3537263867
 20
22.392913724
 30
0.0
  0
SPLINE
  5
268
100
AcDbEntity
  8
0
100
AcDbSpline
 62
7
  6
BYLAYER
 70
0
 71
3
 72
11
 73
7
 74
0
 42
0.0000001
 43
0.0000001
 44
0.0000000001
 40
0.0
 40
0.0
 40
0.0
 40
0.0
 40
0.2503270763
 40
0.5003966946
 40
0.7502573322
 40
1.0
 40
1.0
 40
1.0
 40
1.0
 10
23.1037263881
 20
19.2452547407
 30
0.0
 10
22.7517313429
 20
19.1908009177
 30
0.0
 10
22.0465136548
 20
19.0918347169
 30
0.0
 10
20.9846969079
 20
18.9793891332
 30
0.0
 10
19.9200447295
 20
18.90893863
 30
0.0
 10
19.2090770126
 20
18.892913724
 30
0.0
 10
18.8537263888
 20
18.8929137239
 30
0.0
  0
SPLINE
  5
269
100
AcDbEntity
  8
0
100
AcDbSpline
 62
7
  6
BYLAYER
 70
0
 71
3
 72
11
 73
7
 74
0
 42
0.0000001
 43
0.0000001
 44
0.0000000001
 40
0.0
 40
0.0
 40
0.0
 40
0.0
 40
0.2497426693
 40
0.4996033072
 40
0.7496729248
 40
1.0
 40
1.0
 40
1.0
 40
1.0
 10
18.8537263888
 20
22.392913724
 30
0.0
 10
19.2090770148
 20
22.3929137239
 30
0.0
 10
19.9200447342
 20
22.3768888184
 30
0.0
 10
20.9846969139
 20
22.3064383107
 30
0.0
 10
22.0465136588
 20
22.1939927302
 30
0.0
 10
22.7517313445
 20
22.0950265299
 30
0.0
 10
23.1037263881
 20
22.0405727072
 30
0.0
  0
SPLINE
  5
26A
100
AcDbEntity
  8
0
100
AcDbSpline
 62
7
  6
BYLAYER
 70
0
 71
3
 72
11
 73
7
 74
0
 42
0.0000001
 43
0.0000001
 44
0.0000000001
 40
0.0
 40
0.0
 40
0.0
 40
0.0
 40
0.2497426693
 40
0.4996033072
 40
0.7496729248
 40
1.0
 40
1.0
 40
1.0
 40
1.0
 10
10.3537263867
 20
22.392913724
 30
0.0
 10
10.7090770129
 20
22.392913724
 30
0.0
 10
11.4200447326
 20
22.3768888185
 30
0.0
 10
12.4846969128
 20
22.3064383108
 30
0.0
 10
13.5465136583
 20
22.1939927303
 30
0.0
 10
14.2517313443
 20
22.09502653
 30
0.0
 10
14.6037263881
 20
22.0405727072
 30
0.0
  0
SPLINE
  5
26B
100
AcDbEntity
  8
0
100
AcDbSpline
 62
7
  6
BYLAYER
 70
0
 71
3
 72
11
 73
7
 74
0
 42
0.0000001
 43
0.0000001
 44
0.0000000001
 40
0.0
 40
0.0
 40
0.0
 40
0.0
 40
0.2497426692
 40
0.499603307
 40
0.7496729258
 40
1.0
 40
1.0
 40
1.0
 40
1.0
 10
18.8537263888
 20
18.8929137239
 30
0.0
 10
18.498375763
 20
18.8929137239
 30
0.0
 10
17.7874080448
 20
18.908938639
 30
0.0
 10
16.7227558589
 20
18.9793890983
 30
0.0
 10
15.6609391284
 20
19.0918348104
 30
0.0
 10
14.9557214304
 20
19.1908009182
 30
0.0
 10
14.6037263881
 20
19.2452547407
 30
0.0
  0
SPLINE
  5
26C
100
AcDbEntity
  8
0
100
AcDbSpline
 62
7
  6
BYLAYER
 70
0
 71
3
 72
11
 73
7
 74
0
 42
0.0000001
 43
0.0000001
 44
0.0000000001
 40
0.0
 40
0.0
 40
0.0
 40
0.0
 40
0.2497426692
 40
0.499603307
 40
0.7496729258
 40
1.0
 40
1.0
 40
1.0
 40
1.0
 10
10.3537263867
 20
18.892913724
 30
0.0
 10
9.998375761
 20
18.892913724
 30
0.0
 10
9.2874080432
 20
18.9089386391
 30
0.0
 10
8.2227558579
 20
18.9793890984
 30
0.0
 10
7.1609391279
 20
19.0918348105
 30
0.0
 10
6.4557214302
 20
19.1908009182
 30
0.0
 10
6.1037263881
 20
19.2452547407
 30
0.0
  0
SPLINE
  5
26D
100
AcDbEntity
  8
0
100
AcDbSpline
 62
7
  6
BYLAYER
 70
0
 71
3
 72
11
 73
7
 74
0
 42
0.0000001
 43
0.0000001
 44
0.0000000001
 40
0.0
 40
0.0
 40
0.0
 40
0.0
 40
0.2503270763
 40
0.5003966946
 40
0.7502573322
 40
1.0
 40
1.0
 40
1.0
 40
1.0
 10
14.6037263881
 20
19.2452547407
 30
0.0
 10
14.2517313427
 20
19.1908009177
 30
0.0
 10
13.5465136543
 20
19.0918347168
 30
0.0
 10
12.4846969068
 20
18.9793891331
 30
0.0
 10
11.4200447279
 20
18.9089386299
 30
0.0
 10
10.7090770107
 20
18.8929137239
 30
0.0
 10
10.3537263867
 20
18.892913724
 30
0.0
  0
SPLINE
  5
26E
100
AcDbEntity
  8
0
100
AcDbSpline
 62
7
  6
BYLAYER
 70
0
 71
3
 72
11
 73
7
 74
0
 42
0.0000001
 43
0.0000001
 44
0.0000000001
 40
0.0
 40
0.0
 40
0.0
 40
0.0
 40
0.2771156791
 40
0.5347237648
 40
0.7745197351
 40
1.0
 40
1.0
 40
1.0
 40
1.0
 10
11.4537263881
 20
6.7329135623
 30
0.0
 10
11.4692495407
 20
6.7329135653
 30
0.0
 10
11.4992673394
 20
6.7349257867
 30
0.0
 10
11.5417282926
 20
6.7447763227
 30
0.0
 10
11.5791918518
 20
6.7606692258
 30
0.0
 10
11.6011328662
 20
6.7750418372
 30
0.0
 10
11.6110105148
 20
6.782913724
 30
0.0
  0
SPLINE
  5
26F
100
AcDbEntity
  8
0
100
AcDbSpline
 62
7
  6
BYLAYER
 70
0
 71
3
 72
11
 73
7
 74
0
 42
0.0000001
 43
0.0000001
 44
0.0000000001
 40
0.0
 40
0.0
 40
0.0
 40
0.0
 40
0.2611496428
 40
0.5173518391
 40
0.7648240718
 40
1.0
 40
1.0
 40
1.0
 40
1.0
 10
11.2498664145
 20
6.782913724
 30
0.0
 10
11.2666046504
 20
6.775270692
 30
0.0
 10
11.3003854916
 20
6.7614421996
 30
0.0
 10
11.3519452363
 20
6.7454911553
 30
0.0
 10
11.4031167482
 20
6.7353546989
 30
0.0
 10
11.437155837
 20
6.7329137207
 30
0.0
 10
11.4537263881
 20
6.732913724
 30
0.0
  0
ENDSEC
  0
SECTION
  2
OBJECTS
  0
DICTIONARY
  5
C
100
AcDbDictionary
280
0
281
1
  3
ACAD_GROUP
350
D
  3
ACAD_MLINESTYLE
350
17
  3
ACAD_LAYOUT
350
1A
  3
ACAD_PLOTSETTINGS
350
19
  3
ACAD_PLOTSTYLENAME
350
E
  0
DICTIONARY
  5
D
102
{ACAD_REACTORS
330
C
102
}
100
AcDbDictionary
280
0
281
1
  0
ACDBDICTIONARYWDFLT
  5
E
102
{ACAD_REACTORS
330
C
102
}
100
AcDbDictionary
281
1
  3
Normal
350
F
100
AcDbDictionaryWithDefault
340
F
  0
DICTIONARY
  5
17
102
{ACAD_REACTORS
330
C
102
}
100
AcDbDictionary
280
0
281
1
  3
Standard
350
18
  0
DICTIONARY
  5
19
102
{ACAD_REACTORS
330
C
102
}
100
AcDbDictionary
281
1
  0
DICTIONARY
  5
1A
102
{ACAD_REACTORS
330
C
102
}
100
AcDbDictionary
281
1
  3
Model
350
270
  3
Layout1
350
271
  0
ACDBPLACEHOLDER
  5
F
102
{ACAD_REACTORS
330
E
102
}
  0
MLINESTYLE
  5
18
102
{ACAD_REACTORS
330
17
102
}
100
AcDbMlineStyle
  2
STANDARD
 70
0
  3

 62
256
 51
90.0
 52
90.0
 71
2
 49
0.5
 62
256
  6
BYLAYER
 49
-0.5
 62
256
  6
BYLAYER
  0
LAYOUT
  5
270
102
{ACAD_REACTORS
330
1A
102
}
100
AcDbPlotSettings
  1

  2
none_device
  4

  6

 40
0.0
 41
0.0
 42
0.0
 43
0.0
 44
210.0
 45
297.0
 46
0.0
 47
0.0
 48
0.0
 49
0.0
140
0.0
141
0.0
142
1.0
143
1.0
 70
1024
 72
1
 73
0
 74
0
  7

 75
0
147
1.0
148
0.0
149
0.0
100
AcDbLayout
  1
Model
 70
0
 71
0
 10
0.0
 20
0.0
 11
210.0
 21
297.0
 12
0.0
 22
0.0
 32
0.0
 14
0.0
 24
0.0
 34
0.0
 15
0.0
 25
0.0
 35
0.0
146
0.0
 13
0.0
 23
0.0
 33
0.0
 16
1.0
 26
0.0
 36
0.0
 17
0.0
 27
1.0
 37
0.0
 76
0
330
210
345
0
346
0
  0
LAYOUT
  5
271
102
{ACAD_REACTORS
330
1A
102
}
100
AcDbPlotSettings
  1

  2
none_device
  4

  6

 40
0.0
 41
0.0
 42
0.0
 43
0.0
 44
210.0
 45
297.0
 46
0.0
 47
0.0
 48
0.0
 49
0.0
140
0.0
141
0.0
142
1.0
143
1.0
 70
0
 72
1
 73
0
 74
0
  7

 75
0
147
1.0
148
0.0
149
0.0
100
AcDbLayout
  1
Layout1
 70
0
 71
1
 10
0.0
 20
0.0
 11
210.0
 21
297.0
 12
0.0
 22
0.0
 32
0.0
 14
0.0
 24
0.0
 34
0.0
 15
0.0
 25
0.0
 35
0.0
146
0.0
 13
0.0
 23
0.0
 33
0.0
 16
1.0
 26
0.0
 36
0.0
 17
0.0
 27
1.0
 37
0.0
 76
0
330
211
345
0
346
0
  0
ENDSEC
  0
EOF
