999
DXF file: C:\Users\sesa63760\Dev\_Creo\CAD\MCADID0004761_3D-CAD\drw0001_3.dxf
999
Pro/ENGINEER 2019471 by Parametric Technology Corporation
  0
SECTION
  2
HEADER
  9
$ACADVER
  1
AC1024
  9
$DWGCODEPAGE
  3
ANSI_1252
  9
$EXTMAX
 10
45.2283234519
 20
63.9657717391
 30
0.0
  9
$EXTMIN
 10
0.0
 20
0.0
 30
0.0
  9
$LIMMIN
 10
0.0
 20
0.0
  9
$LIMMAX
 10
45.2283234519
 20
63.9657717391
  9
$VIEWCTR
 10
22.614161726
 20
31.9828858696
  9
$VIEWSIZE
 40
63.9657717391
  9
$CLAYER
  8
0
  9
$LTSCALE
 40
4.1696206763
  9
$CELTYPE
  6
BYLAYER
  9
$DIMSCALE
 40
1.0
  9
$DIMASZ
 40
0.538432422
  9
$DIMEXO
 40
1.0
  9
$DIMDLI
 40
2.8808288309
  9
$DIMEXE
 40
1.0
  9
$DIMCEN
 40
0.6823015652
  9
$DIMLFAC
 40
1.0
  9
$DIMBLK
  1
_FILLED
  9
$DIMALT
 70
0
  9
$DIMALTF
 40
0.0393700787
  9
$DIMTXT
 40
0.7538053909
  9
$DIMTOL
 70
1
  9
$DIMLIM
 70
0
  9
$DIMTFAC
 40
1.0
  9
$DIMTP
 40
0.01
  9
$DIMTM
 40
0.01
  9
$DIMGAP
 40
0.625
  9
$DIMDSEP
 70
46
  9
$AUNITS
 70
0
  9
$PDMODE
 70
3
  9
$PDSIZE
 40
0.3125
  9
$HANDSEED
  5
285
  9
$TILEMODE
 70
1
  9
$MEASUREMENT
 70
1
  9
$INSUNITS
 70
4
  0
ENDSEC
  0
SECTION
  2
CLASSES
  0
CLASS
  1
ACDBDICTIONARYWDFLT
  2
AcDbDictionaryWithDefault
  3
AutoCAD 2000
 90
0
 91
1
280
0
281
0
  0
CLASS
  1
ACDBPLACEHOLDER
  2
AcDbPlaceHolder
  3
AutoCAD 2000
 90
0
 91
1
280
0
281
0
  0
CLASS
  1
LAYOUT
  2
AcDbLayout
  3
AutoCAD 2000
 90
0
 91
0
280
0
281
0
  0
ENDSEC
  0
SECTION
  2
TABLES
  0
TABLE
  2
VPORT
  5
8
100
AcDbSymbolTable
 70
2
  0
VPORT
  5
1F4
100
AcDbSymbolTableRecord
100
AcDbViewportTableRecord
  2
*ACTIVE
 70
0
 10
0.0
 20
0.0
 11
1.0
 21
1.0
 12
22.614161726
 22
31.9828858696
 13
0.0
 23
0.0
 14
1.0
 24
1.0
 15
0.0
 25
0.0
 16
0.0
 26
0.0
 36
1.0
 17
0.0
 27
0.0
 37
0.0
 40
63.9657717391
 41
0.7070707071
 42
50.0
 43
0.0
 44
0.0
 50
0.0
 51
0.0
 71
0
 72
100
 73
1
 74
1
 75
0
 76
0
 77
0
 78
0
  0
ENDTAB
  0
TABLE
  2
LTYPE
  5
5
100
AcDbSymbolTable
 70
6
  0
LTYPE
  5
14
100
AcDbSymbolTableRecord
100
AcDbLinetypeTableRecord
  2
BYBLOCK
 70
0
  3

 72
65
 73
0
 40
0.0
  0
LTYPE
  5
15
100
AcDbSymbolTableRecord
100
AcDbLinetypeTableRecord
  2
BYLAYER
 70
0
  3

 72
65
 73
0
 40
0.0
  0
LTYPE
  5
16
100
AcDbSymbolTableRecord
100
AcDbLinetypeTableRecord
  2
CONTINUOUS
 70
64
  3
Solid line
 72
65
 73
0
 40
0.0
  0
LTYPE
  5
1F5
100
AcDbSymbolTableRecord
100
AcDbLinetypeTableRecord
  2
CENTER
 70
64
  3
____ _ ____ _ ____ _ ____ _ ____ _ ____ _ ____
 72
65
 73
4
 40
0.6
 49
0.375
 74
0
 49
-0.075
 74
0
 49
0.075
 74
0
 49
-0.075
 74
0
  0
LTYPE
  5
1F6
100
AcDbSymbolTableRecord
100
AcDbLinetypeTableRecord
  2
HIDDEN
 70
64
  3
- - - - - - - - - - - - - - - - - - - -
 72
65
 73
2
 40
0.2
 49
0.1
 74
0
 49
-0.1
 74
0
  0
LTYPE
  5
1F7
100
AcDbSymbolTableRecord
100
AcDbLinetypeTableRecord
  2
PHANTOM
 70
64
  3
_____ _ _ _____ _ _ _____ _ _ _____
 72
65
 73
6
 40
0.8
 49
0.45
 74
0
 49
-0.05
 74
0
 49
0.1
 74
0
 49
-0.05
 74
0
 49
0.1
 74
0
 49
-0.05
 74
0
  0
LTYPE
  5
1F8
100
AcDbSymbolTableRecord
100
AcDbLinetypeTableRecord
  2
DOT
 70
64
  3
. . . . . . . . . . . . . . . . . . . .
 72
65
 73
2
 40
0.2
 49
0.1
 74
0
 49
-0.1
 74
0
  0
LTYPE
  5
1F9
100
AcDbSymbolTableRecord
100
AcDbLinetypeTableRecord
  2
DASHED
 70
64
  3
- - - - - - - - - - - - - - - - - - - -
 72
65
 73
2
 40
0.2
 49
0.1
 74
0
 49
-0.1
 74
0
  0
ENDTAB
  0
TABLE
  2
LAYER
  5
2
100
AcDbSymbolTable
 70
36
  0
LAYER
  5
10
100
AcDbSymbolTableRecord
100
AcDbLayerTableRecord
  2
0
 70
0
 62
7
  6
CONTINUOUS
370
-3
390
F
  0
LAYER
  5
1FA
100
AcDbSymbolTableRecord
100
AcDbLayerTableRecord
  2
DEFAULT_1
 70
0
 62
7
  6
CENTER
370
-3
390
F
  0
LAYER
  5
1FB
100
AcDbSymbolTableRecord
100
AcDbLayerTableRecord
  2
DEFAULT_2
 70
0
 62
7
  6
HIDDEN
370
-3
390
F
  0
LAYER
  5
1FC
100
AcDbSymbolTableRecord
100
AcDbLayerTableRecord
  2
DEFAULT_3
 70
0
 62
7
  6
PHANTOM
370
-3
390
F
  0
LAYER
  5
1FD
100
AcDbSymbolTableRecord
100
AcDbLayerTableRecord
  2
00_COMPONENTS
 70
0
 62
7
  6
CONTINUOUS
370
-3
390
F
  0
LAYER
  5
1FE
100
AcDbSymbolTableRecord
100
AcDbLayerTableRecord
  2
01_1_DEFAULT_DATUMS
 70
0
 62
7
  6
CONTINUOUS
370
-3
390
F
  0
LAYER
  5
1FF
100
AcDbSymbolTableRecord
100
AcDbLayerTableRecord
  2
01_PLANES
 70
0
 62
7
  6
CONTINUOUS
370
-3
390
F
  0
LAYER
  5
200
100
AcDbSymbolTableRecord
100
AcDbLayerTableRecord
  2
02_COORD_SYS
 70
0
 62
7
  6
CONTINUOUS
370
-3
390
F
  0
LAYER
  5
201
100
AcDbSymbolTableRecord
100
AcDbLayerTableRecord
  2
03_AXES
 70
0
 62
7
  6
CONTINUOUS
370
-3
390
F
  0
LAYER
  5
202
100
AcDbSymbolTableRecord
100
AcDbLayerTableRecord
  2
04_POINTS
 70
0
 62
7
  6
CONTINUOUS
370
-3
390
F
  0
LAYER
  5
203
100
AcDbSymbolTableRecord
100
AcDbLayerTableRecord
  2
05_CURVES
 70
0
 62
7
  6
CONTINUOUS
370
-3
390
F
  0
LAYER
  5
204
100
AcDbSymbolTableRecord
100
AcDbLayerTableRecord
  2
06_SURFS
 70
0
 62
7
  6
CONTINUOUS
370
-3
390
F
  0
LAYER
  5
205
100
AcDbSymbolTableRecord
100
AcDbLayerTableRecord
  2
07_COSMETICS
 70
0
 62
7
  6
CONTINUOUS
370
-3
390
F
  0
LAYER
  5
206
100
AcDbSymbolTableRecord
100
AcDbLayerTableRecord
  2
10_NOTES
 70
0
 62
7
  6
CONTINUOUS
370
-3
390
F
  0
LAYER
  5
207
100
AcDbSymbolTableRecord
100
AcDbLayerTableRecord
  2
11_NOTES_PUB
 70
0
 62
7
  6
CONTINUOUS
370
-3
390
F
  0
LAYER
  5
208
100
AcDbSymbolTableRecord
100
AcDbLayerTableRecord
  2
13_REF_GTOL
 70
0
 62
7
  6
CONTINUOUS
370
-3
390
F
  0
LAYER
  5
209
100
AcDbSymbolTableRecord
100
AcDbLayerTableRecord
  2
16_MISC
 70
0
 62
7
  6
CONTINUOUS
370
-3
390
F
  0
LAYER
  5
20A
100
AcDbSymbolTableRecord
100
AcDbLayerTableRecord
  2
17_NO_PRINT
 70
0
 62
7
  6
CONTINUOUS
370
-3
390
F
  0
LAYER
  5
20B
100
AcDbSymbolTableRecord
100
AcDbLayerTableRecord
  2
18_DATUM_CAMS_JOINTS
 70
0
 62
7
  6
CONTINUOUS
370
-3
390
F
  0
LAYER
  5
20C
100
AcDbSymbolTableRecord
100
AcDbLayerTableRecord
  2
19_DATUM_FUNCTIONAL
 70
0
 62
7
  6
CONTINUOUS
370
-3
390
F
  0
LAYER
  5
20D
100
AcDbSymbolTableRecord
100
AcDbLayerTableRecord
  2
20_DATUM_KINEMATIC_SCHEME
 70
0
 62
7
  6
CONTINUOUS
370
-3
390
F
  0
ENDTAB
  0
TABLE
  2
STYLE
  5
3
100
AcDbSymbolTable
 70
1
  0
STYLE
  5
11
100
AcDbSymbolTableRecord
100
AcDbTextStyleTableRecord
  2
STANDARD
 70
0
 40
0.0
 41
1.0
 50
0.0
 71
0
 42
0.2
  3
ARIAL.TTF
  4

  0
STYLE
  5
20E
100
AcDbSymbolTableRecord
100
AcDbTextStyleTableRecord
  2
TEXTSTYLE_1
 70
0
 40
0.0
 41
0.8
 50
0.0
 71
0
 42
0.2
  3
gdt
  4

  0
ENDTAB
  0
TABLE
  2
VIEW
  5
6
100
AcDbSymbolTable
 70
0
  0
ENDTAB
  0
TABLE
  2
UCS
  5
7
100
AcDbSymbolTable
 70
0
  0
ENDTAB
  0
TABLE
  2
APPID
  5
9
100
AcDbSymbolTable
 70
1
  0
APPID
  5
20F
100
AcDbSymbolTableRecord
100
AcDbRegAppTableRecord
  2
ACAD
 70
0
  0
ENDTAB
  0
TABLE
  2
BLOCK_RECORD
  5
1
100
AcDbSymbolTable
 70
0
  0
BLOCK_RECORD
  5
210
100
AcDbSymbolTableRecord
100
AcDbBlockTableRecord
  2
*Model_Space
  0
BLOCK_RECORD
  5
211
100
AcDbSymbolTableRecord
100
AcDbBlockTableRecord
  2
*Paper_Space
  0
BLOCK_RECORD
  5
212
100
AcDbSymbolTableRecord
100
AcDbBlockTableRecord
  2
_FILLED
  0
ENDTAB
  0
TABLE
  2
DIMSTYLE
  5
A
100
AcDbSymbolTable
 70
1
100
AcDbDimStyleTable
 71
0
  0
DIMSTYLE
105
213
100
AcDbSymbolTableRecord
100
AcDbDimStyleTableRecord
  2
STANDARD
 70
0
  3

  4

 40
1.0
 41
0.538432422
 42
1.0
 43
0.38
 44
1.0
 45
0.0
 46
0.0
 47
0.01
 48
0.01
140
0.7538053909
141
0.09
142
0.0
143
25.4
144
1.0
145
0.0
146
1.0
147
0.625
 71
1
 72
0
 73
0
 74
0
 75
0
 76
0
 77
1
 78
8
 79
2
170
0
171
1
172
0
173
0
174
0
175
0
176
0
177
0
178
0
270
2
179
2
271
2
272
2
273
2
274
2
275
0
280
0
281
0
282
0
283
1
284
8
285
0
286
0
287
3
288
0
340
11
278
46
341
212
342
212
343
212
344
212
  0
ENDTAB
  0
ENDSEC
  0
SECTION
  2
BLOCKS
  0
BLOCK
  5
20
100
AcDbEntity
  8
0
100
AcDbBlockBegin
  2
*Model_Space
 70
0
 10
0.0
 20
0.0
 30
0.0
  3
*Model_Space
  1

  0
ENDBLK
  5
21
100
AcDbEntity
  8
0
100
AcDbBlockEnd
  0
BLOCK
  5
1C
100
AcDbEntity
  8
0
100
AcDbBlockBegin
  2
*Paper_Space
 70
0
 10
0.0
 20
0.0
 30
0.0
  3
*Paper_Space
  1

  0
ENDBLK
  5
1D
100
AcDbEntity
  8
0
100
AcDbBlockEnd
  0
BLOCK
  5
214
100
AcDbEntity
  8
0
100
AcDbBlockBegin
  2
_FILLED
 70
64
 10
0.0
 20
0.0
  3
_FILLED
  1

  0
SOLID
  5
215
100
AcDbEntity
  8
0
  6
BYBLOCK
 62
0
100
AcDbTrace
 10
0.0
 20
0.0
 11
-1.0
 21
0.25
 12
-1.0
 22
-0.25
 13
-1.0
 23
-0.25
  0
ENDBLK
  5
216
100
AcDbEntity
  8
0
  6
BYBLOCK
 62
0
100
AcDbBlockEnd
  0
ENDSEC
  0
SECTION
  2
ENTITIES
  0
LINE
  5
217
100
AcDbEntity
  8
0
100
AcDbLine
 62
7
  6
BYLAYER
 10
11.5912719666
 20
52.3507228261
 11
11.3912719666
 21
52.1507228261
  0
LINE
  5
218
100
AcDbEntity
  8
0
100
AcDbLine
 62
7
  6
BYLAYER
 10
27.5208833675
 20
8.9874279308
 11
23.5412892052
 21
8.9874279308
  0
LINE
  5
219
100
AcDbEntity
  8
0
100
AcDbLine
 62
7
  6
BYLAYER
 10
22.9397298989
 20
8.9874279308
 11
18.9601357366
 21
8.9874279308
  0
LINE
  5
21A
100
AcDbEntity
  8
0
100
AcDbLine
 62
7
  6
BYLAYER
 10
13.8065349558
 20
55.8007228261
 11
12.940509552
 21
54.3007228261
  0
LINE
  5
21B
100
AcDbEntity
  8
0
100
AcDbLine
 62
7
  6
BYLAYER
 10
10.0422902364
 20
28.6245761033
 11
9.8912719666
 21
30.3507228261
  0
LINE
  5
21C
100
AcDbEntity
  8
0
100
AcDbLine
 62
7
  6
BYLAYER
 10
9.740509552
 20
31.3507228261
 11
9.740509552
 21
30.3507228261
  0
LINE
  5
21D
100
AcDbEntity
  8
0
100
AcDbLine
 62
7
  6
BYLAYER
 10
9.740509552
 20
41.8007228261
 11
9.740509552
 21
48.3007228261
  0
LINE
  5
21E
100
AcDbEntity
  8
0
100
AcDbLine
 62
7
  6
BYLAYER
 10
9.790509552
 20
41.8007228261
 11
9.790509552
 21
31.3507228261
  0
LINE
  5
21F
100
AcDbEntity
  8
0
100
AcDbLine
 62
7
  6
BYLAYER
 10
10.240509552
 20
30.3507228261
 11
10.240509552
 21
31.3507228261
  0
LINE
  5
220
100
AcDbEntity
  8
0
100
AcDbLine
 62
7
  6
BYLAYER
 10
10.490509552
 20
31.3507228261
 11
10.490509552
 21
41.8007228261
  0
LINE
  5
221
100
AcDbEntity
  8
0
100
AcDbLine
 62
7
  6
BYLAYER
 10
10.8011697238
 20
46.3007228261
 11
10.8011697238
 21
48.3007228261
  0
LINE
  5
222
100
AcDbEntity
  8
0
100
AcDbLine
 62
7
  6
BYLAYER
 10
11.240509552
 20
48.3007228261
 11
11.240509552
 21
48.9007228261
  0
LINE
  5
223
100
AcDbEntity
  8
0
100
AcDbLine
 62
7
  6
BYLAYER
 10
11.3912719666
 20
48.9007228261
 11
11.3912719666
 21
52.1507228261
  0
LINE
  5
224
100
AcDbEntity
  8
0
100
AcDbLine
 62
7
  6
BYLAYER
 10
11.3991684059
 20
48.3007228261
 11
11.3991684059
 21
48.9007228261
  0
LINE
  5
225
100
AcDbEntity
  8
0
100
AcDbLine
 62
7
  6
BYLAYER
 10
28.030509552
 20
18.6007228261
 11
27.5208833675
 21
18.6007228261
  0
LINE
  5
226
100
AcDbEntity
  8
0
100
AcDbLine
 62
7
  6
BYLAYER
 10
18.9601357366
 20
18.6007228261
 11
18.450509552
 21
18.6007228261
  0
LINE
  5
227
100
AcDbEntity
  8
0
100
AcDbLine
 62
7
  6
BYLAYER
 10
12.4598285777
 20
48.9007228261
 11
12.4598285777
 21
48.3007228261
  0
LINE
  5
228
100
AcDbEntity
  8
0
100
AcDbLine
 62
7
  6
BYLAYER
 10
12.940509552
 20
52.3507228261
 11
12.940509552
 21
54.3007228261
  0
LINE
  5
229
100
AcDbEntity
  8
0
100
AcDbLine
 62
7
  6
BYLAYER
 10
13.7581476422
 20
48.3007228261
 11
13.7581476422
 21
48.9007228261
  0
LINE
  5
22A
100
AcDbEntity
  8
0
100
AcDbLine
 62
7
  6
BYLAYER
 10
14.3912719666
 20
48.9007228261
 11
14.3912719666
 21
52.1507228261
  0
LINE
  5
22B
100
AcDbEntity
  8
0
100
AcDbLine
 62
7
  6
BYLAYER
 10
31.940509552
 20
52.3507228261
 11
31.740509552
 21
52.1507228261
  0
LINE
  5
22C
100
AcDbEntity
  8
0
100
AcDbLine
 62
7
  6
BYLAYER
 10
29.403409552
 20
22.4257228261
 11
17.077609552
 21
22.4257228261
  0
LINE
  5
22D
100
AcDbEntity
  8
0
100
AcDbLine
 62
7
  6
BYLAYER
 10
17.077609552
 20
22.9242697696
 11
29.403409552
 21
22.9242697696
  0
LINE
  5
22E
100
AcDbEntity
  8
0
100
AcDbLine
 62
7
  6
BYLAYER
 10
30.6627876259
 20
23.3871697696
 11
15.8182314782
 21
23.3871697696
  0
LINE
  5
22F
100
AcDbEntity
  8
0
100
AcDbLine
 62
7
  6
BYLAYER
 10
31.6384244587
 20
24.2418228261
 11
14.8425946454
 21
24.2418228261
  0
LINE
  5
230
100
AcDbEntity
  8
0
100
AcDbLine
 62
7
  6
BYLAYER
 10
14.6741004364
 20
25.5107771676
 11
14.8425946454
 21
24.2418228261
  0
LINE
  5
231
100
AcDbEntity
  8
0
100
AcDbLine
 62
7
  6
BYLAYER
 10
17.077609552
 20
22.9242697696
 11
17.077609552
 21
22.4257228261
  0
LINE
  5
232
100
AcDbEntity
  8
0
100
AcDbLine
 62
7
  6
BYLAYER
 10
15.7402536968
 20
28.6245761033
 11
15.8912719666
 21
30.3507228261
  0
LINE
  5
233
100
AcDbEntity
  8
0
100
AcDbLine
 62
7
  6
BYLAYER
 10
14.6741004364
 20
25.5107771676
 11
31.8069186677
 21
25.5107771676
  0
LINE
  5
234
100
AcDbEntity
  8
0
100
AcDbLine
 62
7
  6
BYLAYER
 10
17.7080880955
 20
48.9007228261
 11
17.7080880955
 21
48.3007228261
  0
LINE
  5
235
100
AcDbEntity
  8
0
100
AcDbLine
 62
7
  6
BYLAYER
 10
17.932159552
 20
23.3871697696
 11
17.932159552
 21
22.9242697696
  0
LINE
  5
236
100
AcDbEntity
  8
0
100
AcDbLine
 62
7
  6
BYLAYER
 10
18.450509552
 20
22.4257228261
 11
18.450509552
 21
18.6007228261
  0
LINE
  5
237
100
AcDbEntity
  8
0
100
AcDbLine
 62
7
  6
BYLAYER
 10
18.9601357366
 20
18.6007228261
 11
18.9601357366
 21
8.9874279308
  0
LINE
  5
238
100
AcDbEntity
  8
0
100
AcDbLine
 62
7
  6
BYLAYER
 10
31.7337204557
 20
26.9896003947
 11
14.7472986484
 21
26.9896003947
  0
LINE
  5
239
100
AcDbEntity
  8
0
100
AcDbLine
 62
7
  6
BYLAYER
 10
35.7906328728
 20
28.3507228261
 11
30.6903862313
 21
28.3507228261
  0
LINE
  5
23A
100
AcDbEntity
  8
0
100
AcDbLine
 62
7
  6
BYLAYER
 10
15.4413849017
 20
28.3507228261
 11
10.3411590315
 21
28.3507228261
  0
LINE
  5
23B
100
AcDbEntity
  8
0
100
AcDbLine
 62
7
  6
BYLAYER
 10
36.0894912822
 20
28.6245761033
 11
30.3915278219
 21
28.6245761033
  0
LINE
  5
23C
100
AcDbEntity
  8
0
100
AcDbLine
 62
7
  6
BYLAYER
 10
15.7402536968
 20
28.6245761033
 11
10.0422902364
 21
28.6245761033
  0
LINE
  5
23D
100
AcDbEntity
  8
0
100
AcDbLine
 62
7
  6
BYLAYER
 10
36.740509552
 20
30.3507228261
 11
9.740509552
 21
30.3507228261
  0
LINE
  5
23E
100
AcDbEntity
  8
0
100
AcDbLine
 62
7
  6
BYLAYER
 10
9.740509552
 20
31.3507228261
 11
36.740509552
 21
31.3507228261
  0
LINE
  5
23F
100
AcDbEntity
  8
0
100
AcDbLine
 62
7
  6
BYLAYER
 10
27.5208833675
 20
8.9874279308
 11
27.5208833675
 21
18.6007228261
  0
LINE
  5
240
100
AcDbEntity
  8
0
100
AcDbLine
 62
7
  6
BYLAYER
 10
28.030509552
 20
22.4257228261
 11
28.030509552
 21
18.6007228261
  0
LINE
  5
241
100
AcDbEntity
  8
0
100
AcDbLine
 62
7
  6
BYLAYER
 10
28.548859552
 20
23.3871697696
 11
28.548859552
 21
22.9242697696
  0
LINE
  5
242
100
AcDbEntity
  8
0
100
AcDbLine
 62
7
  6
BYLAYER
 10
28.7729310086
 20
48.3007228261
 11
28.7729310086
 21
48.9007228261
  0
LINE
  5
243
100
AcDbEntity
  8
0
100
AcDbLine
 62
7
  6
BYLAYER
 10
29.403409552
 20
22.9242697696
 11
29.403409552
 21
22.4257228261
  0
LINE
  5
244
100
AcDbEntity
  8
0
100
AcDbLine
 62
7
  6
BYLAYER
 10
30.3915278219
 20
28.6245761033
 11
30.240509552
 21
30.3507228261
  0
LINE
  5
245
100
AcDbEntity
  8
0
100
AcDbLine
 62
7
  6
BYLAYER
 10
14.1912719666
 20
52.3507228261
 11
14.3912719666
 21
52.1507228261
  0
LINE
  5
246
100
AcDbEntity
  8
0
100
AcDbLine
 62
7
  6
BYLAYER
 10
31.740509552
 20
48.9007228261
 11
31.740509552
 21
52.1507228261
  0
LINE
  5
247
100
AcDbEntity
  8
0
100
AcDbLine
 62
7
  6
BYLAYER
 10
32.7228714618
 20
48.9007228261
 11
32.7228714618
 21
48.3007228261
  0
LINE
  5
248
100
AcDbEntity
  8
0
100
AcDbLine
 62
7
  6
BYLAYER
 10
33.540509552
 20
52.3507228261
 11
33.540509552
 21
54.3007228261
  0
LINE
  5
249
100
AcDbEntity
  8
0
100
AcDbLine
 62
7
  6
BYLAYER
 10
31.8069186677
 20
25.5107771676
 11
31.6384244587
 21
24.2418228261
  0
LINE
  5
24A
100
AcDbEntity
  8
0
100
AcDbLine
 62
7
  6
BYLAYER
 10
9.740509552
 20
41.8007228261
 11
36.740509552
 21
41.8007228261
  0
LINE
  5
24B
100
AcDbEntity
  8
0
100
AcDbLine
 62
7
  6
BYLAYER
 10
34.0211905264
 20
48.3007228261
 11
34.0211905264
 21
48.9007228261
  0
LINE
  5
24C
100
AcDbEntity
  8
0
100
AcDbLine
 62
7
  6
BYLAYER
 10
34.740509552
 20
48.3007228261
 11
34.740509552
 21
52.1507228261
  0
LINE
  5
24D
100
AcDbEntity
  8
0
100
AcDbLine
 62
7
  6
BYLAYER
 10
34.8100701225
 20
48.3007228261
 11
34.8100701225
 21
48.9007228261
  0
LINE
  5
24E
100
AcDbEntity
  8
0
100
AcDbLine
 62
7
  6
BYLAYER
 10
35.0818506981
 20
48.9007228261
 11
35.0818506981
 21
48.3007228261
  0
LINE
  5
24F
100
AcDbEntity
  8
0
100
AcDbLine
 62
7
  6
BYLAYER
 10
35.240509552
 20
48.9007228261
 11
35.240509552
 21
48.3007228261
  0
LINE
  5
250
100
AcDbEntity
  8
0
100
AcDbLine
 62
7
  6
BYLAYER
 10
35.6798493803
 20
46.3007228261
 11
35.6798493803
 21
48.3007228261
  0
LINE
  5
251
100
AcDbEntity
  8
0
100
AcDbLine
 62
7
  6
BYLAYER
 10
35.990509552
 20
41.8007228261
 11
35.990509552
 21
31.3507228261
  0
LINE
  5
252
100
AcDbEntity
  8
0
100
AcDbLine
 62
7
  6
BYLAYER
 10
36.240509552
 20
31.3507228261
 11
36.240509552
 21
30.3507228261
  0
LINE
  5
253
100
AcDbEntity
  8
0
100
AcDbLine
 62
7
  6
BYLAYER
 10
36.690509552
 20
31.3507228261
 11
36.690509552
 21
41.8007228261
  0
LINE
  5
254
100
AcDbEntity
  8
0
100
AcDbLine
 62
7
  6
BYLAYER
 10
36.740509552
 20
30.3507228261
 11
36.740509552
 21
31.3507228261
  0
LINE
  5
255
100
AcDbEntity
  8
0
100
AcDbLine
 62
7
  6
BYLAYER
 10
36.740509552
 20
41.8007228261
 11
36.740509552
 21
48.3007228261
  0
LINE
  5
256
100
AcDbEntity
  8
0
100
AcDbLine
 62
7
  6
BYLAYER
 10
36.0894912822
 20
28.6245761033
 11
36.240509552
 21
30.3507228261
  0
LINE
  5
257
100
AcDbEntity
  8
0
100
AcDbLine
 62
7
  6
BYLAYER
 10
9.740509552
 20
46.3007228261
 11
10.8011697238
 21
46.3007228261
  0
LINE
  5
258
100
AcDbEntity
  8
0
100
AcDbLine
 62
7
  6
BYLAYER
 10
35.6798493803
 20
46.3007228261
 11
36.740509552
 21
46.3007228261
  0
LINE
  5
259
100
AcDbEntity
  8
0
100
AcDbLine
 62
7
  6
BYLAYER
 10
9.740509552
 20
48.3007228261
 11
36.740509552
 21
48.3007228261
  0
LINE
  5
25A
100
AcDbEntity
  8
0
100
AcDbLine
 62
7
  6
BYLAYER
 10
11.240509552
 20
48.9007228261
 11
11.3991684059
 21
48.9007228261
  0
LINE
  5
25B
100
AcDbEntity
  8
0
100
AcDbLine
 62
7
  6
BYLAYER
 10
12.4598285777
 20
48.9007228261
 11
17.7080880955
 21
48.9007228261
  0
LINE
  5
25C
100
AcDbEntity
  8
0
100
AcDbLine
 62
7
  6
BYLAYER
 10
28.7729310086
 20
48.9007228261
 11
34.0211905264
 21
48.9007228261
  0
LINE
  5
25D
100
AcDbEntity
  8
0
100
AcDbLine
 62
7
  6
BYLAYER
 10
34.740509552
 20
48.9007228261
 11
35.240509552
 21
48.9007228261
  0
LINE
  5
25E
100
AcDbEntity
  8
0
100
AcDbLine
 62
7
  6
BYLAYER
 10
11.3912719666
 20
52.1507228261
 11
14.3912719666
 21
52.1507228261
  0
LINE
  5
25F
100
AcDbEntity
  8
0
100
AcDbLine
 62
7
  6
BYLAYER
 10
31.740509552
 20
52.1507228261
 11
34.740509552
 21
52.1507228261
  0
LINE
  5
260
100
AcDbEntity
  8
0
100
AcDbLine
 62
7
  6
BYLAYER
 10
11.5913050191
 20
52.3507228261
 11
14.1912389141
 21
52.3507228261
  0
LINE
  5
261
100
AcDbEntity
  8
0
100
AcDbLine
 62
7
  6
BYLAYER
 10
31.94056864
 20
52.3507228261
 11
34.5404504641
 21
52.3507228261
  0
LINE
  5
262
100
AcDbEntity
  8
0
100
AcDbLine
 62
7
  6
BYLAYER
 10
32.6744841483
 20
55.8007228261
 11
33.540509552
 21
54.3007228261
  0
LINE
  5
263
100
AcDbEntity
  8
0
100
AcDbLine
 62
7
  6
BYLAYER
 10
12.940509552
 20
54.3007228261
 11
33.540509552
 21
54.3007228261
  0
LINE
  5
264
100
AcDbEntity
  8
0
100
AcDbLine
 62
7
  6
BYLAYER
 10
34.540509552
 20
52.3507228261
 11
34.740509552
 21
52.1507228261
  0
LINE
  5
265
100
AcDbEntity
  8
0
100
AcDbLine
 62
7
  6
BYLAYER
 10
13.8066586168
 20
55.8007228261
 11
32.6743604873
 21
55.8007228261
  0
LINE
  5
266
100
AcDbEntity
  8
0
100
AcDbLine
 62
7
  6
BYLAYER
 10
27.0160742548
 20
56.2138987373
 11
19.4649448493
 21
56.2138987373
  0
LINE
  5
267
100
AcDbEntity
  8
0
100
AcDbLine
 62
7
  6
BYLAYER
 10
16.5647345777
 20
59.1507228261
 11
29.9162845264
 21
59.1507228261
  0
ARC
  5
268
100
AcDbEntity
  8
0
100
AcDbCircle
 62
7
  6
BYLAYER
 10
6.2782377133
 20
28.9808328968
 40
8.7
100
AcDbArc
 50
346.7690173308
 51
355.8461696131
  0
ARC
  5
269
100
AcDbEntity
  8
0
100
AcDbCircle
 62
7
  6
BYLAYER
 10
40.2027813908
 20
28.9808328968
 40
8.7
100
AcDbArc
 50
184.1538303869
 51
193.2309826692
  0
ARC
  5
26A
100
AcDbEntity
  8
0
100
AcDbCircle
 62
7
  6
BYLAYER
 10
23.240509552
 20
11.6007228261
 40
6.472499726
100
AcDbArc
 50
131.6836054508
 51
48.316394549
  0
ARC
  5
26B
100
AcDbEntity
  8
0
100
AcDbCircle
 62
7
  6
BYLAYER
 10
23.240509552
 20
11.6007228261
 40
6.2224992202
100
AcDbArc
 50
133.6099976986
 51
46.3899741418
  0
ARC
  5
26C
100
AcDbEntity
  8
0
100
AcDbCircle
 62
7
  6
BYLAYER
 10
23.240509552
 20
12.6007228261
 40
5.6015622821
100
AcDbArc
 50
220.1695200441
 51
319.8304799559
  0
ARC
  5
26D
100
AcDbEntity
  8
0
100
AcDbCircle
 62
7
  6
BYLAYER
 10
27.740509552
 20
26.0507228261
 40
4.1021
100
AcDbArc
 50
352.4364
 51
13.2309826692
  0
ARC
  5
26E
100
AcDbEntity
  8
0
100
AcDbCircle
 62
7
  6
BYLAYER
 10
18.740509552
 20
26.0507228261
 40
4.1021
100
AcDbArc
 50
166.7690173308
 51
187.5636
  0
ARC
  5
26F
100
AcDbEntity
  8
0
100
AcDbCircle
 62
7
  6
BYLAYER
 10
23.2406067469
 20
11.9575530078
 40
2.9853257304
100
AcDbArc
 50
264.215604135
 51
275.7843525429
  0
CIRCLE
  5
270
100
AcDbEntity
  8
0
100
AcDbCircle
 62
7
  6
BYLAYER
 10
23.240509552
 20
11.6007228261
 40
1.499999958
  0
CIRCLE
  5
271
100
AcDbEntity
  8
0
100
AcDbCircle
 62
7
  6
BYLAYER
 10
23.240509552
 20
11.6007228261
 40
1.2999995042
  0
ARC
  5
272
100
AcDbEntity
  8
0
100
AcDbCircle
 62
7
  6
BYLAYER
 10
15.8182314782
 20
24.3713697696
 40
0.9842
100
AcDbArc
 50
187.5636
 51
270.0
  0
ARC
  5
273
100
AcDbEntity
  8
0
100
AcDbCircle
 62
7
  6
BYLAYER
 10
30.6627876259
 20
24.3713697696
 40
0.9842
100
AcDbArc
 50
270.0
 51
352.4364
  0
CIRCLE
  5
274
100
AcDbEntity
  8
0
100
AcDbCircle
 62
7
  6
BYLAYER
 10
23.240509552
 20
11.6007228261
 40
0.9
  0
ARC
  5
275
100
AcDbEntity
  8
0
100
AcDbCircle
 62
7
  6
BYLAYER
 10
30.6903862313
 20
28.6507228261
 40
0.3
100
AcDbArc
 50
185.0
 51
270.0
  0
ARC
  5
276
100
AcDbEntity
  8
0
100
AcDbCircle
 62
7
  6
BYLAYER
 10
35.7906328728
 20
28.6507228261
 40
0.3
100
AcDbArc
 50
270.0
 51
355.0
  0
ARC
  5
277
100
AcDbEntity
  8
0
100
AcDbCircle
 62
7
  6
BYLAYER
 10
15.4413952873
 20
28.6507228261
 40
0.3
100
AcDbArc
 50
270.0
 51
355.0
  0
ARC
  5
278
100
AcDbEntity
  8
0
100
AcDbCircle
 62
7
  6
BYLAYER
 10
10.3411486459
 20
28.6507228261
 40
0.3
100
AcDbArc
 50
185.0
 51
270.0
  0
SPLINE
  5
279
100
AcDbEntity
  8
0
100
AcDbSpline
 62
7
  6
BYLAYER
 70
0
 71
3
 72
28
 73
24
 74
0
 42
0.0000001
 43
0.0000001
 44
0.0000000001
 40
0.0
 40
0.0
 40
0.0
 40
0.0
 40
0.0315053889
 40
0.062884598
 40
0.0941270399
 40
0.1252443714
 40
0.187163565
 40
0.2490579178
 40
0.3112222364
 40
0.3738175578
 40
0.4368177427
 40
0.5000160073
 40
0.5631131621
 40
0.5945606548
 40
0.6259000569
 40
0.6882000562
 40
0.7501572216
 40
0.8120308582
 40
0.8741469817
 40
0.9054338346
 40
0.9368576259
 40
0.968395167
 40
1.0
 40
1.0
 40
1.0
 40
1.0
 10
22.9397298989
 20
8.9874279308
 30
0.0
 10
22.8652193996
 20
9.000722751
 30
0.0
 10
22.7180704552
 20
9.0370725268
 30
0.0
 10
22.5066322845
 20
9.1187487934
 30
0.0
 10
22.3072847951
 20
9.2246290315
 30
0.0
 10
22.0605096889
 20
9.3935914398
 30
0.0
 10
21.7880808146
 20
9.6510765632
 30
0.0
 10
21.5236835002
 20
10.0138832297
 30
0.0
 10
21.3217456967
 20
10.41635809
 30
0.0
 10
21.1826633686
 20
10.8471853684
 30
0.0
 10
21.1072514797
 20
11.2960200215
 30
0.0
 10
21.0963467532
 20
11.7521396333
 30
0.0
 10
21.1412371326
 20
12.1298472788
 30
0.0
 10
21.2092908837
 20
12.4247524167
 30
0.0
 10
21.2982284082
 20
12.7120325486
 30
0.0
 10
21.4487207711
 20
13.0559379877
 30
0.0
 10
21.6921539526
 20
13.43348335
 30
0.0
 10
21.9980158868
 20
13.7624978818
 30
0.0
 10
22.3038991543
 20
13.9815256215
 30
0.0
 10
22.5744987472
 20
14.1121884667
 30
0.0
 10
22.789431327
 20
14.1853273939
 30
0.0
 10
23.0126977727
 20
14.2305233776
 30
0.0
 10
23.1645833556
 20
14.2407228261
 30
0.0
 10
23.240509552
 20
14.2407228261
 30
0.0
  0
SPLINE
  5
27A
100
AcDbEntity
  8
0
100
AcDbSpline
 62
7
  6
BYLAYER
 70
0
 71
3
 72
28
 73
24
 74
0
 42
0.0000001
 43
0.0000001
 44
0.0000000001
 40
0.0
 40
0.0
 40
0.0
 40
0.0
 40
0.0316048325
 40
0.0631423129
 40
0.0945660151
 40
0.1258528084
 40
0.1879689384
 40
0.2498426783
 40
0.311799961
 40
0.3741000182
 40
0.4054394306
 40
0.4368869192
 40
0.499984064
 40
0.56318231
 40
0.6261825087
 40
0.6887778542
 40
0.7509421394
 40
0.8128364373
 40
0.8747556131
 40
0.9058729546
 40
0.9371154328
 40
0.9684946339
 40
1.0
 40
1.0
 40
1.0
 40
1.0
 10
23.240509552
 20
14.2407228261
 30
0.0
 10
23.3164357472
 20
14.2407228261
 30
0.0
 10
23.4683211869
 20
14.2305234124
 30
0.0
 10
23.6915872659
 20
14.1853274715
 30
0.0
 10
23.9065194264
 20
14.1121888842
 30
0.0
 10
24.1771187364
 20
13.9815262397
 30
0.0
 10
24.483002303
 20
13.7624987301
 30
0.0
 10
24.7888647758
 20
13.4334839222
 30
0.0
 10
25.032298369
 20
13.0559380183
 30
0.0
 10
25.1827908549
 20
12.7120321423
 30
0.0
 10
25.2717283781
 20
12.4247518491
 30
0.0
 10
25.3397820598
 20
12.129846705
 30
0.0
 10
25.3846723741
 20
11.7521391324
 30
0.0
 10
25.3737675773
 20
11.2960195598
 30
0.0
 10
25.2983556363
 20
10.8471848683
 30
0.0
 10
25.1592732065
 20
10.4163576086
 30
0.0
 10
24.9573353863
 20
10.0138829348
 30
0.0
 10
24.6929382098
 20
9.6510764897
 30
0.0
 10
24.4205094469
 20
9.3935914722
 30
0.0
 10
24.1737342956
 20
9.2246290081
 30
0.0
 10
23.9743867094
 20
9.1187487524
 30
0.0
 10
23.7629485234
 20
9.0370724973
 30
0.0
 10
23.6157996528
 20
9.0007227276
 30
0.0
 10
23.5412892052
 20
8.9874279308
 30
0.0
  0
LINE
  5
27B
100
AcDbEntity
  8
0
100
AcDbLine
 62
7
  6
BYLAYER
 10
30.3366985283
 20
55.8007228261
 11
29.9162845264
 21
59.1507228261
  0
LINE
  5
27C
100
AcDbEntity
  8
0
100
AcDbLine
 62
7
  6
BYLAYER
 10
16.5647345777
 20
59.1507228261
 11
16.1443205758
 21
55.8007228261
  0
SPLINE
  5
27D
100
AcDbEntity
  8
0
100
AcDbSpline
 62
7
  6
BYLAYER
 70
0
 71
3
 72
14
 73
10
 74
0
 42
0.0000001
 43
0.0000001
 44
0.0000000001
 40
0.0
 40
0.0
 40
0.0
 40
0.0
 40
0.1054667656
 40
0.2140716321
 40
0.3279988121
 40
0.4488956881
 40
0.7121262171
 40
0.8539768054
 40
1.0
 40
1.0
 40
1.0
 40
1.0
 10
27.3682037888
 20
55.8007228261
 30
0.0
 10
27.347469385
 20
55.8007228261
 30
0.0
 10
27.305220416
 20
55.8059771498
 30
0.0
 10
27.2444012477
 20
55.8289730447
 30
0.0
 10
27.1875671657
 20
55.8663544223
 30
0.0
 10
27.1174990983
 20
55.9354616289
 30
0.0
 10
27.064476641
 20
56.0266341575
 30
0.0
 10
27.0303381524
 20
56.1296179369
 30
0.0
 10
27.0196693153
 20
56.1854170731
 30
0.0
 10
27.0160742548
 20
56.2138987373
 30
0.0
  0
SPLINE
  5
27E
100
AcDbEntity
  8
0
100
AcDbSpline
 62
7
  6
BYLAYER
 70
0
 71
3
 72
14
 73
10
 74
0
 42
0.0000001
 43
0.0000001
 44
0.0000000001
 40
0.0
 40
0.0
 40
0.0
 40
0.0
 40
0.1460266087
 40
0.2878799984
 40
0.5511059194
 40
0.672000052
 40
0.7859256219
 40
0.8945303076
 40
1.0
 40
1.0
 40
1.0
 40
1.0
 10
19.4649448493
 20
56.2138987373
 30
0.0
 10
19.4613494274
 20
56.1854142101
 30
0.0
 10
19.4506787755
 20
56.1296096783
 30
0.0
 10
19.4165362702
 20
56.0266180836
 30
0.0
 10
19.3635056819
 20
55.9354411776
 30
0.0
 10
19.2934284906
 20
55.8663351792
 30
0.0
 10
19.2365881102
 20
55.8289547055
 30
0.0
 10
19.1757583982
 20
55.8059701572
 30
0.0
 10
19.1335055692
 20
55.8007228261
 30
0.0
 10
19.1127689905
 20
55.8007228261
 30
0.0
  0
LINE
  5
27F
100
AcDbEntity
  8
0
100
AcDbLine
 62
7
  6
BYLAYER
 10
28.502070964
 20
59.1507228261
 11
28.9224849659
 21
55.8007228261
  0
LINE
  5
280
100
AcDbEntity
  8
0
100
AcDbLine
 62
7
  6
BYLAYER
 10
17.5585341382
 20
55.8007228261
 11
17.9789481401
 21
59.1507228261
  0
SPLINE
  5
281
100
AcDbEntity
  8
0
100
AcDbSpline
 62
7
  6
BYLAYER
 70
0
 71
3
 72
8
 73
4
 74
0
 42
0.0000001
 43
0.0000001
 44
0.0000000001
 40
0.0
 40
0.0
 40
0.0
 40
0.0
 40
1.0
 40
1.0
 40
1.0
 40
1.0
 10
27.0160742548
 20
56.2138987373
 30
0.0
 10
26.8925065514
 20
57.192856911
 30
0.0
 10
26.7688177444
 20
58.1717998113
 30
0.0
 10
26.6449718144
 20
59.1507228261
 30
0.0
  0
SPLINE
  5
282
100
AcDbEntity
  8
0
100
AcDbSpline
 62
7
  6
BYLAYER
 70
0
 71
3
 72
8
 73
4
 74
0
 42
0.0000001
 43
0.0000001
 44
0.0000000001
 40
0.0
 40
0.0
 40
0.0
 40
0.0
 40
1.0
 40
1.0
 40
1.0
 40
1.0
 10
19.8360472897
 20
59.1507228261
 30
0.0
 10
19.7122013597
 20
58.1717998113
 30
0.0
 10
19.5885125527
 20
57.192856911
 30
0.0
 10
19.4649448493
 20
56.2138987373
 30
0.0
  0
ENDSEC
  0
SECTION
  2
OBJECTS
  0
DICTIONARY
  5
C
100
AcDbDictionary
280
0
281
1
  3
ACAD_GROUP
350
D
  3
ACAD_MLINESTYLE
350
17
  3
ACAD_LAYOUT
350
1A
  3
ACAD_PLOTSETTINGS
350
19
  3
ACAD_PLOTSTYLENAME
350
E
  0
DICTIONARY
  5
D
102
{ACAD_REACTORS
330
C
102
}
100
AcDbDictionary
280
0
281
1
  0
ACDBDICTIONARYWDFLT
  5
E
102
{ACAD_REACTORS
330
C
102
}
100
AcDbDictionary
281
1
  3
Normal
350
F
100
AcDbDictionaryWithDefault
340
F
  0
DICTIONARY
  5
17
102
{ACAD_REACTORS
330
C
102
}
100
AcDbDictionary
280
0
281
1
  3
Standard
350
18
  0
DICTIONARY
  5
19
102
{ACAD_REACTORS
330
C
102
}
100
AcDbDictionary
281
1
  0
DICTIONARY
  5
1A
102
{ACAD_REACTORS
330
C
102
}
100
AcDbDictionary
281
1
  3
Model
350
283
  3
Layout1
350
284
  0
ACDBPLACEHOLDER
  5
F
102
{ACAD_REACTORS
330
E
102
}
  0
MLINESTYLE
  5
18
102
{ACAD_REACTORS
330
17
102
}
100
AcDbMlineStyle
  2
STANDARD
 70
0
  3

 62
256
 51
90.0
 52
90.0
 71
2
 49
0.5
 62
256
  6
BYLAYER
 49
-0.5
 62
256
  6
BYLAYER
  0
LAYOUT
  5
283
102
{ACAD_REACTORS
330
1A
102
}
100
AcDbPlotSettings
  1

  2
none_device
  4

  6

 40
0.0
 41
0.0
 42
0.0
 43
0.0
 44
210.0
 45
297.0
 46
0.0
 47
0.0
 48
0.0
 49
0.0
140
0.0
141
0.0
142
1.0
143
1.0
 70
1024
 72
1
 73
0
 74
0
  7

 75
0
147
1.0
148
0.0
149
0.0
100
AcDbLayout
  1
Model
 70
0
 71
0
 10
0.0
 20
0.0
 11
210.0
 21
297.0
 12
0.0
 22
0.0
 32
0.0
 14
0.0
 24
0.0
 34
0.0
 15
0.0
 25
0.0
 35
0.0
146
0.0
 13
0.0
 23
0.0
 33
0.0
 16
1.0
 26
0.0
 36
0.0
 17
0.0
 27
1.0
 37
0.0
 76
0
330
210
345
0
346
0
  0
LAYOUT
  5
284
102
{ACAD_REACTORS
330
1A
102
}
100
AcDbPlotSettings
  1

  2
none_device
  4

  6

 40
0.0
 41
0.0
 42
0.0
 43
0.0
 44
210.0
 45
297.0
 46
0.0
 47
0.0
 48
0.0
 49
0.0
140
0.0
141
0.0
142
1.0
143
1.0
 70
0
 72
1
 73
0
 74
0
  7

 75
0
147
1.0
148
0.0
149
0.0
100
AcDbLayout
  1
Layout1
 70
0
 71
1
 10
0.0
 20
0.0
 11
210.0
 21
297.0
 12
0.0
 22
0.0
 32
0.0
 14
0.0
 24
0.0
 34
0.0
 15
0.0
 25
0.0
 35
0.0
146
0.0
 13
0.0
 23
0.0
 33
0.0
 16
1.0
 26
0.0
 36
0.0
 17
0.0
 27
1.0
 37
0.0
 76
0
330
211
345
0
346
0
  0
ENDSEC
  0
EOF
