999
DXF file: C:\Users\sesa63760\Dev\_Creo\CAD\MCADID0004802_3D-CAD\drw0001_7.dxf
999
Pro/ENGINEER 2019471 by Parametric Technology Corporation
  0
SECTION
  2
HEADER
  9
$ACADVER
  1
AC1024
  9
$DWGCODEPAGE
  3
ANSI_1252
  9
$EXTMAX
 10
63.2031474482
 20
89.3873085339
 30
0.0
  9
$EXTMIN
 10
0.0
 20
0.0
 30
0.0
  9
$LIMMIN
 10
0.0
 20
0.0
  9
$LIMMAX
 10
63.2031474482
 20
89.3873085339
  9
$VIEWCTR
 10
31.6015737241
 20
44.693654267
  9
$VIEWSIZE
 40
89.3873085339
  9
$CLAYER
  8
0
  9
$LTSCALE
 40
5.82672826
  9
$CELTYPE
  6
BYLAYER
  9
$DIMSCALE
 40
1.0
  9
$DIMASZ
 40
0.752418422
  9
$DIMEXO
 40
1.0
  9
$DIMDLI
 40
4.0257395251
  9
$DIMEXE
 40
1.0
  9
$DIMCEN
 40
0.9534646244
  9
$DIMLFAC
 40
1.0
  9
$DIMBLK
  1
_FILLED
  9
$DIMALT
 70
0
  9
$DIMALTF
 40
0.0393700787
  9
$DIMTXT
 40
1.0533857908
  9
$DIMTOL
 70
1
  9
$DIMLIM
 70
0
  9
$DIMTFAC
 40
1.0
  9
$DIMTP
 40
0.01
  9
$DIMTM
 40
0.01
  9
$DIMGAP
 40
0.625
  9
$DIMDSEP
 70
46
  9
$AUNITS
 70
0
  9
$PDMODE
 70
3
  9
$PDSIZE
 40
0.3125
  9
$HANDSEED
  5
278
  9
$TILEMODE
 70
1
  9
$MEASUREMENT
 70
1
  9
$INSUNITS
 70
4
  0
ENDSEC
  0
SECTION
  2
CLASSES
  0
CLASS
  1
ACDBDICTIONARYWDFLT
  2
AcDbDictionaryWithDefault
  3
AutoCAD 2000
 90
0
 91
1
280
0
281
0
  0
CLASS
  1
ACDBPLACEHOLDER
  2
AcDbPlaceHolder
  3
AutoCAD 2000
 90
0
 91
1
280
0
281
0
  0
CLASS
  1
LAYOUT
  2
AcDbLayout
  3
AutoCAD 2000
 90
0
 91
0
280
0
281
0
  0
ENDSEC
  0
SECTION
  2
TABLES
  0
TABLE
  2
VPORT
  5
8
100
AcDbSymbolTable
 70
2
  0
VPORT
  5
1F4
100
AcDbSymbolTableRecord
100
AcDbViewportTableRecord
  2
*ACTIVE
 70
0
 10
0.0
 20
0.0
 11
1.0
 21
1.0
 12
31.6015737241
 22
44.693654267
 13
0.0
 23
0.0
 14
1.0
 24
1.0
 15
0.0
 25
0.0
 16
0.0
 26
0.0
 36
1.0
 17
0.0
 27
0.0
 37
0.0
 40
89.3873085339
 41
0.7070707071
 42
50.0
 43
0.0
 44
0.0
 50
0.0
 51
0.0
 71
0
 72
100
 73
1
 74
1
 75
0
 76
0
 77
0
 78
0
  0
ENDTAB
  0
TABLE
  2
LTYPE
  5
5
100
AcDbSymbolTable
 70
6
  0
LTYPE
  5
14
100
AcDbSymbolTableRecord
100
AcDbLinetypeTableRecord
  2
BYBLOCK
 70
0
  3

 72
65
 73
0
 40
0.0
  0
LTYPE
  5
15
100
AcDbSymbolTableRecord
100
AcDbLinetypeTableRecord
  2
BYLAYER
 70
0
  3

 72
65
 73
0
 40
0.0
  0
LTYPE
  5
16
100
AcDbSymbolTableRecord
100
AcDbLinetypeTableRecord
  2
CONTINUOUS
 70
64
  3
Solid line
 72
65
 73
0
 40
0.0
  0
LTYPE
  5
1F5
100
AcDbSymbolTableRecord
100
AcDbLinetypeTableRecord
  2
CENTER
 70
64
  3
____ _ ____ _ ____ _ ____ _ ____ _ ____ _ ____
 72
65
 73
4
 40
0.6
 49
0.375
 74
0
 49
-0.075
 74
0
 49
0.075
 74
0
 49
-0.075
 74
0
  0
LTYPE
  5
1F6
100
AcDbSymbolTableRecord
100
AcDbLinetypeTableRecord
  2
HIDDEN
 70
64
  3
- - - - - - - - - - - - - - - - - - - -
 72
65
 73
2
 40
0.2
 49
0.1
 74
0
 49
-0.1
 74
0
  0
LTYPE
  5
1F7
100
AcDbSymbolTableRecord
100
AcDbLinetypeTableRecord
  2
PHANTOM
 70
64
  3
_____ _ _ _____ _ _ _____ _ _ _____
 72
65
 73
6
 40
0.8
 49
0.45
 74
0
 49
-0.05
 74
0
 49
0.1
 74
0
 49
-0.05
 74
0
 49
0.1
 74
0
 49
-0.05
 74
0
  0
LTYPE
  5
1F8
100
AcDbSymbolTableRecord
100
AcDbLinetypeTableRecord
  2
DOT
 70
64
  3
. . . . . . . . . . . . . . . . . . . .
 72
65
 73
2
 40
0.2
 49
0.1
 74
0
 49
-0.1
 74
0
  0
LTYPE
  5
1F9
100
AcDbSymbolTableRecord
100
AcDbLinetypeTableRecord
  2
DASHED
 70
64
  3
- - - - - - - - - - - - - - - - - - - -
 72
65
 73
2
 40
0.2
 49
0.1
 74
0
 49
-0.1
 74
0
  0
ENDTAB
  0
TABLE
  2
LAYER
  5
2
100
AcDbSymbolTable
 70
36
  0
LAYER
  5
10
100
AcDbSymbolTableRecord
100
AcDbLayerTableRecord
  2
0
 70
0
 62
7
  6
CONTINUOUS
370
-3
390
F
  0
LAYER
  5
1FA
100
AcDbSymbolTableRecord
100
AcDbLayerTableRecord
  2
DEFAULT_1
 70
0
 62
7
  6
CENTER
370
-3
390
F
  0
LAYER
  5
1FB
100
AcDbSymbolTableRecord
100
AcDbLayerTableRecord
  2
DEFAULT_2
 70
0
 62
7
  6
HIDDEN
370
-3
390
F
  0
LAYER
  5
1FC
100
AcDbSymbolTableRecord
100
AcDbLayerTableRecord
  2
DEFAULT_3
 70
0
 62
7
  6
PHANTOM
370
-3
390
F
  0
LAYER
  5
1FD
100
AcDbSymbolTableRecord
100
AcDbLayerTableRecord
  2
00_COMPONENTS
 70
0
 62
7
  6
CONTINUOUS
370
-3
390
F
  0
LAYER
  5
1FE
100
AcDbSymbolTableRecord
100
AcDbLayerTableRecord
  2
01_1_DEFAULT_DATUMS
 70
0
 62
7
  6
CONTINUOUS
370
-3
390
F
  0
LAYER
  5
1FF
100
AcDbSymbolTableRecord
100
AcDbLayerTableRecord
  2
01_PLANES
 70
0
 62
7
  6
CONTINUOUS
370
-3
390
F
  0
LAYER
  5
200
100
AcDbSymbolTableRecord
100
AcDbLayerTableRecord
  2
02_COORD_SYS
 70
0
 62
7
  6
CONTINUOUS
370
-3
390
F
  0
LAYER
  5
201
100
AcDbSymbolTableRecord
100
AcDbLayerTableRecord
  2
03_AXES
 70
0
 62
7
  6
CONTINUOUS
370
-3
390
F
  0
LAYER
  5
202
100
AcDbSymbolTableRecord
100
AcDbLayerTableRecord
  2
04_POINTS
 70
0
 62
7
  6
CONTINUOUS
370
-3
390
F
  0
LAYER
  5
203
100
AcDbSymbolTableRecord
100
AcDbLayerTableRecord
  2
05_CURVES
 70
0
 62
7
  6
CONTINUOUS
370
-3
390
F
  0
LAYER
  5
204
100
AcDbSymbolTableRecord
100
AcDbLayerTableRecord
  2
06_SURFS
 70
0
 62
7
  6
CONTINUOUS
370
-3
390
F
  0
LAYER
  5
205
100
AcDbSymbolTableRecord
100
AcDbLayerTableRecord
  2
07_COSMETICS
 70
0
 62
7
  6
CONTINUOUS
370
-3
390
F
  0
LAYER
  5
206
100
AcDbSymbolTableRecord
100
AcDbLayerTableRecord
  2
10_NOTES
 70
0
 62
7
  6
CONTINUOUS
370
-3
390
F
  0
LAYER
  5
207
100
AcDbSymbolTableRecord
100
AcDbLayerTableRecord
  2
11_NOTES_PUB
 70
0
 62
7
  6
CONTINUOUS
370
-3
390
F
  0
LAYER
  5
208
100
AcDbSymbolTableRecord
100
AcDbLayerTableRecord
  2
13_REF_GTOL
 70
0
 62
7
  6
CONTINUOUS
370
-3
390
F
  0
LAYER
  5
209
100
AcDbSymbolTableRecord
100
AcDbLayerTableRecord
  2
16_MISC
 70
0
 62
7
  6
CONTINUOUS
370
-3
390
F
  0
LAYER
  5
20A
100
AcDbSymbolTableRecord
100
AcDbLayerTableRecord
  2
17_NO_PRINT
 70
0
 62
7
  6
CONTINUOUS
370
-3
390
F
  0
LAYER
  5
20B
100
AcDbSymbolTableRecord
100
AcDbLayerTableRecord
  2
18_DATUM_CAMS_JOINTS
 70
0
 62
7
  6
CONTINUOUS
370
-3
390
F
  0
LAYER
  5
20C
100
AcDbSymbolTableRecord
100
AcDbLayerTableRecord
  2
19_DATUM_FUNCTIONAL
 70
0
 62
7
  6
CONTINUOUS
370
-3
390
F
  0
LAYER
  5
20D
100
AcDbSymbolTableRecord
100
AcDbLayerTableRecord
  2
20_DATUM_KINEMATIC_SCHEME
 70
0
 62
7
  6
CONTINUOUS
370
-3
390
F
  0
ENDTAB
  0
TABLE
  2
STYLE
  5
3
100
AcDbSymbolTable
 70
1
  0
STYLE
  5
11
100
AcDbSymbolTableRecord
100
AcDbTextStyleTableRecord
  2
STANDARD
 70
0
 40
0.0
 41
1.0
 50
0.0
 71
0
 42
0.2
  3
ARIAL.TTF
  4

  0
STYLE
  5
20E
100
AcDbSymbolTableRecord
100
AcDbTextStyleTableRecord
  2
TEXTSTYLE_1
 70
0
 40
0.0
 41
0.8
 50
0.0
 71
0
 42
0.2
  3
gdt
  4

  0
ENDTAB
  0
TABLE
  2
VIEW
  5
6
100
AcDbSymbolTable
 70
0
  0
ENDTAB
  0
TABLE
  2
UCS
  5
7
100
AcDbSymbolTable
 70
0
  0
ENDTAB
  0
TABLE
  2
APPID
  5
9
100
AcDbSymbolTable
 70
1
  0
APPID
  5
20F
100
AcDbSymbolTableRecord
100
AcDbRegAppTableRecord
  2
ACAD
 70
0
  0
ENDTAB
  0
TABLE
  2
BLOCK_RECORD
  5
1
100
AcDbSymbolTable
 70
0
  0
BLOCK_RECORD
  5
210
100
AcDbSymbolTableRecord
100
AcDbBlockTableRecord
  2
*Model_Space
  0
BLOCK_RECORD
  5
211
100
AcDbSymbolTableRecord
100
AcDbBlockTableRecord
  2
*Paper_Space
  0
BLOCK_RECORD
  5
212
100
AcDbSymbolTableRecord
100
AcDbBlockTableRecord
  2
_FILLED
  0
ENDTAB
  0
TABLE
  2
DIMSTYLE
  5
A
100
AcDbSymbolTable
 70
1
100
AcDbDimStyleTable
 71
0
  0
DIMSTYLE
105
213
100
AcDbSymbolTableRecord
100
AcDbDimStyleTableRecord
  2
STANDARD
 70
0
  3

  4

 40
1.0
 41
0.752418422
 42
1.0
 43
0.38
 44
1.0
 45
0.0
 46
0.0
 47
0.01
 48
0.01
140
1.0533857908
141
0.09
142
0.0
143
25.4
144
1.0
145
0.0
146
1.0
147
0.625
 71
1
 72
0
 73
0
 74
0
 75
0
 76
0
 77
1
 78
8
 79
2
170
0
171
1
172
0
173
0
174
0
175
0
176
0
177
0
178
0
270
2
179
2
271
2
272
2
273
2
274
2
275
0
280
0
281
0
282
0
283
1
284
8
285
0
286
0
287
3
288
0
340
11
278
46
341
212
342
212
343
212
344
212
  0
ENDTAB
  0
ENDSEC
  0
SECTION
  2
BLOCKS
  0
BLOCK
  5
20
100
AcDbEntity
  8
0
100
AcDbBlockBegin
  2
*Model_Space
 70
0
 10
0.0
 20
0.0
 30
0.0
  3
*Model_Space
  1

  0
ENDBLK
  5
21
100
AcDbEntity
  8
0
100
AcDbBlockEnd
  0
BLOCK
  5
1C
100
AcDbEntity
  8
0
100
AcDbBlockBegin
  2
*Paper_Space
 70
0
 10
0.0
 20
0.0
 30
0.0
  3
*Paper_Space
  1

  0
ENDBLK
  5
1D
100
AcDbEntity
  8
0
100
AcDbBlockEnd
  0
BLOCK
  5
214
100
AcDbEntity
  8
0
100
AcDbBlockBegin
  2
_FILLED
 70
64
 10
0.0
 20
0.0
  3
_FILLED
  1

  0
SOLID
  5
215
100
AcDbEntity
  8
0
  6
BYBLOCK
 62
0
100
AcDbTrace
 10
0.0
 20
0.0
 11
-1.0
 21
0.25
 12
-1.0
 22
-0.25
 13
-1.0
 23
-0.25
  0
ENDBLK
  5
216
100
AcDbEntity
  8
0
  6
BYBLOCK
 62
0
100
AcDbBlockEnd
  0
ENDSEC
  0
SECTION
  2
ENTITIES
  0
LINE
  5
217
100
AcDbEntity
  8
0
100
AcDbLine
 62
7
  6
BYLAYER
 10
30.6109829145
 20
16.6033905818
 11
32.8109829145
 21
16.6033905818
  0
LINE
  5
218
100
AcDbEntity
  8
0
100
AcDbLine
 62
7
  6
BYLAYER
 10
26.9109829145
 20
20.3033905818
 11
23.7869687802
 21
20.3033905818
  0
LINE
  5
219
100
AcDbEntity
  8
0
100
AcDbLine
 62
7
  6
BYLAYER
 10
36.5109829145
 20
20.3033905818
 11
39.6349970487
 21
20.3033905818
  0
LINE
  5
21A
100
AcDbEntity
  8
0
100
AcDbLine
 62
7
  6
BYLAYER
 10
26.9109829145
 20
22.5033905818
 11
23.7869687802
 21
22.5033905818
  0
LINE
  5
21B
100
AcDbEntity
  8
0
100
AcDbLine
 62
7
  6
BYLAYER
 10
36.5109829145
 20
22.5033905818
 11
39.6349970487
 21
22.5033905818
  0
LINE
  5
21C
100
AcDbEntity
  8
0
100
AcDbLine
 62
7
  6
BYLAYER
 10
32.8109829145
 20
26.2033905818
 11
30.6109829145
 21
26.2033905818
  0
LINE
  5
21D
100
AcDbEntity
  8
0
100
AcDbLine
 62
7
  6
BYLAYER
 10
26.9109829145
 20
22.5033905818
 11
26.9109829145
 21
20.3033905818
  0
LINE
  5
21E
100
AcDbEntity
  8
0
100
AcDbLine
 62
7
  6
BYLAYER
 10
27.4609829145
 20
68.8944597315
 11
27.4609829145
 21
61.2775994109
  0
LINE
  5
21F
100
AcDbEntity
  8
0
100
AcDbLine
 62
7
  6
BYLAYER
 10
27.4609829145
 20
41.5291817528
 11
27.4609829145
 21
33.9123214321
  0
LINE
  5
220
100
AcDbEntity
  8
0
100
AcDbLine
 62
7
  6
BYLAYER
 10
30.2109829145
 20
72.0991026981
 11
30.2109829145
 21
59.2615074046
  0
LINE
  5
221
100
AcDbEntity
  8
0
100
AcDbLine
 62
7
  6
BYLAYER
 10
30.2109829145
 20
43.5452737591
 11
30.2109829145
 21
30.7076784655
  0
LINE
  5
222
100
AcDbEntity
  8
0
100
AcDbLine
 62
7
  6
BYLAYER
 10
30.6109829145
 20
16.6033905818
 11
30.6109829145
 21
13.4793764476
  0
LINE
  5
223
100
AcDbEntity
  8
0
100
AcDbLine
 62
7
  6
BYLAYER
 10
30.6109829145
 20
26.2033905818
 11
30.6109829145
 21
26.4613961954
  0
LINE
  5
224
100
AcDbEntity
  8
0
100
AcDbLine
 62
7
  6
BYLAYER
 10
32.5719829145
 20
47.3556623301
 11
32.5719829145
 21
48.3033859044
  0
LINE
  5
225
100
AcDbEntity
  8
0
100
AcDbLine
 62
7
  6
BYLAYER
 10
32.5719829145
 20
54.5033952592
 11
32.5719829145
 21
55.4511188336
  0
LINE
  5
226
100
AcDbEntity
  8
0
100
AcDbLine
 62
7
  6
BYLAYER
 10
32.8109829145
 20
26.4620284558
 11
32.8109829145
 21
26.2033905818
  0
LINE
  5
227
100
AcDbEntity
  8
0
100
AcDbLine
 62
7
  6
BYLAYER
 10
32.8109829145
 20
16.6033905818
 11
32.8109829145
 21
13.4793764476
  0
LINE
  5
228
100
AcDbEntity
  8
0
100
AcDbLine
 62
7
  6
BYLAYER
 10
33.2109829145
 20
30.7076784655
 11
33.2109829145
 21
43.5452737591
  0
LINE
  5
229
100
AcDbEntity
  8
0
100
AcDbLine
 62
7
  6
BYLAYER
 10
33.2109829145
 20
59.2615074046
 11
33.2109829145
 21
72.0991026981
  0
LINE
  5
22A
100
AcDbEntity
  8
0
100
AcDbLine
 62
7
  6
BYLAYER
 10
14.2199137648
 20
47.1533905818
 11
21.8367740854
 21
47.1533905818
  0
LINE
  5
22B
100
AcDbEntity
  8
0
100
AcDbLine
 62
7
  6
BYLAYER
 10
41.5851917435
 20
47.1533905818
 11
49.2020520642
 21
47.1533905818
  0
LINE
  5
22C
100
AcDbEntity
  8
0
100
AcDbLine
 62
7
  6
BYLAYER
 10
35.9609829145
 20
33.9123214321
 11
35.9609829145
 21
41.5291817528
  0
LINE
  5
22D
100
AcDbEntity
  8
0
100
AcDbLine
 62
7
  6
BYLAYER
 10
35.9609829145
 20
61.2775994109
 11
35.9609829145
 21
68.8944597315
  0
LINE
  5
22E
100
AcDbEntity
  8
0
100
AcDbLine
 62
7
  6
BYLAYER
 10
36.5109829145
 20
20.3033905818
 11
36.5109829145
 21
22.5033905818
  0
LINE
  5
22F
100
AcDbEntity
  8
0
100
AcDbLine
 62
7
  6
BYLAYER
 10
29.5748020221
 20
49.1831151034
 11
26.8438668733
 21
48.4513632357
  0
LINE
  5
230
100
AcDbEntity
  8
0
100
AcDbLine
 62
7
  6
BYLAYER
 10
11.0152707982
 20
49.9033905818
 11
23.8528660917
 21
49.9033905818
  0
LINE
  5
231
100
AcDbEntity
  8
0
100
AcDbLine
 62
7
  6
BYLAYER
 10
39.5690997372
 20
49.9033905818
 11
52.4066950308
 21
49.9033905818
  0
LINE
  5
232
100
AcDbEntity
  8
0
100
AcDbLine
 62
7
  6
BYLAYER
 10
35.777992357
 20
52.4931424776
 11
34.9291253897
 21
52.2656892592
  0
LINE
  5
233
100
AcDbEntity
  8
0
100
AcDbLine
 62
7
  6
BYLAYER
 10
52.4066950308
 20
52.9033905818
 11
39.5690997372
 21
52.9033905818
  0
LINE
  5
234
100
AcDbEntity
  8
0
100
AcDbLine
 62
7
  6
BYLAYER
 10
23.8528660917
 20
52.9033905818
 11
11.0152707982
 21
52.9033905818
  0
LINE
  5
235
100
AcDbEntity
  8
0
100
AcDbLine
 62
7
  6
BYLAYER
 10
34.9291253897
 20
50.5410919045
 11
35.777992357
 21
50.3136386861
  0
LINE
  5
236
100
AcDbEntity
  8
0
100
AcDbLine
 62
7
  6
BYLAYER
 10
26.8438668733
 20
54.355417928
 11
29.5748020221
 21
53.6236660603
  0
LINE
  5
237
100
AcDbEntity
  8
0
100
AcDbLine
 62
7
  6
BYLAYER
 10
49.2020520642
 20
55.6533905818
 11
41.5851917435
 21
55.6533905818
  0
LINE
  5
238
100
AcDbEntity
  8
0
100
AcDbLine
 62
7
  6
BYLAYER
 10
21.8367740854
 20
55.6533905818
 11
14.2199137648
 21
55.6533905818
  0
ARC
  5
239
100
AcDbEntity
  8
0
100
AcDbCircle
 62
7
  6
BYLAYER
 10
16.7109829145
 20
31.3532649529
 40
10.0
100
AcDbArc
 50
326.4426902376
 51
336.0917052469
  0
ARC
  5
23A
100
AcDbEntity
  8
0
100
AcDbCircle
 62
7
  6
BYLAYER
 10
26.9344535391
 20
54.6934919672
 40
0.35
100
AcDbArc
 50
145.4407019611
 51
254.9999999998
  0
ARC
  5
23B
100
AcDbEntity
  8
0
100
AcDbCircle
 62
7
  6
BYLAYER
 10
26.9344535391
 20
48.1132891965
 40
0.35
100
AcDbArc
 50
105.0000000002
 51
214.5592923507
  0
ARC
  5
23C
100
AcDbEntity
  8
0
100
AcDbCircle
 62
7
  6
BYLAYER
 10
29.620095355
 20
49.0140780838
 40
0.175
100
AcDbArc
 50
48.8108411068
 51
105.0000000011
  0
ARC
  5
23D
100
AcDbEntity
  8
0
100
AcDbCircle
 62
7
  6
BYLAYER
 10
29.620095355
 20
53.7927030799
 40
0.175
100
AcDbArc
 50
254.9999999989
 51
311.1891726918
  0
ARC
  5
23E
100
AcDbEntity
  8
0
100
AcDbCircle
 62
7
  6
BYLAYER
 10
46.7109829145
 20
31.3532649529
 40
10.0
100
AcDbArc
 50
203.9116462105
 51
213.5573097621
  0
ARC
  5
23F
100
AcDbEntity
  8
0
100
AcDbCircle
 62
7
  6
BYLAYER
 10
31.7109829145
 20
21.4033905818
 40
8.0
100
AcDbArc
 50
146.4426902386
 51
172.0967922665
  0
ARC
  5
240
100
AcDbEntity
  8
0
100
AcDbCircle
 62
7
  6
BYLAYER
 10
31.7109829145
 20
21.4033905818
 40
8.0
100
AcDbArc
 50
7.9032077335
 51
33.5573097617
  0
ARC
  5
241
100
AcDbEntity
  8
0
100
AcDbCircle
 62
7
  6
BYLAYER
 10
31.7109829145
 20
21.4033905818
 40
8.0
100
AcDbArc
 50
277.9032077335
 51
352.0967922665
  0
ARC
  5
242
100
AcDbEntity
  8
0
100
AcDbCircle
 62
7
  6
BYLAYER
 10
31.7109829145
 20
21.4033905818
 40
8.0
100
AcDbArc
 50
187.9032077335
 51
262.0967922665
  0
CIRCLE
  5
243
100
AcDbEntity
  8
0
100
AcDbCircle
 62
7
  6
BYLAYER
 10
31.7109829145
 20
21.4033905818
 40
3.1
  0
ARC
  5
244
100
AcDbEntity
  8
0
100
AcDbCircle
 62
7
  6
BYLAYER
 10
32.9219829145
 20
47.3556623301
 40
0.35
100
AcDbArc
 50
180.0
 51
286.6561398613
  0
ARC
  5
245
100
AcDbEntity
  8
0
100
AcDbCircle
 62
7
  6
BYLAYER
 10
32.3969829145
 20
48.3033859044
 40
0.175
100
AcDbArc
 50
0.0
 51
102.4778981812
  0
CIRCLE
  5
246
100
AcDbEntity
  8
0
100
AcDbCircle
 62
7
  6
BYLAYER
 10
31.7109829145
 20
51.4033905818
 40
25.0
  0
ARC
  5
247
100
AcDbEntity
  8
0
100
AcDbCircle
 62
7
  6
BYLAYER
 10
31.7109829145
 20
51.4033905818
 40
20.75
100
AcDbArc
 50
274.1454794601
 51
355.8545205399
  0
ARC
  5
248
100
AcDbEntity
  8
0
100
AcDbCircle
 62
7
  6
BYLAYER
 10
31.7109829145
 20
51.4033905818
 40
20.75
100
AcDbArc
 50
4.1454794601
 51
85.8545205399
  0
ARC
  5
249
100
AcDbEntity
  8
0
100
AcDbCircle
 62
7
  6
BYLAYER
 10
31.7109829145
 20
51.4033905818
 40
20.75
100
AcDbArc
 50
94.1454794601
 51
175.8545205399
  0
ARC
  5
24A
100
AcDbEntity
  8
0
100
AcDbCircle
 62
7
  6
BYLAYER
 10
31.7109829145
 20
51.4033905818
 40
20.75
100
AcDbArc
 50
184.1454794601
 51
265.8545205399
  0
ARC
  5
24B
100
AcDbEntity
  8
0
100
AcDbCircle
 62
7
  6
BYLAYER
 10
31.7109829145
 20
51.4033905818
 40
18.0
100
AcDbArc
 50
283.6571280148
 51
346.3428719852
  0
ARC
  5
24C
100
AcDbEntity
  8
0
100
AcDbCircle
 62
7
  6
BYLAYER
 10
31.7109829145
 20
51.4033905818
 40
18.0
100
AcDbArc
 50
193.6571280148
 51
256.3428719852
  0
ARC
  5
24D
100
AcDbEntity
  8
0
100
AcDbCircle
 62
7
  6
BYLAYER
 10
31.7109829145
 20
51.4033905818
 40
18.0
100
AcDbArc
 50
13.6571280148
 51
76.3428719852
  0
ARC
  5
24E
100
AcDbEntity
  8
0
100
AcDbCircle
 62
7
  6
BYLAYER
 10
31.7109829145
 20
51.4033905818
 40
18.0
100
AcDbArc
 50
103.6571280148
 51
166.3428719852
  0
ARC
  5
24F
100
AcDbEntity
  8
0
100
AcDbCircle
 62
7
  6
BYLAYER
 10
31.7109829145
 20
51.4033905818
 40
10.75
100
AcDbArc
 50
293.2877319182
 51
336.7122680818
  0
ARC
  5
250
100
AcDbEntity
  8
0
100
AcDbCircle
 62
7
  6
BYLAYER
 10
31.7109829145
 20
51.4033905818
 40
10.75
100
AcDbArc
 50
203.2877319182
 51
246.7122680818
  0
ARC
  5
251
100
AcDbEntity
  8
0
100
AcDbCircle
 62
7
  6
BYLAYER
 10
31.7109829145
 20
51.4033905818
 40
10.75
100
AcDbArc
 50
23.2877319182
 51
66.7122680818
  0
ARC
  5
252
100
AcDbEntity
  8
0
100
AcDbCircle
 62
7
  6
BYLAYER
 10
31.7109829145
 20
51.4033905818
 40
10.75
100
AcDbArc
 50
113.2877319182
 51
156.7122680818
  0
ARC
  5
253
100
AcDbEntity
  8
0
100
AcDbCircle
 62
7
  6
BYLAYER
 10
31.7109829145
 20
51.4033905818
 40
8.0
100
AcDbArc
 50
280.8069228749
 51
349.1930771251
  0
ARC
  5
254
100
AcDbEntity
  8
0
100
AcDbCircle
 62
7
  6
BYLAYER
 10
31.7109829145
 20
51.4033905818
 40
8.0
100
AcDbArc
 50
10.8069228749
 51
79.1930771251
  0
ARC
  5
255
100
AcDbEntity
  8
0
100
AcDbCircle
 62
7
  6
BYLAYER
 10
31.7109829145
 20
51.4033905818
 40
8.0
100
AcDbArc
 50
100.8069228749
 51
169.1930771251
  0
ARC
  5
256
100
AcDbEntity
  8
0
100
AcDbCircle
 62
7
  6
BYLAYER
 10
31.7109829145
 20
51.4033905818
 40
8.0
100
AcDbArc
 50
190.8069228749
 51
259.1930771251
  0
CIRCLE
  5
257
100
AcDbEntity
  8
0
100
AcDbCircle
 62
7
  6
BYLAYER
 10
31.7109829145
 20
51.4033905818
 40
7.0
  0
ARC
  5
258
100
AcDbEntity
  8
0
100
AcDbCircle
 62
7
  6
BYLAYER
 10
31.7109829145
 20
51.4033905818
 40
6.15
100
AcDbArc
 50
214.5592977149
 51
145.4407019613
  0
ARC
  5
259
100
AcDbEntity
  8
0
100
AcDbCircle
 62
7
  6
BYLAYER
 10
31.7109829145
 20
51.4033905818
 40
4.575
100
AcDbArc
 50
286.6561398612
 51
340.2481586173
  0
ARC
  5
25A
100
AcDbEntity
  8
0
100
AcDbCircle
 62
7
  6
BYLAYER
 10
31.7109829145
 20
51.4033905818
 40
4.575
100
AcDbArc
 50
19.7518414635
 51
73.3438602196
  0
ARC
  5
25B
100
AcDbEntity
  8
0
100
AcDbCircle
 62
7
  6
BYLAYER
 10
31.7109829145
 20
51.4033905818
 40
3.0625
100
AcDbArc
 50
284.8615602521
 51
341.4579122418
  0
ARC
  5
25C
100
AcDbEntity
  8
0
100
AcDbCircle
 62
7
  6
BYLAYER
 10
31.7109829145
 20
51.4033905818
 40
3.0625
100
AcDbArc
 50
131.9440540284
 51
228.047680789
  0
ARC
  5
25D
100
AcDbEntity
  8
0
100
AcDbCircle
 62
7
  6
BYLAYER
 10
31.7109829145
 20
51.4033905818
 40
3.0625
100
AcDbArc
 50
18.5879478603
 51
75.1107300843
  0
CIRCLE
  5
25E
100
AcDbEntity
  8
0
100
AcDbCircle
 62
7
  6
BYLAYER
 10
31.7109829145
 20
51.4033905818
 40
3.0
  0
CIRCLE
  5
25F
100
AcDbEntity
  8
0
100
AcDbCircle
 62
7
  6
BYLAYER
 10
31.7109829145
 20
51.4033905818
 40
2.0
  0
ARC
  5
260
100
AcDbEntity
  8
0
100
AcDbCircle
 62
7
  6
BYLAYER
 10
32.9219829145
 20
55.4511188336
 40
0.35
100
AcDbArc
 50
73.3438611949
 51
180.0
  0
ARC
  5
261
100
AcDbEntity
  8
0
100
AcDbCircle
 62
7
  6
BYLAYER
 10
32.3969829145
 20
54.5033952592
 40
0.175
100
AcDbArc
 50
257.5220880197
 51
360.0
  0
ARC
  5
262
100
AcDbEntity
  8
0
100
AcDbCircle
 62
7
  6
BYLAYER
 10
35.6874056912
 20
49.9755646469
 40
0.35
100
AcDbArc
 50
340.2481595927
 51
74.9999999996
  0
ARC
  5
263
100
AcDbEntity
  8
0
100
AcDbCircle
 62
7
  6
BYLAYER
 10
35.0197120555
 20
50.8791659437
 40
0.35
100
AcDbArc
 50
171.0987933794
 51
254.9999999999
  0
ARC
  5
264
100
AcDbEntity
  8
0
100
AcDbCircle
 62
7
  6
BYLAYER
 10
35.0197120555
 20
51.92761522
 40
0.35
100
AcDbArc
 50
105.0000000003
 51
189.0029311007
  0
ARC
  5
265
100
AcDbEntity
  8
0
100
AcDbCircle
 62
7
  6
BYLAYER
 10
35.6874056912
 20
52.8312165168
 40
0.35
100
AcDbArc
 50
285.0000000002
 51
19.7518414636
  0
SPLINE
  5
266
100
AcDbEntity
  8
0
100
AcDbSpline
 62
7
  6
BYLAYER
 70
0
 71
3
 72
11
 73
7
 74
0
 42
0.0000001
 43
0.0000001
 44
0.0000000001
 40
0.0
 40
0.0
 40
0.0
 40
0.0
 40
0.3490910022
 40
0.6649856791
 40
0.904545704
 40
1.0
 40
1.0
 40
1.0
 40
1.0
 10
21.8367740854
 20
47.1533905818
 30
0.0
 10
22.0550405136
 20
47.4849610883
 30
0.0
 10
22.480459884
 20
48.1103095143
 30
0.0
 10
23.0872022132
 20
48.9411245529
 30
0.0
 10
23.5427533539
 20
49.5246462786
 30
0.0
 10
23.783677539
 20
49.8197552936
 30
0.0
 10
23.8528660917
 20
49.9033905818
 30
0.0
  0
SPLINE
  5
267
100
AcDbEntity
  8
0
100
AcDbSpline
 62
7
  6
BYLAYER
 70
0
 71
3
 72
10
 73
6
 74
0
 42
0.0000001
 43
0.0000001
 44
0.0000000001
 40
0.0
 40
0.0
 40
0.0
 40
0.0
 40
0.3490903665
 40
0.6649938027
 40
1.0
 40
1.0
 40
1.0
 40
1.0
 10
41.5851917435
 20
47.1533905818
 30
0.0
 10
41.3669291192
 20
47.4849553099
 30
0.0
 10
40.9415041532
 20
48.1102906012
 30
0.0
 10
40.2707677043
 20
49.028807152
 30
0.0
 10
39.8118901382
 20
49.6097374264
 30
0.0
 10
39.5690997372
 20
49.9033905818
 30
0.0
  0
SPLINE
  5
268
100
AcDbEntity
  8
0
100
AcDbSpline
 62
7
  6
BYLAYER
 70
0
 71
3
 72
9
 73
5
 74
0
 42
0.0000001
 43
0.0000001
 44
0.0000000001
 40
0.0
 40
0.0
 40
0.0
 40
0.0
 40
0.6352875152
 40
1.0
 40
1.0
 40
1.0
 40
1.0
 10
49.2020520642
 20
47.1533905818
 30
0.0
 10
49.9052062029
 20
47.7061509263
 30
0.0
 10
50.9867709339
 20
48.6087530918
 30
0.0
 10
52.0307663422
 20
49.5537622846
 30
0.0
 10
52.4066950308
 20
49.9033905818
 30
0.0
  0
SPLINE
  5
269
100
AcDbEntity
  8
0
100
AcDbSpline
 62
7
  6
BYLAYER
 70
0
 71
3
 72
9
 73
5
 74
0
 42
0.0000001
 43
0.0000001
 44
0.0000000001
 40
0.0
 40
0.0
 40
0.0
 40
0.0
 40
0.6352875152
 40
1.0
 40
1.0
 40
1.0
 40
1.0
 10
14.2199137648
 20
55.6533905818
 30
0.0
 10
13.516759626
 20
55.1006302374
 30
0.0
 10
12.4351948951
 20
54.1980280718
 30
0.0
 10
11.3911994867
 20
53.2530188791
 30
0.0
 10
11.0152707982
 20
52.9033905818
 30
0.0
  0
SPLINE
  5
26A
100
AcDbEntity
  8
0
100
AcDbSpline
 62
7
  6
BYLAYER
 70
0
 71
3
 72
10
 73
6
 74
0
 42
0.0000001
 43
0.0000001
 44
0.0000000001
 40
0.0
 40
0.0
 40
0.0
 40
0.0
 40
0.3490903665
 40
0.6649938027
 40
1.0
 40
1.0
 40
1.0
 40
1.0
 10
21.8367740854
 20
55.6533905818
 30
0.0
 10
22.0550367098
 20
55.3218258537
 30
0.0
 10
22.4804616758
 20
54.6964905624
 30
0.0
 10
23.1511981246
 20
53.7779740117
 30
0.0
 10
23.6100756908
 20
53.1970437372
 30
0.0
 10
23.8528660917
 20
52.9033905818
 30
0.0
  0
SPLINE
  5
26B
100
AcDbEntity
  8
0
100
AcDbSpline
 62
7
  6
BYLAYER
 70
0
 71
3
 72
9
 73
5
 74
0
 42
0.0000001
 43
0.0000001
 44
0.0000000001
 40
0.0
 40
0.0
 40
0.0
 40
0.0
 40
0.6352872408
 40
1.0
 40
1.0
 40
1.0
 40
1.0
 10
49.2020520642
 20
55.6533905818
 30
0.0
 10
49.9052059306
 20
55.1006304515
 30
0.0
 10
50.9867749763
 20
54.1980332644
 30
0.0
 10
52.0307685379
 20
53.2530219861
 30
0.0
 10
52.4066950308
 20
52.9033905818
 30
0.0
  0
SPLINE
  5
26C
100
AcDbEntity
  8
0
100
AcDbSpline
 62
7
  6
BYLAYER
 70
0
 71
3
 72
9
 73
5
 74
0
 42
0.0000001
 43
0.0000001
 44
0.0000000001
 40
0.0
 40
0.0
 40
0.0
 40
0.0
 40
0.6352872408
 40
1.0
 40
1.0
 40
1.0
 40
1.0
 10
14.2199137648
 20
47.1533905818
 30
0.0
 10
13.5167598984
 20
47.7061507121
 30
0.0
 10
12.4351908527
 20
48.6087478993
 30
0.0
 10
11.3911972911
 20
49.5537591776
 30
0.0
 10
11.0152707982
 20
49.9033905818
 30
0.0
  0
SPLINE
  5
26D
100
AcDbEntity
  8
0
100
AcDbSpline
 62
7
  6
BYLAYER
 70
0
 71
3
 72
11
 73
7
 74
0
 42
0.0000001
 43
0.0000001
 44
0.0000000001
 40
0.0
 40
0.0
 40
0.0
 40
0.0
 40
0.3490910022
 40
0.6649856791
 40
0.904545704
 40
1.0
 40
1.0
 40
1.0
 40
1.0
 10
41.5851917435
 20
55.6533905818
 30
0.0
 10
41.3669253154
 20
55.3218200753
 30
0.0
 10
40.941505945
 20
54.6964716493
 30
0.0
 10
40.3347636158
 20
53.8656566107
 30
0.0
 10
39.879212475
 20
53.2821348851
 30
0.0
 10
39.6382882899
 20
52.98702587
 30
0.0
 10
39.5690997372
 20
52.9033905818
 30
0.0
  0
SPLINE
  5
26E
100
AcDbEntity
  8
0
100
AcDbSpline
 62
7
  6
BYLAYER
 70
0
 71
3
 72
10
 73
6
 74
0
 42
0.0000001
 43
0.0000001
 44
0.0000000001
 40
0.0
 40
0.0
 40
0.0
 40
0.0
 40
0.3490903665
 40
0.6649938027
 40
1.0
 40
1.0
 40
1.0
 40
1.0
 10
27.4609829145
 20
41.5291817528
 30
0.0
 10
27.7925476426
 20
41.7474443771
 30
0.0
 10
28.4178829339
 20
42.1728693431
 30
0.0
 10
29.3363994846
 20
42.843605792
 30
0.0
 10
29.9173297591
 20
43.3024833582
 30
0.0
 10
30.2109829145
 20
43.5452737591
 30
0.0
  0
SPLINE
  5
26F
100
AcDbEntity
  8
0
100
AcDbSpline
 62
7
  6
BYLAYER
 70
0
 71
3
 72
10
 73
6
 74
0
 42
0.0000001
 43
0.0000001
 44
0.0000000001
 40
0.0
 40
0.0
 40
0.0
 40
0.0
 40
0.3490903665
 40
0.6649938027
 40
1.0
 40
1.0
 40
1.0
 40
1.0
 10
35.9609829145
 20
61.2775994109
 30
0.0
 10
35.6294181864
 20
61.0593367865
 30
0.0
 10
35.0040828951
 20
60.6339118205
 30
0.0
 10
34.0855663444
 20
59.9631753717
 30
0.0
 10
33.5046360699
 20
59.5042978055
 30
0.0
 10
33.2109829145
 20
59.2615074046
 30
0.0
  0
SPLINE
  5
270
100
AcDbEntity
  8
0
100
AcDbSpline
 62
7
  6
BYLAYER
 70
0
 71
3
 72
9
 73
5
 74
0
 42
0.0000001
 43
0.0000001
 44
0.0000000001
 40
0.0
 40
0.0
 40
0.0
 40
0.0
 40
0.6352872408
 40
1.0
 40
1.0
 40
1.0
 40
1.0
 10
35.9609829145
 20
33.9123214321
 30
0.0
 10
35.4082227842
 20
33.2091675658
 30
0.0
 10
34.505625597
 20
32.12759852
 30
0.0
 10
33.5606143187
 20
31.0836049584
 30
0.0
 10
33.2109829145
 20
30.7076784655
 30
0.0
  0
SPLINE
  5
271
100
AcDbEntity
  8
0
100
AcDbSpline
 62
7
  6
BYLAYER
 70
0
 71
3
 72
9
 73
5
 74
0
 42
0.0000001
 43
0.0000001
 44
0.0000000001
 40
0.0
 40
0.0
 40
0.0
 40
0.0
 40
0.6352875152
 40
1.0
 40
1.0
 40
1.0
 40
1.0
 10
35.9609829145
 20
68.8944597315
 30
0.0
 10
35.40822257
 20
69.5976138703
 30
0.0
 10
34.5056204045
 20
70.6791786013
 30
0.0
 10
33.5606112117
 20
71.7231740096
 30
0.0
 10
33.2109829145
 20
72.0991026981
 30
0.0
  0
SPLINE
  5
272
100
AcDbEntity
  8
0
100
AcDbSpline
 62
7
  6
BYLAYER
 70
0
 71
3
 72
9
 73
5
 74
0
 42
0.0000001
 43
0.0000001
 44
0.0000000001
 40
0.0
 40
0.0
 40
0.0
 40
0.0
 40
0.6352875152
 40
1.0
 40
1.0
 40
1.0
 40
1.0
 10
27.4609829145
 20
33.9123214321
 30
0.0
 10
28.0137432589
 20
33.2091672934
 30
0.0
 10
28.9163454245
 20
32.1276025624
 30
0.0
 10
29.8613546173
 20
31.0836071541
 30
0.0
 10
30.2109829145
 20
30.7076784655
 30
0.0
  0
SPLINE
  5
273
100
AcDbEntity
  8
0
100
AcDbSpline
 62
7
  6
BYLAYER
 70
0
 71
3
 72
11
 73
7
 74
0
 42
0.0000001
 43
0.0000001
 44
0.0000000001
 40
0.0
 40
0.0
 40
0.0
 40
0.0
 40
0.3490910022
 40
0.6649856791
 40
0.904545704
 40
1.0
 40
1.0
 40
1.0
 40
1.0
 10
27.4609829145
 20
61.2775994109
 30
0.0
 10
27.792553421
 20
61.0593329827
 30
0.0
 10
28.417901847
 20
60.6339136123
 30
0.0
 10
29.2487168856
 20
60.0271712831
 30
0.0
 10
29.8322386112
 20
59.5716201424
 30
0.0
 10
30.1273476263
 20
59.3306959573
 30
0.0
 10
30.2109829145
 20
59.2615074046
 30
0.0
  0
SPLINE
  5
274
100
AcDbEntity
  8
0
100
AcDbSpline
 62
7
  6
BYLAYER
 70
0
 71
3
 72
11
 73
7
 74
0
 42
0.0000001
 43
0.0000001
 44
0.0000000001
 40
0.0
 40
0.0
 40
0.0
 40
0.0
 40
0.3490910022
 40
0.6649856791
 40
0.904545704
 40
1.0
 40
1.0
 40
1.0
 40
1.0
 10
35.9609829145
 20
41.5291817528
 30
0.0
 10
35.629412408
 20
41.7474481809
 30
0.0
 10
35.004063982
 20
42.1728675513
 30
0.0
 10
34.1732489434
 20
42.7796098805
 30
0.0
 10
33.5897272177
 20
43.2351610213
 30
0.0
 10
33.2946182027
 20
43.4760852064
 30
0.0
 10
33.2109829145
 20
43.5452737591
 30
0.0
  0
SPLINE
  5
275
100
AcDbEntity
  8
0
100
AcDbSpline
 62
7
  6
BYLAYER
 70
0
 71
3
 72
9
 73
5
 74
0
 42
0.0000001
 43
0.0000001
 44
0.0000000001
 40
0.0
 40
0.0
 40
0.0
 40
0.0
 40
0.6352872408
 40
1.0
 40
1.0
 40
1.0
 40
1.0
 10
27.4609829145
 20
68.8944597315
 30
0.0
 10
28.0137430448
 20
69.5976135979
 30
0.0
 10
28.9163402319
 20
70.6791826437
 30
0.0
 10
29.8613515102
 20
71.7231762052
 30
0.0
 10
30.2109829145
 20
72.0991026981
 30
0.0
  0
ENDSEC
  0
SECTION
  2
OBJECTS
  0
DICTIONARY
  5
C
100
AcDbDictionary
280
0
281
1
  3
ACAD_GROUP
350
D
  3
ACAD_MLINESTYLE
350
17
  3
ACAD_LAYOUT
350
1A
  3
ACAD_PLOTSETTINGS
350
19
  3
ACAD_PLOTSTYLENAME
350
E
  0
DICTIONARY
  5
D
102
{ACAD_REACTORS
330
C
102
}
100
AcDbDictionary
280
0
281
1
  0
ACDBDICTIONARYWDFLT
  5
E
102
{ACAD_REACTORS
330
C
102
}
100
AcDbDictionary
281
1
  3
Normal
350
F
100
AcDbDictionaryWithDefault
340
F
  0
DICTIONARY
  5
17
102
{ACAD_REACTORS
330
C
102
}
100
AcDbDictionary
280
0
281
1
  3
Standard
350
18
  0
DICTIONARY
  5
19
102
{ACAD_REACTORS
330
C
102
}
100
AcDbDictionary
281
1
  0
DICTIONARY
  5
1A
102
{ACAD_REACTORS
330
C
102
}
100
AcDbDictionary
281
1
  3
Model
350
276
  3
Layout1
350
277
  0
ACDBPLACEHOLDER
  5
F
102
{ACAD_REACTORS
330
E
102
}
  0
MLINESTYLE
  5
18
102
{ACAD_REACTORS
330
17
102
}
100
AcDbMlineStyle
  2
STANDARD
 70
0
  3

 62
256
 51
90.0
 52
90.0
 71
2
 49
0.5
 62
256
  6
BYLAYER
 49
-0.5
 62
256
  6
BYLAYER
  0
LAYOUT
  5
276
102
{ACAD_REACTORS
330
1A
102
}
100
AcDbPlotSettings
  1

  2
none_device
  4

  6

 40
0.0
 41
0.0
 42
0.0
 43
0.0
 44
210.0
 45
297.0
 46
0.0
 47
0.0
 48
0.0
 49
0.0
140
0.0
141
0.0
142
1.0
143
1.0
 70
1024
 72
1
 73
0
 74
0
  7

 75
0
147
1.0
148
0.0
149
0.0
100
AcDbLayout
  1
Model
 70
0
 71
0
 10
0.0
 20
0.0
 11
210.0
 21
297.0
 12
0.0
 22
0.0
 32
0.0
 14
0.0
 24
0.0
 34
0.0
 15
0.0
 25
0.0
 35
0.0
146
0.0
 13
0.0
 23
0.0
 33
0.0
 16
1.0
 26
0.0
 36
0.0
 17
0.0
 27
1.0
 37
0.0
 76
0
330
210
345
0
346
0
  0
LAYOUT
  5
277
102
{ACAD_REACTORS
330
1A
102
}
100
AcDbPlotSettings
  1

  2
none_device
  4

  6

 40
0.0
 41
0.0
 42
0.0
 43
0.0
 44
210.0
 45
297.0
 46
0.0
 47
0.0
 48
0.0
 49
0.0
140
0.0
141
0.0
142
1.0
143
1.0
 70
0
 72
1
 73
0
 74
0
  7

 75
0
147
1.0
148
0.0
149
0.0
100
AcDbLayout
  1
Layout1
 70
0
 71
1
 10
0.0
 20
0.0
 11
210.0
 21
297.0
 12
0.0
 22
0.0
 32
0.0
 14
0.0
 24
0.0
 34
0.0
 15
0.0
 25
0.0
 35
0.0
146
0.0
 13
0.0
 23
0.0
 33
0.0
 16
1.0
 26
0.0
 36
0.0
 17
0.0
 27
1.0
 37
0.0
 76
0
330
211
345
0
346
0
  0
ENDSEC
  0
EOF
