999
DXF file: C:\Users\sesa63760\Dev\_Creo\CAD\MCADID0004819_3D-CAD\drw0001_3.dxf
999
Pro/ENGINEER 2019471 by Parametric Technology Corporation
  0
SECTION
  2
HEADER
  9
$ACADVER
  1
AC1024
  9
$DWGCODEPAGE
  3
ANSI_1252
  9
$EXTMAX
 10
73.5823981731
 20
104.0665345591
 30
0.0
  9
$EXTMIN
 10
0.0
 20
0.0
 30
0.0
  9
$LIMMIN
 10
0.0
 20
0.0
  9
$LIMMAX
 10
73.5823981731
 20
104.0665345591
  9
$VIEWCTR
 10
36.7911990865
 20
52.0332672795
  9
$VIEWSIZE
 40
104.0665345591
  9
$CLAYER
  8
0
  9
$LTSCALE
 40
6.7835963268
  9
$CELTYPE
  6
BYLAYER
  9
$DIMSCALE
 40
1.0
  9
$DIMASZ
 40
0.8759809306
  9
$DIMEXO
 40
1.0
  9
$DIMDLI
 40
4.6868483713
  9
$DIMEXE
 40
1.0
  9
$DIMCEN
 40
1.1100430353
  9
$DIMLFAC
 40
1.0
  9
$DIMBLK
  1
_FILLED
  9
$DIMALT
 70
0
  9
$DIMALTF
 40
0.0393700787
  9
$DIMTXT
 40
1.2263733029
  9
$DIMTOL
 70
1
  9
$DIMLIM
 70
0
  9
$DIMTFAC
 40
1.0
  9
$DIMTP
 40
0.01
  9
$DIMTM
 40
0.01
  9
$DIMGAP
 40
0.625
  9
$DIMDSEP
 70
46
  9
$AUNITS
 70
0
  9
$PDMODE
 70
3
  9
$PDSIZE
 40
0.3125
  9
$HANDSEED
  5
264
  9
$TILEMODE
 70
1
  9
$MEASUREMENT
 70
1
  9
$INSUNITS
 70
4
  0
ENDSEC
  0
SECTION
  2
CLASSES
  0
CLASS
  1
ACDBDICTIONARYWDFLT
  2
AcDbDictionaryWithDefault
  3
AutoCAD 2000
 90
0
 91
1
280
0
281
0
  0
CLASS
  1
ACDBPLACEHOLDER
  2
AcDbPlaceHolder
  3
AutoCAD 2000
 90
0
 91
1
280
0
281
0
  0
CLASS
  1
LAYOUT
  2
AcDbLayout
  3
AutoCAD 2000
 90
0
 91
0
280
0
281
0
  0
ENDSEC
  0
SECTION
  2
TABLES
  0
TABLE
  2
VPORT
  5
8
100
AcDbSymbolTable
 70
2
  0
VPORT
  5
1F4
100
AcDbSymbolTableRecord
100
AcDbViewportTableRecord
  2
*ACTIVE
 70
0
 10
0.0
 20
0.0
 11
1.0
 21
1.0
 12
36.7911990865
 22
52.0332672795
 13
0.0
 23
0.0
 14
1.0
 24
1.0
 15
0.0
 25
0.0
 16
0.0
 26
0.0
 36
1.0
 17
0.0
 27
0.0
 37
0.0
 40
104.0665345591
 41
0.7070707071
 42
50.0
 43
0.0
 44
0.0
 50
0.0
 51
0.0
 71
0
 72
100
 73
1
 74
1
 75
0
 76
0
 77
0
 78
0
  0
ENDTAB
  0
TABLE
  2
LTYPE
  5
5
100
AcDbSymbolTable
 70
6
  0
LTYPE
  5
14
100
AcDbSymbolTableRecord
100
AcDbLinetypeTableRecord
  2
BYBLOCK
 70
0
  3

 72
65
 73
0
 40
0.0
  0
LTYPE
  5
15
100
AcDbSymbolTableRecord
100
AcDbLinetypeTableRecord
  2
BYLAYER
 70
0
  3

 72
65
 73
0
 40
0.0
  0
LTYPE
  5
16
100
AcDbSymbolTableRecord
100
AcDbLinetypeTableRecord
  2
CONTINUOUS
 70
64
  3
Solid line
 72
65
 73
0
 40
0.0
  0
LTYPE
  5
1F5
100
AcDbSymbolTableRecord
100
AcDbLinetypeTableRecord
  2
CENTER
 70
64
  3
____ _ ____ _ ____ _ ____ _ ____ _ ____ _ ____
 72
65
 73
4
 40
0.6
 49
0.375
 74
0
 49
-0.075
 74
0
 49
0.075
 74
0
 49
-0.075
 74
0
  0
LTYPE
  5
1F6
100
AcDbSymbolTableRecord
100
AcDbLinetypeTableRecord
  2
HIDDEN
 70
64
  3
- - - - - - - - - - - - - - - - - - - -
 72
65
 73
2
 40
0.2
 49
0.1
 74
0
 49
-0.1
 74
0
  0
LTYPE
  5
1F7
100
AcDbSymbolTableRecord
100
AcDbLinetypeTableRecord
  2
PHANTOM
 70
64
  3
_____ _ _ _____ _ _ _____ _ _ _____
 72
65
 73
6
 40
0.8
 49
0.45
 74
0
 49
-0.05
 74
0
 49
0.1
 74
0
 49
-0.05
 74
0
 49
0.1
 74
0
 49
-0.05
 74
0
  0
LTYPE
  5
1F8
100
AcDbSymbolTableRecord
100
AcDbLinetypeTableRecord
  2
DOT
 70
64
  3
. . . . . . . . . . . . . . . . . . . .
 72
65
 73
2
 40
0.2
 49
0.1
 74
0
 49
-0.1
 74
0
  0
LTYPE
  5
1F9
100
AcDbSymbolTableRecord
100
AcDbLinetypeTableRecord
  2
DASHED
 70
64
  3
- - - - - - - - - - - - - - - - - - - -
 72
65
 73
2
 40
0.2
 49
0.1
 74
0
 49
-0.1
 74
0
  0
ENDTAB
  0
TABLE
  2
LAYER
  5
2
100
AcDbSymbolTable
 70
36
  0
LAYER
  5
10
100
AcDbSymbolTableRecord
100
AcDbLayerTableRecord
  2
0
 70
0
 62
7
  6
CONTINUOUS
370
-3
390
F
  0
LAYER
  5
1FA
100
AcDbSymbolTableRecord
100
AcDbLayerTableRecord
  2
DEFAULT_1
 70
0
 62
7
  6
CENTER
370
-3
390
F
  0
LAYER
  5
1FB
100
AcDbSymbolTableRecord
100
AcDbLayerTableRecord
  2
DEFAULT_2
 70
0
 62
7
  6
HIDDEN
370
-3
390
F
  0
LAYER
  5
1FC
100
AcDbSymbolTableRecord
100
AcDbLayerTableRecord
  2
DEFAULT_3
 70
0
 62
7
  6
PHANTOM
370
-3
390
F
  0
LAYER
  5
1FD
100
AcDbSymbolTableRecord
100
AcDbLayerTableRecord
  2
00_COMPONENTS
 70
0
 62
7
  6
CONTINUOUS
370
-3
390
F
  0
LAYER
  5
1FE
100
AcDbSymbolTableRecord
100
AcDbLayerTableRecord
  2
01_1_DEFAULT_DATUMS
 70
0
 62
7
  6
CONTINUOUS
370
-3
390
F
  0
LAYER
  5
1FF
100
AcDbSymbolTableRecord
100
AcDbLayerTableRecord
  2
01_PLANES
 70
0
 62
7
  6
CONTINUOUS
370
-3
390
F
  0
LAYER
  5
200
100
AcDbSymbolTableRecord
100
AcDbLayerTableRecord
  2
02_COORD_SYS
 70
0
 62
7
  6
CONTINUOUS
370
-3
390
F
  0
LAYER
  5
201
100
AcDbSymbolTableRecord
100
AcDbLayerTableRecord
  2
03_AXES
 70
0
 62
7
  6
CONTINUOUS
370
-3
390
F
  0
LAYER
  5
202
100
AcDbSymbolTableRecord
100
AcDbLayerTableRecord
  2
04_POINTS
 70
0
 62
7
  6
CONTINUOUS
370
-3
390
F
  0
LAYER
  5
203
100
AcDbSymbolTableRecord
100
AcDbLayerTableRecord
  2
05_CURVES
 70
0
 62
7
  6
CONTINUOUS
370
-3
390
F
  0
LAYER
  5
204
100
AcDbSymbolTableRecord
100
AcDbLayerTableRecord
  2
06_SURFS
 70
0
 62
7
  6
CONTINUOUS
370
-3
390
F
  0
LAYER
  5
205
100
AcDbSymbolTableRecord
100
AcDbLayerTableRecord
  2
07_COSMETICS
 70
0
 62
7
  6
CONTINUOUS
370
-3
390
F
  0
LAYER
  5
206
100
AcDbSymbolTableRecord
100
AcDbLayerTableRecord
  2
10_NOTES
 70
0
 62
7
  6
CONTINUOUS
370
-3
390
F
  0
LAYER
  5
207
100
AcDbSymbolTableRecord
100
AcDbLayerTableRecord
  2
11_NOTES_PUB
 70
0
 62
7
  6
CONTINUOUS
370
-3
390
F
  0
LAYER
  5
208
100
AcDbSymbolTableRecord
100
AcDbLayerTableRecord
  2
13_REF_GTOL
 70
0
 62
7
  6
CONTINUOUS
370
-3
390
F
  0
LAYER
  5
209
100
AcDbSymbolTableRecord
100
AcDbLayerTableRecord
  2
16_MISC
 70
0
 62
7
  6
CONTINUOUS
370
-3
390
F
  0
LAYER
  5
20A
100
AcDbSymbolTableRecord
100
AcDbLayerTableRecord
  2
17_NO_PRINT
 70
0
 62
7
  6
CONTINUOUS
370
-3
390
F
  0
LAYER
  5
20B
100
AcDbSymbolTableRecord
100
AcDbLayerTableRecord
  2
18_DATUM_CAMS_JOINTS
 70
0
 62
7
  6
CONTINUOUS
370
-3
390
F
  0
LAYER
  5
20C
100
AcDbSymbolTableRecord
100
AcDbLayerTableRecord
  2
19_DATUM_FUNCTIONAL
 70
0
 62
7
  6
CONTINUOUS
370
-3
390
F
  0
LAYER
  5
20D
100
AcDbSymbolTableRecord
100
AcDbLayerTableRecord
  2
20_DATUM_KINEMATIC_SCHEME
 70
0
 62
7
  6
CONTINUOUS
370
-3
390
F
  0
ENDTAB
  0
TABLE
  2
STYLE
  5
3
100
AcDbSymbolTable
 70
1
  0
STYLE
  5
11
100
AcDbSymbolTableRecord
100
AcDbTextStyleTableRecord
  2
STANDARD
 70
0
 40
0.0
 41
1.0
 50
0.0
 71
0
 42
0.2
  3
ARIAL.TTF
  4

  0
STYLE
  5
20E
100
AcDbSymbolTableRecord
100
AcDbTextStyleTableRecord
  2
TEXTSTYLE_1
 70
0
 40
0.0
 41
0.8
 50
0.0
 71
0
 42
0.2
  3
gdt
  4

  0
ENDTAB
  0
TABLE
  2
VIEW
  5
6
100
AcDbSymbolTable
 70
0
  0
ENDTAB
  0
TABLE
  2
UCS
  5
7
100
AcDbSymbolTable
 70
0
  0
ENDTAB
  0
TABLE
  2
APPID
  5
9
100
AcDbSymbolTable
 70
1
  0
APPID
  5
20F
100
AcDbSymbolTableRecord
100
AcDbRegAppTableRecord
  2
ACAD
 70
0
  0
ENDTAB
  0
TABLE
  2
BLOCK_RECORD
  5
1
100
AcDbSymbolTable
 70
0
  0
BLOCK_RECORD
  5
210
100
AcDbSymbolTableRecord
100
AcDbBlockTableRecord
  2
*Model_Space
  0
BLOCK_RECORD
  5
211
100
AcDbSymbolTableRecord
100
AcDbBlockTableRecord
  2
*Paper_Space
  0
BLOCK_RECORD
  5
212
100
AcDbSymbolTableRecord
100
AcDbBlockTableRecord
  2
_FILLED
  0
ENDTAB
  0
TABLE
  2
DIMSTYLE
  5
A
100
AcDbSymbolTable
 70
1
100
AcDbDimStyleTable
 71
0
  0
DIMSTYLE
105
213
100
AcDbSymbolTableRecord
100
AcDbDimStyleTableRecord
  2
STANDARD
 70
0
  3

  4

 40
1.0
 41
0.8759809306
 42
1.0
 43
0.38
 44
1.0
 45
0.0
 46
0.0
 47
0.01
 48
0.01
140
1.2263733029
141
0.09
142
0.0
143
25.4
144
1.0
145
0.0
146
1.0
147
0.625
 71
1
 72
0
 73
0
 74
0
 75
0
 76
0
 77
1
 78
8
 79
2
170
0
171
1
172
0
173
0
174
0
175
0
176
0
177
0
178
0
270
2
179
2
271
2
272
2
273
2
274
2
275
0
280
0
281
0
282
0
283
1
284
8
285
0
286
0
287
3
288
0
340
11
278
46
341
212
342
212
343
212
344
212
  0
ENDTAB
  0
ENDSEC
  0
SECTION
  2
BLOCKS
  0
BLOCK
  5
20
100
AcDbEntity
  8
0
100
AcDbBlockBegin
  2
*Model_Space
 70
0
 10
0.0
 20
0.0
 30
0.0
  3
*Model_Space
  1

  0
ENDBLK
  5
21
100
AcDbEntity
  8
0
100
AcDbBlockEnd
  0
BLOCK
  5
1C
100
AcDbEntity
  8
0
100
AcDbBlockBegin
  2
*Paper_Space
 70
0
 10
0.0
 20
0.0
 30
0.0
  3
*Paper_Space
  1

  0
ENDBLK
  5
1D
100
AcDbEntity
  8
0
100
AcDbBlockEnd
  0
BLOCK
  5
214
100
AcDbEntity
  8
0
100
AcDbBlockBegin
  2
_FILLED
 70
64
 10
0.0
 20
0.0
  3
_FILLED
  1

  0
SOLID
  5
215
100
AcDbEntity
  8
0
  6
BYBLOCK
 62
0
100
AcDbTrace
 10
0.0
 20
0.0
 11
-1.0
 21
0.25
 12
-1.0
 22
-0.25
 13
-1.0
 23
-0.25
  0
ENDBLK
  5
216
100
AcDbEntity
  8
0
  6
BYBLOCK
 62
0
100
AcDbBlockEnd
  0
ENDSEC
  0
SECTION
  2
ENTITIES
  0
LINE
  5
217
100
AcDbEntity
  8
0
100
AcDbLine
 62
7
  6
BYLAYER
 10
8.7049794505
 20
77.0380201181
 11
8.7049794505
 21
76.0380201181
  0
LINE
  5
218
100
AcDbEntity
  8
0
100
AcDbLine
 62
7
  6
BYLAYER
 10
8.7049794505
 20
75.8380201181
 11
8.7049794505
 21
29.2421380478
  0
LINE
  5
219
100
AcDbEntity
  8
0
100
AcDbLine
 62
7
  6
BYLAYER
 10
9.4049794505
 20
28.9897415871
 11
9.4049794503
 21
36.2314088645
  0
LINE
  5
21A
100
AcDbEntity
  8
0
100
AcDbLine
 62
7
  6
BYLAYER
 10
9.4049794502
 20
37.8446334073
 11
9.4049794505
 21
76.5180092618
  0
LINE
  5
21B
100
AcDbEntity
  8
0
100
AcDbLine
 62
7
  6
BYLAYER
 10
14.3299794505
 20
29.5380201181
 11
14.3299794505
 21
31.0380201181
  0
LINE
  5
21C
100
AcDbEntity
  8
0
100
AcDbLine
 62
7
  6
BYLAYER
 10
14.9299794505
 20
29.5380201181
 11
14.9299794505
 21
31.0380201181
  0
LINE
  5
21D
100
AcDbEntity
  8
0
100
AcDbLine
 62
7
  6
BYLAYER
 10
31.7049794505
 20
27.0380201181
 11
15.7049794505
 21
27.0380201181
  0
LINE
  5
21E
100
AcDbEntity
  8
0
100
AcDbLine
 62
7
  6
BYLAYER
 10
15.7049794505
 20
27.5547772378
 11
15.7049794505
 21
27.0380201181
  0
LINE
  5
21F
100
AcDbEntity
  8
0
100
AcDbLine
 62
7
  6
BYLAYER
 10
9.3369921288
 20
28.6975469189
 11
9.4049794505
 21
28.9897415871
  0
LINE
  5
220
100
AcDbEntity
  8
0
100
AcDbLine
 62
7
  6
BYLAYER
 10
33.0799794505
 20
29.5380201181
 11
14.3299794505
 21
29.5380201181
  0
LINE
  5
221
100
AcDbEntity
  8
0
100
AcDbLine
 62
7
  6
BYLAYER
 10
14.3299794505
 20
31.0380201181
 11
33.0799794505
 21
31.0380201181
  0
LINE
  5
222
100
AcDbEntity
  8
0
100
AcDbLine
 62
7
  6
BYLAYER
 10
9.6998365932
 20
37.7893227816
 11
9.4049794503
 21
37.8446334072
  0
LINE
  5
223
100
AcDbEntity
  8
0
100
AcDbLine
 62
7
  6
BYLAYER
 10
9.6299817755
 20
37.0380199818
 11
9.2737270405
 21
37.0380203372
  0
LINE
  5
224
100
AcDbEntity
  8
0
100
AcDbLine
 62
7
  6
BYLAYER
 10
37.7799754569
 20
37.0380203095
 11
38.1362334056
 21
37.0380198006
  0
LINE
  5
225
100
AcDbEntity
  8
0
100
AcDbLine
 62
7
  6
BYLAYER
 10
37.7101223079
 20
36.2867174547
 11
38.0049794508
 21
36.2314068292
  0
LINE
  5
226
100
AcDbEntity
  8
0
100
AcDbLine
 62
7
  6
BYLAYER
 10
37.710121626
 20
37.7893264168
 11
38.0049806878
 21
37.8446268128
  0
LINE
  5
227
100
AcDbEntity
  8
0
100
AcDbLine
 62
7
  6
BYLAYER
 10
9.6998371771
 20
36.2867143415
 11
9.4049783873
 21
36.2314124956
  0
LINE
  5
228
100
AcDbEntity
  8
0
100
AcDbLine
 62
7
  6
BYLAYER
 10
31.7049794505
 20
27.5547772378
 11
31.7049794505
 21
27.0380201181
  0
LINE
  5
229
100
AcDbEntity
  8
0
100
AcDbLine
 62
7
  6
BYLAYER
 10
32.4799794505
 20
29.5380201181
 11
32.4799794505
 21
31.0380201181
  0
LINE
  5
22A
100
AcDbEntity
  8
0
100
AcDbLine
 62
7
  6
BYLAYER
 10
38.0729667722
 20
28.6975469189
 11
38.0049794505
 21
28.9897415871
  0
LINE
  5
22B
100
AcDbEntity
  8
0
100
AcDbLine
 62
7
  6
BYLAYER
 10
33.0799794505
 20
31.0380201181
 11
33.0799794505
 21
29.5380201181
  0
LINE
  5
22C
100
AcDbEntity
  8
0
100
AcDbLine
 62
7
  6
BYLAYER
 10
37.3979794505
 20
75.2968211475
 11
37.3979794505
 21
76.0380201181
  0
LINE
  5
22D
100
AcDbEntity
  8
0
100
AcDbLine
 62
7
  6
BYLAYER
 10
38.0049794505
 20
72.9733056838
 11
38.0049794508
 21
37.844633407
  0
LINE
  5
22E
100
AcDbEntity
  8
0
100
AcDbLine
 62
7
  6
BYLAYER
 10
38.0049794509
 20
36.2314068293
 11
38.0049794505
 21
28.9897415871
  0
LINE
  5
22F
100
AcDbEntity
  8
0
100
AcDbLine
 62
7
  6
BYLAYER
 10
38.7049794505
 20
29.2421380478
 11
38.7049794505
 21
72.0380201181
  0
LINE
  5
230
100
AcDbEntity
  8
0
100
AcDbLine
 62
7
  6
BYLAYER
 10
38.7049794505
 20
76.0380201181
 11
38.7049794505
 21
77.5380201181
  0
LINE
  5
231
100
AcDbEntity
  8
0
100
AcDbLine
 62
7
  6
BYLAYER
 10
40.2449794505
 20
77.0380201181
 11
40.2449794505
 21
76.0380201181
  0
LINE
  5
232
100
AcDbEntity
  8
0
100
AcDbLine
 62
7
  6
BYLAYER
 10
40.7449794505
 20
75.9209957812
 11
40.7449794505
 21
77.5380201181
  0
LINE
  5
233
100
AcDbEntity
  8
0
100
AcDbLine
 62
7
  6
BYLAYER
 10
53.4852743567
 20
65.6973474274
 11
55.8858105497
 21
72.6971635668
  0
LINE
  5
234
100
AcDbEntity
  8
0
100
AcDbLine
 62
7
  6
BYLAYER
 10
66.9157222484
 20
67.835086514
 11
63.3680132293
 21
61.3409537223
  0
LINE
  5
235
100
AcDbEntity
  8
0
100
AcDbLine
 62
7
  6
BYLAYER
 10
37.3979794505
 20
75.7380201181
 11
37.0193620211
 21
75.7380201181
  0
LINE
  5
236
100
AcDbEntity
  8
0
100
AcDbLine
 62
7
  6
BYLAYER
 10
8.7049794505
 20
76.0380201181
 11
40.7449794505
 21
76.0380201181
  0
LINE
  5
237
100
AcDbEntity
  8
0
100
AcDbLine
 62
7
  6
BYLAYER
 10
9.9049794505
 20
76.7380201181
 11
33.7049794505
 21
76.7380201181
  0
LINE
  5
238
100
AcDbEntity
  8
0
100
AcDbLine
 62
7
  6
BYLAYER
 10
8.7049794505
 20
77.0380201181
 11
40.7449794505
 21
77.0380201181
  0
LINE
  5
239
100
AcDbEntity
  8
0
100
AcDbLine
 62
7
  6
BYLAYER
 10
40.7449794505
 20
77.5380201181
 11
38.7049794505
 21
77.5380201181
  0
ARC
  5
23A
100
AcDbEntity
  8
0
100
AcDbCircle
 62
7
  6
BYLAYER
 10
13.7049794505
 20
37.0380201181
 40
4.375
100
AcDbArc
 50
190.6243052855
 51
169.3756685132
  0
CIRCLE
  5
23B
100
AcDbEntity
  8
0
100
AcDbCircle
 62
7
  6
BYLAYER
 10
13.7049794505
 20
37.0380201181
 40
4.075
  0
CIRCLE
  5
23C
100
AcDbEntity
  8
0
100
AcDbCircle
 62
7
  6
BYLAYER
 10
13.7049794505
 20
37.0380201181
 40
2.125
  0
ARC
  5
23D
100
AcDbEntity
  8
0
100
AcDbCircle
 62
7
  6
BYLAYER
 10
9.7286980793
 20
75.2305213723
 40
1.2145730851
100
AcDbArc
 50
138.3514431925
 51
139.955418975
  0
ARC
  5
23E
100
AcDbEntity
  8
0
100
AcDbCircle
 62
7
  6
BYLAYER
 10
9.9049794505
 20
75.8380201181
 40
1.2
100
AcDbArc
 50
170.6610448608
 51
180.0
  0
ARC
  5
23F
100
AcDbEntity
  8
0
100
AcDbCircle
 62
7
  6
BYLAYER
 10
9.2049794505
 20
29.2421380478
 40
0.5
100
AcDbArc
 50
180.0
 51
256.6720384104
  0
ARC
  5
240
100
AcDbEntity
  8
0
100
AcDbCircle
 62
7
  6
BYLAYER
 10
13.2220378951
 20
215.3419633085
 40
187.9929376654
100
AcDbArc
 50
277.5753023499
 51
277.7077406616
  0
ARC
  5
241
100
AcDbEntity
  8
0
100
AcDbCircle
 62
7
  6
BYLAYER
 10
32.8049794505
 20
5.3948773072
 40
71.15
100
AcDbArc
 50
61.3524628577
 51
71.0709667267
  0
ARC
  5
242
100
AcDbEntity
  8
0
100
AcDbCircle
 62
7
  6
BYLAYER
 10
32.8049794505
 20
5.3948773072
 40
63.75
100
AcDbArc
 50
61.3524628577
 51
71.0709667267
  0
ARC
  5
243
100
AcDbEntity
  8
0
100
AcDbCircle
 62
7
  6
BYLAYER
 10
23.7049794505
 20
90.4480201181
 40
63.4
100
AcDbArc
 50
271.9616823297
 51
283.32796159
  0
ARC
  5
244
100
AcDbEntity
  8
0
100
AcDbCircle
 62
7
  6
BYLAYER
 10
23.7049794505
 20
90.4480201181
 40
63.4
100
AcDbArc
 50
256.67203841
 51
268.0383176703
  0
ARC
  5
245
100
AcDbEntity
  8
0
100
AcDbCircle
 62
7
  6
BYLAYER
 10
23.7049794505
 20
90.4480201181
 40
63.1
100
AcDbArc
 50
256.9015825347
 51
283.0984174653
  0
ARC
  5
246
100
AcDbEntity
  8
0
100
AcDbCircle
 62
7
  6
BYLAYER
 10
37.6449794505
 20
19.5080201181
 40
56.23
100
AcDbArc
 50
71.0709667267
 51
87.4171094877
  0
ARC
  5
247
100
AcDbEntity
  8
0
100
AcDbCircle
 62
7
  6
BYLAYER
 10
37.6449794505
 20
19.5080201181
 40
48.83
100
AcDbArc
 50
71.0709667267
 51
88.9604980338
  0
ARC
  5
248
100
AcDbEntity
  8
0
100
AcDbCircle
 62
7
  6
BYLAYER
 10
33.7049794505
 20
72.0380201181
 40
5.0
100
AcDbArc
 50
0.0
 51
53.8471720958
  0
ARC
  5
249
100
AcDbEntity
  8
0
100
AcDbCircle
 62
7
  6
BYLAYER
 10
33.5063598383
 20
72.4160794989
 40
4.5329903142
100
AcDbArc
 50
7.0610357547
 51
25.2837129862
  0
ARC
  5
24A
100
AcDbEntity
  8
0
100
AcDbCircle
 62
7
  6
BYLAYER
 10
33.7049794505
 20
37.0380201181
 40
4.375
100
AcDbArc
 50
10.6243314825
 51
349.3756685182
  0
CIRCLE
  5
24B
100
AcDbEntity
  8
0
100
AcDbCircle
 62
7
  6
BYLAYER
 10
33.7049794505
 20
37.0380201181
 40
4.075
  0
CIRCLE
  5
24C
100
AcDbEntity
  8
0
100
AcDbCircle
 62
7
  6
BYLAYER
 10
33.7049794505
 20
37.0380201181
 40
2.125
  0
ARC
  5
24D
100
AcDbEntity
  8
0
100
AcDbCircle
 62
7
  6
BYLAYER
 10
38.2049794505
 20
29.2421380478
 40
0.5
100
AcDbArc
 50
283.3279615896
 51
360.0
  0
ARC
  5
24E
100
AcDbEntity
  8
0
100
AcDbCircle
 62
7
  6
BYLAYER
 10
33.2777309802
 20
208.5576365785
 40
181.1478323352
100
AcDbArc
 50
262.2897451282
 51
262.427188316
  0
SPLINE
  5
24F
100
AcDbEntity
  8
0
100
AcDbSpline
 62
7
  6
BYLAYER
 70
0
 71
3
 72
14
 73
10
 74
0
 42
0.0000001
 43
0.0000001
 44
0.0000000001
 40
0.0
 40
0.0
 40
0.0
 40
0.0
 40
0.0902796516
 40
0.1894059808
 40
0.300840238
 40
0.4253862458
 40
0.5619475959
 40
0.7066836357
 40
1.0
 40
1.0
 40
1.0
 40
1.0
 10
9.0897171294
 20
28.755604804
 30
0.0
 10
9.0797430387
 20
28.7579677193
 30
0.0
 10
9.0594425577
 20
28.7659867614
 30
0.0
 10
9.0319463219
 20
28.7869006864
 30
0.0
 10
9.0082042025
 20
28.8170674491
 30
0.0
 10
8.9892202657
 20
28.8551452298
 30
0.0
 10
8.9763005892
 20
28.8995927949
 30
0.0
 10
8.9670920731
 20
28.9643319141
 30
0.0
 10
8.9694451372
 20
29.0145773792
 30
0.0
 10
8.9742958257
 20
29.0475247503
 30
0.0
  0
SPLINE
  5
250
100
AcDbEntity
  8
0
100
AcDbSpline
 62
7
  6
BYLAYER
 70
0
 71
3
 72
20
 73
16
 74
0
 42
0.0000001
 43
0.0000001
 44
0.0000000001
 40
0.0
 40
0.0
 40
0.0
 40
0.0
 40
0.0087441522
 40
0.0150975157
 40
0.0232737969
 40
0.0458709588
 40
0.077681476
 40
0.1192948084
 40
0.1704172303
 40
0.2305103098
 40
0.2990142832
 40
0.4576639235
 40
0.6352248666
 40
0.819555271
 40
1.0
 40
1.0
 40
1.0
 40
1.0
 10
38.5907584237
 20
73.1006413229
 30
0.0
 10
38.5911333812
 20
73.0989173078
 30
0.0
 10
38.589834351
 20
73.0956821808
 30
0.0
 10
38.5865590849
 20
73.0923900808
 30
0.0
 10
38.580539669
 20
73.0878463887
 30
0.0
 10
38.5692640854
 20
73.0820658953
 30
0.0
 10
38.5512617105
 20
73.0748756844
 30
0.0
 10
38.5273586815
 20
73.0670749815
 30
0.0
 10
38.497686313
 20
73.0586677621
 30
0.0
 10
38.4625158949
 20
73.0498172319
 30
0.0
 10
38.4059920003
 20
73.0369856142
 30
0.0
 10
38.3258454293
 20
73.021257001
 30
0.0
 10
38.2223146288
 20
73.0035318343
 30
0.0
 10
38.1140835241
 20
72.9873446957
 30
0.0
 10
38.0411126271
 20
72.9777051014
 30
0.0
 10
38.0049790617
 20
72.9732386471
 30
0.0
  0
SPLINE
  5
251
100
AcDbEntity
  8
0
100
AcDbSpline
 62
7
  6
BYLAYER
 70
0
 71
3
 72
18
 73
14
 74
0
 42
0.0000001
 43
0.0000001
 44
0.0000000001
 40
0.0
 40
0.0
 40
0.0
 40
0.0
 40
0.0089363354
 40
0.0235099544
 40
0.0461526958
 40
0.0779814416
 40
0.1195968734
 40
0.170711211
 40
0.2307892359
 40
0.2992731988
 40
0.4578729209
 40
0.6353751991
 40
1.0
 40
1.0
 40
1.0
 40
1.0
 10
38.0049793275
 20
74.5894904974
 30
0.0
 10
38.0056933924
 20
74.5882872493
 30
0.0
 10
38.0054654276
 20
74.5841519429
 30
0.0
 10
38.0013094932
 20
74.5781806871
 30
0.0
 10
37.9939159291
 20
74.5702626777
 30
0.0
 10
37.9823959676
 20
74.5605478214
 30
0.0
 10
37.9667663692
 20
74.5488785449
 30
0.0
 10
37.9469974512
 20
74.5353901566
 30
0.0
 10
37.9232950125
 20
74.5202323569
 30
0.0
 10
37.8848398516
 20
74.4969286156
 30
0.0
 10
37.8296868974
 20
74.4657425684
 30
0.0
 10
37.7328529462
 20
74.414151447
 30
0.0
 10
37.6566929741
 20
74.3766123657
 30
0.0
 10
37.6050836484
 20
74.352204716
 30
0.0
  0
SPLINE
  5
252
100
AcDbEntity
  8
0
100
AcDbSpline
 62
7
  6
BYLAYER
 70
0
 71
3
 72
9
 73
5
 74
0
 42
0.0000001
 43
0.0000001
 44
0.0000000001
 40
0.0
 40
0.0
 40
0.0
 40
0.0
 40
0.4999925862
 40
1.0
 40
1.0
 40
1.0
 40
1.0
 10
9.2737294503
 20
37.0380201158
 30
0.0
 10
9.2737389977
 20
36.9013861853
 30
0.0
 10
9.2963507683
 20
36.6276614849
 30
0.0
 10
9.3623406427
 20
36.3612215828
 30
0.0
 10
9.4049794505
 20
36.2314068287
 30
0.0
  0
SPLINE
  5
253
100
AcDbEntity
  8
0
100
AcDbSpline
 62
7
  6
BYLAYER
 70
0
 71
3
 72
11
 73
7
 74
0
 42
0.0000001
 43
0.0000001
 44
0.0000000001
 40
0.0
 40
0.0
 40
0.0
 40
0.0
 40
0.1913467187
 40
0.4199033552
 40
0.6895243145
 40
1.0
 40
1.0
 40
1.0
 40
1.0
 10
8.7049794505
 20
75.8380201181
 30
0.0
 10
8.7049794505
 20
75.8481094112
 30
0.0
 10
8.7089059154
 20
75.870238142
 30
0.0
 10
8.7228157313
 20
75.9039747434
 30
0.0
 10
8.7443862497
 20
75.9408675593
 30
0.0
 10
8.7622459041
 20
75.9657381722
 30
0.0
 10
8.7721907592
 20
75.9787420085
 30
0.0
  0
SPLINE
  5
254
100
AcDbEntity
  8
0
100
AcDbSpline
 62
7
  6
BYLAYER
 70
0
 71
3
 72
9
 73
5
 74
0
 42
0.0000001
 43
0.0000001
 44
0.0000000001
 40
0.0
 40
0.0
 40
0.0
 40
0.0
 40
0.2420668936
 40
1.0
 40
1.0
 40
1.0
 40
1.0
 10
8.7721907592
 20
75.9787420085
 30
0.0
 10
8.7742797326
 20
75.9814735382
 30
0.0
 10
8.7829835316
 20
75.9927010421
 30
0.0
 10
8.7919637847
 20
76.0037130375
 30
0.0
 10
8.7988888595
 20
76.0119576102
 30
0.0
  0
SPLINE
  5
255
100
AcDbEntity
  8
0
100
AcDbSpline
 62
7
  6
BYLAYER
 70
0
 71
3
 72
11
 73
7
 74
0
 42
0.0000001
 43
0.0000001
 44
0.0000000001
 40
0.0
 40
0.0
 40
0.0
 40
0.0
 40
0.2458002729
 40
0.4952662564
 40
0.7470649232
 40
1.0
 40
1.0
 40
1.0
 40
1.0
 10
21.5347260091
 20
27.0851761163
 30
0.0
 10
21.7140582162
 20
27.079033773
 30
0.0
 10
22.0762530844
 20
27.0926560017
 30
0.0
 10
22.6181578568
 20
27.1555545014
 30
0.0
 10
23.1616682846
 20
27.2443475859
 30
0.0
 10
23.5237012685
 20
27.3129157491
 30
0.0
 10
23.7049794505
 20
27.3480201181
 30
0.0
  0
SPLINE
  5
256
100
AcDbEntity
  8
0
100
AcDbSpline
 62
7
  6
BYLAYER
 70
0
 71
3
 72
11
 73
7
 74
0
 42
0.0000001
 43
0.0000001
 44
0.0000000001
 40
0.0
 40
0.0
 40
0.0
 40
0.0
 40
0.2458009103
 40
0.4952668125
 40
0.7470657072
 40
1.0
 40
1.0
 40
1.0
 40
1.0
 10
25.8752328919
 20
27.0851761163
 30
0.0
 10
25.6958999431
 20
27.0790337476
 30
0.0
 10
25.3337011835
 20
27.0925760986
 30
0.0
 10
24.7918008963
 20
27.1555580133
 30
0.0
 10
24.2482987727
 20
27.2443903721
 30
0.0
 10
23.8862573502
 20
27.3129158038
 30
0.0
 10
23.7049794505
 20
27.3480201181
 30
0.0
  0
SPLINE
  5
257
100
AcDbEntity
  8
0
100
AcDbSpline
 62
7
  6
BYLAYER
 70
0
 71
3
 72
9
 73
5
 74
0
 42
0.0000001
 43
0.0000001
 44
0.0000000001
 40
0.0
 40
0.0
 40
0.0
 40
0.0
 40
0.2519547894
 40
1.0
 40
1.0
 40
1.0
 40
1.0
 10
9.5376671226
 20
76.6394008164
 30
0.0
 10
9.5250010964
 20
76.631110167
 30
0.0
 10
9.4762607205
 20
76.5958599769
 30
0.0
 10
9.4336569585
 20
76.5526158793
 30
0.0
 10
9.4049790017
 20
76.5180096338
 30
0.0
  0
SPLINE
  5
258
100
AcDbEntity
  8
0
100
AcDbSpline
 62
7
  6
BYLAYER
 70
0
 71
3
 72
9
 73
5
 74
0
 42
0.0000001
 43
0.0000001
 44
0.0000000001
 40
0.0
 40
0.0
 40
0.0
 40
0.0
 40
0.5015835731
 40
1.0
 40
1.0
 40
1.0
 40
1.0
 10
9.9049794505
 20
76.7380171609
 30
0.0
 10
9.8407212437
 20
76.7380168122
 30
0.0
 10
9.7119794302
 20
76.7246040767
 30
0.0
 10
9.5910945356
 20
76.6743672061
 30
0.0
 10
9.5376691136
 20
76.6393977746
 30
0.0
  0
SPLINE
  5
259
100
AcDbEntity
  8
0
100
AcDbSpline
 62
7
  6
BYLAYER
 70
0
 71
3
 72
9
 73
5
 74
0
 42
0.0000001
 43
0.0000001
 44
0.0000000001
 40
0.0
 40
0.0
 40
0.0
 40
0.0
 40
0.498447289
 40
1.0
 40
1.0
 40
1.0
 40
1.0
 10
37.6051080639
 20
74.3521236445
 30
0.0
 10
37.4352608811
 20
74.7112827113
 30
0.0
 10
36.9815451572
 20
75.3830203587
 30
0.0
 10
36.3542975579
 20
75.894292409
 30
0.0
 10
36.0123824005
 20
76.1014402801
 30
0.0
  0
SPLINE
  5
25A
100
AcDbEntity
  8
0
100
AcDbSpline
 62
7
  6
BYLAYER
 70
0
 71
3
 72
9
 73
5
 74
0
 42
0.0000001
 43
0.0000001
 44
0.0000000001
 40
0.0
 40
0.0
 40
0.0
 40
0.0
 40
0.4996914939
 40
1.0
 40
1.0
 40
1.0
 40
1.0
 10
36.0123824005
 20
76.1014402801
 30
0.0
 10
35.6682093412
 20
76.3099560916
 30
0.0
 10
34.9169911386
 20
76.6313713707
 30
0.0
 10
34.1078865029
 20
76.7380196298
 30
0.0
 10
33.7049794505
 20
76.7380201399
 30
0.0
  0
SPLINE
  5
25B
100
AcDbEntity
  8
0
100
AcDbSpline
 62
7
  6
BYLAYER
 70
0
 71
3
 72
17
 73
13
 74
0
 42
0.0000001
 43
0.0000001
 44
0.0000000001
 40
0.0
 40
0.0
 40
0.0
 40
0.0
 40
0.0258806175
 40
0.059992276
 40
0.1022378269
 40
0.1515737423
 40
0.267162366
 40
0.3990663547
 40
0.5416583218
 40
0.6910763228
 40
0.8445765952
 40
1.0
 40
1.0
 40
1.0
 40
1.0
 10
38.7049794505
 20
72.0380201181
 30
0.0
 10
38.7049794005
 20
72.0481515541
 30
0.0
 10
38.6996891355
 20
72.0714790221
 30
0.0
 10
38.6836752114
 20
72.108167583
 30
0.0
 10
38.6596863611
 20
72.1512179989
 30
0.0
 10
38.6159325562
 20
72.219521994
 30
0.0
 10
38.5477262455
 20
72.3136873273
 30
0.0
 10
38.4541671
 20
72.434375401
 30
0.0
 10
38.3499606377
 20
72.5635402268
 30
0.0
 10
38.2388153014
 20
72.6979411872
 30
0.0
 10
38.1232649799
 20
72.835210215
 30
0.0
 10
38.0446262217
 20
72.927085814
 30
0.0
 10
38.0049794505
 20
72.9732381828
 30
0.0
  0
SPLINE
  5
25C
100
AcDbEntity
  8
0
100
AcDbSpline
 62
7
  6
BYLAYER
 70
0
 71
3
 72
9
 73
5
 74
0
 42
0.0000001
 43
0.0000001
 44
0.0000000001
 40
0.0
 40
0.0
 40
0.0
 40
0.0
 40
0.4999922152
 40
1.0
 40
1.0
 40
1.0
 40
1.0
 10
38.1362294507
 20
37.0380201183
 30
0.0
 10
38.1362203945
 20
37.1746539837
 30
0.0
 10
38.1136094756
 20
37.4483787216
 30
0.0
 10
38.0476204942
 20
37.7148192428
 30
0.0
 10
38.0049794505
 20
37.8446334074
 30
0.0
  0
SPLINE
  5
25D
100
AcDbEntity
  8
0
100
AcDbSpline
 62
7
  6
BYLAYER
 70
0
 71
3
 72
9
 73
5
 74
0
 42
0.0000001
 43
0.0000001
 44
0.0000000001
 40
0.0
 40
0.0
 40
0.0
 40
0.0
 40
0.5000049605
 40
1.0
 40
1.0
 40
1.0
 40
1.0
 10
38.0049794505
 20
36.2314068288
 30
0.0
 10
38.0476248289
 20
36.3612187062
 30
0.0
 10
38.1136023491
 20
36.6276620737
 30
0.0
 10
38.1362226003
 20
36.9013855295
 30
0.0
 10
38.1362294507
 20
37.0380201183
 30
0.0
  0
SPLINE
  5
25E
100
AcDbEntity
  8
0
100
AcDbSpline
 62
7
  6
BYLAYER
 70
0
 71
3
 72
14
 73
10
 74
0
 42
0.0000001
 43
0.0000001
 44
0.0000000001
 40
0.0
 40
0.0
 40
0.0
 40
0.0
 40
0.0924776434
 40
0.1935929183
 40
0.3067070856
 40
0.4323275761
 40
0.568917191
 40
0.7124788483
 40
1.0
 40
1.0
 40
1.0
 40
1.0
 10
38.3202417717
 20
28.755604804
 30
0.0
 10
38.3304587272
 20
28.7580252553
 30
0.0
 10
38.3511896053
 20
28.7663103278
 30
0.0
 10
38.3790476785
 20
28.7878749244
 30
0.0
 10
38.402796596
 20
28.8187278579
 30
0.0
 10
38.4215461939
 20
28.8572698657
 30
0.0
 10
38.4341091376
 20
28.9018064009
 30
0.0
 10
38.4428218541
 20
28.9658120786
 30
0.0
 10
38.44041794
 20
29.0152282475
 30
0.0
 10
38.4356630744
 20
29.0475247566
 30
0.0
  0
SPLINE
  5
25F
100
AcDbEntity
  8
0
100
AcDbSpline
 62
7
  6
BYLAYER
 70
0
 71
3
 72
9
 73
5
 74
0
 42
0.0000001
 43
0.0000001
 44
0.0000000001
 40
0.0
 40
0.0
 40
0.0
 40
0.0
 40
0.5000077892
 40
1.0
 40
1.0
 40
1.0
 40
1.0
 10
9.4049794505
 20
37.8446334075
 30
0.0
 10
9.3623380755
 20
37.7148193508
 30
0.0
 10
9.2963496294
 20
37.4483786554
 30
0.0
 10
9.273738544
 20
37.1746539795
 30
0.0
 10
9.2737294503
 20
37.0380201158
 30
0.0
  0
SPLINE
  5
260
100
AcDbEntity
  8
0
100
AcDbSpline
 62
7
  6
BYLAYER
 70
0
 71
3
 72
13
 73
9
 74
0
 42
0.0000001
 43
0.0000001
 44
0.0000000001
 40
0.0
 40
0.0
 40
0.0
 40
0.0
 40
0.0886016992
 40
0.1818569963
 40
0.2839752872
 40
0.3983978532
 40
0.6706226258
 40
1.0
 40
1.0
 40
1.0
 40
1.0
 10
8.7049794506
 20
29.2421367219
 30
0.0
 10
8.7049830955
 20
29.2315567889
 30
0.0
 10
8.708044301
 20
29.2097361863
 30
0.0
 10
8.7215907964
 20
29.1782782543
 30
0.0
 10
8.7439040525
 20
29.1484020022
 30
0.0
 10
8.7876621427
 20
29.1093141986
 30
0.0
 10
8.8648569744
 20
29.0696932865
 30
0.0
 10
8.9353193709
 20
29.0528024644
 30
0.0
 10
8.9742944569
 20
29.0475234626
 30
0.0
  0
SPLINE
  5
261
100
AcDbEntity
  8
0
100
AcDbSpline
 62
7
  6
BYLAYER
 70
0
 71
3
 72
13
 73
9
 74
0
 42
0.0000001
 43
0.0000001
 44
0.0000000001
 40
0.0
 40
0.0
 40
0.0
 40
0.0
 40
0.329371893
 40
0.6015998585
 40
0.7160188461
 40
0.8181330925
 40
0.9113891352
 40
1.0
 40
1.0
 40
1.0
 40
1.0
 10
38.4356632835
 20
29.0475230492
 30
0.0
 10
38.4746378364
 20
29.0528016706
 30
0.0
 10
38.5450998805
 20
29.0696933666
 30
0.0
 10
38.6222946134
 20
29.1093128491
 30
0.0
 10
38.6660532728
 20
29.1483994318
 30
0.0
 10
38.6883661169
 20
29.1782751262
 30
0.0
 10
38.7019124699
 20
29.2097339495
 30
0.0
 10
38.7049745769
 20
29.2315554442
 30
0.0
 10
38.7049794505
 20
29.2421364913
 30
0.0
  0
ENDSEC
  0
SECTION
  2
OBJECTS
  0
DICTIONARY
  5
C
100
AcDbDictionary
280
0
281
1
  3
ACAD_GROUP
350
D
  3
ACAD_MLINESTYLE
350
17
  3
ACAD_LAYOUT
350
1A
  3
ACAD_PLOTSETTINGS
350
19
  3
ACAD_PLOTSTYLENAME
350
E
  0
DICTIONARY
  5
D
102
{ACAD_REACTORS
330
C
102
}
100
AcDbDictionary
280
0
281
1
  0
ACDBDICTIONARYWDFLT
  5
E
102
{ACAD_REACTORS
330
C
102
}
100
AcDbDictionary
281
1
  3
Normal
350
F
100
AcDbDictionaryWithDefault
340
F
  0
DICTIONARY
  5
17
102
{ACAD_REACTORS
330
C
102
}
100
AcDbDictionary
280
0
281
1
  3
Standard
350
18
  0
DICTIONARY
  5
19
102
{ACAD_REACTORS
330
C
102
}
100
AcDbDictionary
281
1
  0
DICTIONARY
  5
1A
102
{ACAD_REACTORS
330
C
102
}
100
AcDbDictionary
281
1
  3
Model
350
262
  3
Layout1
350
263
  0
ACDBPLACEHOLDER
  5
F
102
{ACAD_REACTORS
330
E
102
}
  0
MLINESTYLE
  5
18
102
{ACAD_REACTORS
330
17
102
}
100
AcDbMlineStyle
  2
STANDARD
 70
0
  3

 62
256
 51
90.0
 52
90.0
 71
2
 49
0.5
 62
256
  6
BYLAYER
 49
-0.5
 62
256
  6
BYLAYER
  0
LAYOUT
  5
262
102
{ACAD_REACTORS
330
1A
102
}
100
AcDbPlotSettings
  1

  2
none_device
  4

  6

 40
0.0
 41
0.0
 42
0.0
 43
0.0
 44
210.0
 45
297.0
 46
0.0
 47
0.0
 48
0.0
 49
0.0
140
0.0
141
0.0
142
1.0
143
1.0
 70
1024
 72
1
 73
0
 74
0
  7

 75
0
147
1.0
148
0.0
149
0.0
100
AcDbLayout
  1
Model
 70
0
 71
0
 10
0.0
 20
0.0
 11
210.0
 21
297.0
 12
0.0
 22
0.0
 32
0.0
 14
0.0
 24
0.0
 34
0.0
 15
0.0
 25
0.0
 35
0.0
146
0.0
 13
0.0
 23
0.0
 33
0.0
 16
1.0
 26
0.0
 36
0.0
 17
0.0
 27
1.0
 37
0.0
 76
0
330
210
345
0
346
0
  0
LAYOUT
  5
263
102
{ACAD_REACTORS
330
1A
102
}
100
AcDbPlotSettings
  1

  2
none_device
  4

  6

 40
0.0
 41
0.0
 42
0.0
 43
0.0
 44
210.0
 45
297.0
 46
0.0
 47
0.0
 48
0.0
 49
0.0
140
0.0
141
0.0
142
1.0
143
1.0
 70
0
 72
1
 73
0
 74
0
  7

 75
0
147
1.0
148
0.0
149
0.0
100
AcDbLayout
  1
Layout1
 70
0
 71
1
 10
0.0
 20
0.0
 11
210.0
 21
297.0
 12
0.0
 22
0.0
 32
0.0
 14
0.0
 24
0.0
 34
0.0
 15
0.0
 25
0.0
 35
0.0
146
0.0
 13
0.0
 23
0.0
 33
0.0
 16
1.0
 26
0.0
 36
0.0
 17
0.0
 27
1.0
 37
0.0
 76
0
330
211
345
0
346
0
  0
ENDSEC
  0
EOF
