999
DXF file: C:\Users\sesa63760\Dev\_Creo\CAD\MCADID0004660_3D-CAD\drw0001_2.dxf
999
Pro/ENGINEER 2019471 by Parametric Technology Corporation
  0
SECTION
  2
HEADER
  9
$ACADVER
  1
AC1024
  9
$DWGCODEPAGE
  3
ANSI_1252
  9
$EXTMAX
 10
67.3956228956
 20
95.3166666667
 30
0.0
  9
$EXTMIN
 10
0.0
 20
0.0
 30
0.0
  9
$LIMMIN
 10
0.0
 20
0.0
  9
$LIMMAX
 10
67.3956228956
 20
95.3166666667
  9
$VIEWCTR
 10
33.6978114478
 20
47.6583333333
  9
$VIEWSIZE
 40
95.3166666667
  9
$CLAYER
  8
0
  9
$LTSCALE
 40
6.2132345679
  9
$CELTYPE
  6
BYLAYER
  9
$DIMSCALE
 40
1.0
  9
$DIMASZ
 40
0.802328844
  9
$DIMEXO
 40
1.0
  9
$DIMDLI
 40
4.2927802469
  9
$DIMEXE
 40
1.0
  9
$DIMCEN
 40
1.0167111111
  9
$DIMLFAC
 40
1.0
  9
$DIMBLK
  1
_FILLED
  9
$DIMALT
 70
0
  9
$DIMALTF
 40
0.0393700787
  9
$DIMTXT
 40
1.1232603816
  9
$DIMTOL
 70
1
  9
$DIMLIM
 70
0
  9
$DIMTFAC
 40
1.0
  9
$DIMTP
 40
0.01
  9
$DIMTM
 40
0.01
  9
$DIMGAP
 40
0.625
  9
$DIMDSEP
 70
46
  9
$AUNITS
 70
0
  9
$PDMODE
 70
3
  9
$PDSIZE
 40
0.3125
  9
$HANDSEED
  5
271
  9
$TILEMODE
 70
1
  9
$MEASUREMENT
 70
1
  9
$INSUNITS
 70
4
  0
ENDSEC
  0
SECTION
  2
CLASSES
  0
CLASS
  1
ACDBDICTIONARYWDFLT
  2
AcDbDictionaryWithDefault
  3
AutoCAD 2000
 90
0
 91
1
280
0
281
0
  0
CLASS
  1
ACDBPLACEHOLDER
  2
AcDbPlaceHolder
  3
AutoCAD 2000
 90
0
 91
1
280
0
281
0
  0
CLASS
  1
LAYOUT
  2
AcDbLayout
  3
AutoCAD 2000
 90
0
 91
0
280
0
281
0
  0
ENDSEC
  0
SECTION
  2
TABLES
  0
TABLE
  2
VPORT
  5
8
100
AcDbSymbolTable
 70
2
  0
VPORT
  5
1F4
100
AcDbSymbolTableRecord
100
AcDbViewportTableRecord
  2
*ACTIVE
 70
0
 10
0.0
 20
0.0
 11
1.0
 21
1.0
 12
33.6978114478
 22
47.6583333333
 13
0.0
 23
0.0
 14
1.0
 24
1.0
 15
0.0
 25
0.0
 16
0.0
 26
0.0
 36
1.0
 17
0.0
 27
0.0
 37
0.0
 40
95.3166666667
 41
0.7070707071
 42
50.0
 43
0.0
 44
0.0
 50
0.0
 51
0.0
 71
0
 72
100
 73
1
 74
1
 75
0
 76
0
 77
0
 78
0
  0
ENDTAB
  0
TABLE
  2
LTYPE
  5
5
100
AcDbSymbolTable
 70
6
  0
LTYPE
  5
14
100
AcDbSymbolTableRecord
100
AcDbLinetypeTableRecord
  2
BYBLOCK
 70
0
  3

 72
65
 73
0
 40
0.0
  0
LTYPE
  5
15
100
AcDbSymbolTableRecord
100
AcDbLinetypeTableRecord
  2
BYLAYER
 70
0
  3

 72
65
 73
0
 40
0.0
  0
LTYPE
  5
16
100
AcDbSymbolTableRecord
100
AcDbLinetypeTableRecord
  2
CONTINUOUS
 70
64
  3
Solid line
 72
65
 73
0
 40
0.0
  0
LTYPE
  5
1F5
100
AcDbSymbolTableRecord
100
AcDbLinetypeTableRecord
  2
CENTER
 70
64
  3
____ _ ____ _ ____ _ ____ _ ____ _ ____ _ ____
 72
65
 73
4
 40
0.6
 49
0.375
 74
0
 49
-0.075
 74
0
 49
0.075
 74
0
 49
-0.075
 74
0
  0
LTYPE
  5
1F6
100
AcDbSymbolTableRecord
100
AcDbLinetypeTableRecord
  2
HIDDEN
 70
64
  3
- - - - - - - - - - - - - - - - - - - -
 72
65
 73
2
 40
0.2
 49
0.1
 74
0
 49
-0.1
 74
0
  0
LTYPE
  5
1F7
100
AcDbSymbolTableRecord
100
AcDbLinetypeTableRecord
  2
PHANTOM
 70
64
  3
_____ _ _ _____ _ _ _____ _ _ _____
 72
65
 73
6
 40
0.8
 49
0.45
 74
0
 49
-0.05
 74
0
 49
0.1
 74
0
 49
-0.05
 74
0
 49
0.1
 74
0
 49
-0.05
 74
0
  0
LTYPE
  5
1F8
100
AcDbSymbolTableRecord
100
AcDbLinetypeTableRecord
  2
DOT
 70
64
  3
. . . . . . . . . . . . . . . . . . . .
 72
65
 73
2
 40
0.2
 49
0.1
 74
0
 49
-0.1
 74
0
  0
LTYPE
  5
1F9
100
AcDbSymbolTableRecord
100
AcDbLinetypeTableRecord
  2
DASHED
 70
64
  3
- - - - - - - - - - - - - - - - - - - -
 72
65
 73
2
 40
0.2
 49
0.1
 74
0
 49
-0.1
 74
0
  0
ENDTAB
  0
TABLE
  2
LAYER
  5
2
100
AcDbSymbolTable
 70
36
  0
LAYER
  5
10
100
AcDbSymbolTableRecord
100
AcDbLayerTableRecord
  2
0
 70
0
 62
7
  6
CONTINUOUS
370
-3
390
F
  0
LAYER
  5
1FA
100
AcDbSymbolTableRecord
100
AcDbLayerTableRecord
  2
DEFAULT_1
 70
0
 62
7
  6
CENTER
370
-3
390
F
  0
LAYER
  5
1FB
100
AcDbSymbolTableRecord
100
AcDbLayerTableRecord
  2
DEFAULT_2
 70
0
 62
7
  6
HIDDEN
370
-3
390
F
  0
LAYER
  5
1FC
100
AcDbSymbolTableRecord
100
AcDbLayerTableRecord
  2
DEFAULT_3
 70
0
 62
7
  6
PHANTOM
370
-3
390
F
  0
LAYER
  5
1FD
100
AcDbSymbolTableRecord
100
AcDbLayerTableRecord
  2
00_COMPONENTS
 70
0
 62
7
  6
CONTINUOUS
370
-3
390
F
  0
LAYER
  5
1FE
100
AcDbSymbolTableRecord
100
AcDbLayerTableRecord
  2
01_1_DEFAULT_DATUMS
 70
0
 62
7
  6
CONTINUOUS
370
-3
390
F
  0
LAYER
  5
1FF
100
AcDbSymbolTableRecord
100
AcDbLayerTableRecord
  2
01_PLANES
 70
0
 62
7
  6
CONTINUOUS
370
-3
390
F
  0
LAYER
  5
200
100
AcDbSymbolTableRecord
100
AcDbLayerTableRecord
  2
02_COORD_SYS
 70
0
 62
7
  6
CONTINUOUS
370
-3
390
F
  0
LAYER
  5
201
100
AcDbSymbolTableRecord
100
AcDbLayerTableRecord
  2
03_AXES
 70
0
 62
7
  6
CONTINUOUS
370
-3
390
F
  0
LAYER
  5
202
100
AcDbSymbolTableRecord
100
AcDbLayerTableRecord
  2
04_POINTS
 70
0
 62
7
  6
CONTINUOUS
370
-3
390
F
  0
LAYER
  5
203
100
AcDbSymbolTableRecord
100
AcDbLayerTableRecord
  2
05_CURVES
 70
0
 62
7
  6
CONTINUOUS
370
-3
390
F
  0
LAYER
  5
204
100
AcDbSymbolTableRecord
100
AcDbLayerTableRecord
  2
06_SURFS
 70
0
 62
7
  6
CONTINUOUS
370
-3
390
F
  0
LAYER
  5
205
100
AcDbSymbolTableRecord
100
AcDbLayerTableRecord
  2
07_COSMETICS
 70
0
 62
7
  6
CONTINUOUS
370
-3
390
F
  0
LAYER
  5
206
100
AcDbSymbolTableRecord
100
AcDbLayerTableRecord
  2
10_NOTES
 70
0
 62
7
  6
CONTINUOUS
370
-3
390
F
  0
LAYER
  5
207
100
AcDbSymbolTableRecord
100
AcDbLayerTableRecord
  2
11_NOTES_PUB
 70
0
 62
7
  6
CONTINUOUS
370
-3
390
F
  0
LAYER
  5
208
100
AcDbSymbolTableRecord
100
AcDbLayerTableRecord
  2
13_REF_GTOL
 70
0
 62
7
  6
CONTINUOUS
370
-3
390
F
  0
LAYER
  5
209
100
AcDbSymbolTableRecord
100
AcDbLayerTableRecord
  2
16_MISC
 70
0
 62
7
  6
CONTINUOUS
370
-3
390
F
  0
LAYER
  5
20A
100
AcDbSymbolTableRecord
100
AcDbLayerTableRecord
  2
17_NO_PRINT
 70
0
 62
7
  6
CONTINUOUS
370
-3
390
F
  0
LAYER
  5
20B
100
AcDbSymbolTableRecord
100
AcDbLayerTableRecord
  2
18_DATUM_CAMS_JOINTS
 70
0
 62
7
  6
CONTINUOUS
370
-3
390
F
  0
LAYER
  5
20C
100
AcDbSymbolTableRecord
100
AcDbLayerTableRecord
  2
19_DATUM_FUNCTIONAL
 70
0
 62
7
  6
CONTINUOUS
370
-3
390
F
  0
LAYER
  5
20D
100
AcDbSymbolTableRecord
100
AcDbLayerTableRecord
  2
20_DATUM_KINEMATIC_SCHEME
 70
0
 62
7
  6
CONTINUOUS
370
-3
390
F
  0
ENDTAB
  0
TABLE
  2
STYLE
  5
3
100
AcDbSymbolTable
 70
1
  0
STYLE
  5
11
100
AcDbSymbolTableRecord
100
AcDbTextStyleTableRecord
  2
STANDARD
 70
0
 40
0.0
 41
1.0
 50
0.0
 71
0
 42
0.2
  3
ARIAL.TTF
  4

  0
STYLE
  5
20E
100
AcDbSymbolTableRecord
100
AcDbTextStyleTableRecord
  2
TEXTSTYLE_1
 70
0
 40
0.0
 41
0.8
 50
0.0
 71
0
 42
0.2
  3
gdt
  4

  0
ENDTAB
  0
TABLE
  2
VIEW
  5
6
100
AcDbSymbolTable
 70
0
  0
ENDTAB
  0
TABLE
  2
UCS
  5
7
100
AcDbSymbolTable
 70
0
  0
ENDTAB
  0
TABLE
  2
APPID
  5
9
100
AcDbSymbolTable
 70
1
  0
APPID
  5
20F
100
AcDbSymbolTableRecord
100
AcDbRegAppTableRecord
  2
ACAD
 70
0
  0
ENDTAB
  0
TABLE
  2
BLOCK_RECORD
  5
1
100
AcDbSymbolTable
 70
0
  0
BLOCK_RECORD
  5
210
100
AcDbSymbolTableRecord
100
AcDbBlockTableRecord
  2
*Model_Space
  0
BLOCK_RECORD
  5
211
100
AcDbSymbolTableRecord
100
AcDbBlockTableRecord
  2
*Paper_Space
  0
BLOCK_RECORD
  5
212
100
AcDbSymbolTableRecord
100
AcDbBlockTableRecord
  2
_FILLED
  0
ENDTAB
  0
TABLE
  2
DIMSTYLE
  5
A
100
AcDbSymbolTable
 70
1
100
AcDbDimStyleTable
 71
0
  0
DIMSTYLE
105
213
100
AcDbSymbolTableRecord
100
AcDbDimStyleTableRecord
  2
STANDARD
 70
0
  3

  4

 40
1.0
 41
0.802328844
 42
1.0
 43
0.38
 44
1.0
 45
0.0
 46
0.0
 47
0.01
 48
0.01
140
1.1232603816
141
0.09
142
0.0
143
25.4
144
1.0
145
0.0
146
1.0
147
0.625
 71
1
 72
0
 73
0
 74
0
 75
0
 76
0
 77
1
 78
8
 79
2
170
0
171
1
172
0
173
0
174
0
175
0
176
0
177
0
178
0
270
2
179
2
271
2
272
2
273
2
274
2
275
0
280
0
281
0
282
0
283
1
284
8
285
0
286
0
287
3
288
0
340
11
278
46
341
212
342
212
343
212
344
212
  0
ENDTAB
  0
ENDSEC
  0
SECTION
  2
BLOCKS
  0
BLOCK
  5
20
100
AcDbEntity
  8
0
100
AcDbBlockBegin
  2
*Model_Space
 70
0
 10
0.0
 20
0.0
 30
0.0
  3
*Model_Space
  1

  0
ENDBLK
  5
21
100
AcDbEntity
  8
0
100
AcDbBlockEnd
  0
BLOCK
  5
1C
100
AcDbEntity
  8
0
100
AcDbBlockBegin
  2
*Paper_Space
 70
0
 10
0.0
 20
0.0
 30
0.0
  3
*Paper_Space
  1

  0
ENDBLK
  5
1D
100
AcDbEntity
  8
0
100
AcDbBlockEnd
  0
BLOCK
  5
214
100
AcDbEntity
  8
0
100
AcDbBlockBegin
  2
_FILLED
 70
64
 10
0.0
 20
0.0
  3
_FILLED
  1

  0
SOLID
  5
215
100
AcDbEntity
  8
0
  6
BYBLOCK
 62
0
100
AcDbTrace
 10
0.0
 20
0.0
 11
-1.0
 21
0.25
 12
-1.0
 22
-0.25
 13
-1.0
 23
-0.25
  0
ENDBLK
  5
216
100
AcDbEntity
  8
0
  6
BYBLOCK
 62
0
100
AcDbBlockEnd
  0
ENDSEC
  0
SECTION
  2
ENTITIES
  0
LINE
  5
217
100
AcDbEntity
  8
0
100
AcDbLine
 62
7
  6
BYLAYER
 10
28.7144781145
 20
6.3583333333
 11
24.0144781145
 21
6.3583333333
  0
LINE
  5
218
100
AcDbEntity
  8
0
100
AcDbLine
 62
7
  6
BYLAYER
 10
35.2644781145
 20
87.1801853266
 11
36.2644781145
 21
88.6083333333
  0
LINE
  5
219
100
AcDbEntity
  8
0
100
AcDbLine
 62
7
  6
BYLAYER
 10
20.8644781145
 20
72.4665931543
 11
20.8644781145
 21
85.0724163195
  0
LINE
  5
21A
100
AcDbEntity
  8
0
100
AcDbLine
 62
7
  6
BYLAYER
 10
21.1644781145
 20
52.8583333333
 11
21.1644781145
 21
53.3583333333
  0
LINE
  5
21B
100
AcDbEntity
  8
0
100
AcDbLine
 62
7
  6
BYLAYER
 10
21.6144781145
 20
66.3583333333
 11
21.6144781145
 21
63.8583333333
  0
LINE
  5
21C
100
AcDbEntity
  8
0
100
AcDbLine
 62
7
  6
BYLAYER
 10
21.9644781145
 20
53.3583333333
 11
21.9644781145
 21
62.3583333333
  0
LINE
  5
21D
100
AcDbEntity
  8
0
100
AcDbLine
 62
7
  6
BYLAYER
 10
22.5171817591
 20
72.4515249623
 11
22.5171817591
 21
87.0420318255
  0
LWPOLYLINE
  5
21E
100
AcDbEntity
  8
0
100
AcDbPolyline
 62
7
  6
BYLAYER
 90
4
 70
0
 10
32.0196291443
 20
73.7301968839
 10
32.2834304061
 20
74.2929701108
 10
32.5341766804
 20
74.4864709604
 10
33.0121760095
 20
74.6083333332
  0
LINE
  5
21F
100
AcDbEntity
  8
0
100
AcDbLine
 62
7
  6
BYLAYER
 10
23.5915151145
 20
66.3583333333
 11
23.5915151145
 21
81.3583333333
  0
LINE
  5
220
100
AcDbEntity
  8
0
100
AcDbLine
 62
7
  6
BYLAYER
 10
24.0144781145
 20
6.3583333333
 11
24.0144781145
 21
50.3583333333
  0
LINE
  5
221
100
AcDbEntity
  8
0
100
AcDbLine
 62
7
  6
BYLAYER
 10
24.5077336517
 20
65.3583333333
 11
24.5077336517
 21
66.3583333333
  0
LINE
  5
222
100
AcDbEntity
  8
0
100
AcDbLine
 62
7
  6
BYLAYER
 10
25.0789716602
 20
80.8042064664
 11
25.0789716602
 21
66.3583333333
  0
LINE
  5
223
100
AcDbEntity
  8
0
100
AcDbLine
 62
7
  6
BYLAYER
 10
21.8814123097
 20
50.9986276148
 11
21.1644781145
 21
52.8583333333
  0
LINE
  5
224
100
AcDbEntity
  8
0
100
AcDbLine
 62
7
  6
BYLAYER
 10
21.9644781145
 20
62.3583333333
 11
21.6144781145
 21
63.8583333333
  0
LINE
  5
225
100
AcDbEntity
  8
0
100
AcDbLine
 62
7
  6
BYLAYER
 10
21.6144781145
 20
66.3583333333
 11
20.8645298317
 21
72.4661719515
  0
LINE
  5
226
100
AcDbEntity
  8
0
100
AcDbLine
 62
7
  6
BYLAYER
 10
22.5171817591
 20
72.4515249623
 11
23.2653316178
 21
66.3583333333
  0
LINE
  5
227
100
AcDbEntity
  8
0
100
AcDbLine
 62
7
  6
BYLAYER
 10
27.0622456665
 20
66.3583333333
 11
27.0622456665
 21
79.3243525774
  0
LINE
  5
228
100
AcDbEntity
  8
0
100
AcDbLine
 62
7
  6
BYLAYER
 10
28.1336805438
 20
88.0323720984
 11
28.1336805438
 21
78.6794309023
  0
LINE
  5
229
100
AcDbEntity
  8
0
100
AcDbLine
 62
7
  6
BYLAYER
 10
28.2212225772
 20
66.3583333333
 11
28.2212225772
 21
65.3583333333
  0
LINE
  5
22A
100
AcDbEntity
  8
0
100
AcDbLine
 62
7
  6
BYLAYER
 10
28.5744911145
 20
78.5138909255
 11
28.5744911145
 21
66.3583333333
  0
LINE
  5
22B
100
AcDbEntity
  8
0
100
AcDbLine
 62
7
  6
BYLAYER
 10
28.7144781145
 20
50.3583333333
 11
28.7144781145
 21
6.3583333333
  0
LINE
  5
22C
100
AcDbEntity
  8
0
100
AcDbLine
 62
7
  6
BYLAYER
 10
30.115533307
 20
66.3583333333
 11
31.4489768775
 21
77.2183597136
  0
LINE
  5
22D
100
AcDbEntity
  8
0
100
AcDbLine
 62
7
  6
BYLAYER
 10
31.1144781145
 20
63.8583333333
 11
30.7644781145
 21
62.3583333333
  0
LINE
  5
22E
100
AcDbEntity
  8
0
100
AcDbLine
 62
7
  6
BYLAYER
 10
29.00192227
 20
77.2183597136
 11
29.0019214321
 21
88.1083333333
  0
LINE
  5
22F
100
AcDbEntity
  8
0
100
AcDbLine
 62
7
  6
BYLAYER
 10
30.7644781145
 20
62.3583333333
 11
30.7644781145
 21
53.3583333333
  0
LINE
  5
230
100
AcDbEntity
  8
0
100
AcDbLine
 62
7
  6
BYLAYER
 10
31.1144781145
 20
63.8583333333
 11
31.1144781145
 21
66.3583333333
  0
LINE
  5
231
100
AcDbEntity
  8
0
100
AcDbLine
 62
7
  6
BYLAYER
 10
31.4489766369
 20
77.6917942197
 11
31.4489766369
 21
77.2183597136
  0
LINE
  5
232
100
AcDbEntity
  8
0
100
AcDbLine
 62
7
  6
BYLAYER
 10
31.4644781145
 20
52.8583333333
 11
31.4644781145
 21
53.3583333333
  0
LINE
  5
233
100
AcDbEntity
  8
0
100
AcDbLine
 62
7
  6
BYLAYER
 10
32.1849783176
 20
75.0768578389
 11
31.1144781145
 21
66.3583333333
  0
LINE
  5
234
100
AcDbEntity
  8
0
100
AcDbLine
 62
7
  6
BYLAYER
 10
33.177515083
 20
75.7809611562
 11
33.0122086069
 21
74.6083333333
  0
LINE
  5
235
100
AcDbEntity
  8
0
100
AcDbLine
 62
7
  6
BYLAYER
 10
30.7475439192
 20
50.9986276148
 11
31.4644781145
 21
52.8583333333
  0
LINE
  5
236
100
AcDbEntity
  8
0
100
AcDbLine
 62
7
  6
BYLAYER
 10
33.3644781145
 20
88.1083333333
 11
33.3644781145
 21
74.6083333333
  0
LINE
  5
237
100
AcDbEntity
  8
0
100
AcDbLine
 62
7
  6
BYLAYER
 10
34.3644781145
 20
87.1081088626
 11
34.3644781145
 21
75.6085578041
  0
LINE
  5
238
100
AcDbEntity
  8
0
100
AcDbLine
 62
7
  6
BYLAYER
 10
35.2644781145
 20
75.5364893468
 11
35.2644781145
 21
87.1801773198
  0
LINE
  5
239
100
AcDbEntity
  8
0
100
AcDbLine
 62
7
  6
BYLAYER
 10
36.2644781145
 20
74.1083333333
 11
36.2644781145
 21
88.6083333333
  0
LINE
  5
23A
100
AcDbEntity
  8
0
100
AcDbLine
 62
7
  6
BYLAYER
 10
29.814467483
 20
50.3583333333
 11
22.8144887459
 21
50.3583333333
  0
LINE
  5
23B
100
AcDbEntity
  8
0
100
AcDbLine
 62
7
  6
BYLAYER
 10
30.7475439192
 20
50.9986276148
 11
21.8814123097
 21
50.9986276148
  0
LINE
  5
23C
100
AcDbEntity
  8
0
100
AcDbLine
 62
7
  6
BYLAYER
 10
31.4644781145
 20
52.8583333333
 11
21.1644781145
 21
52.8583333333
  0
LINE
  5
23D
100
AcDbEntity
  8
0
100
AcDbLine
 62
7
  6
BYLAYER
 10
21.1646780989
 20
53.3583333333
 11
31.46427813
 21
53.3583333333
  0
LINE
  5
23E
100
AcDbEntity
  8
0
100
AcDbLine
 62
7
  6
BYLAYER
 10
45.7644781145
 20
88.6083303536
 11
45.7644781145
 21
74.108336313
  0
LINE
  5
23F
100
AcDbEntity
  8
0
100
AcDbLine
 62
7
  6
BYLAYER
 10
46.4644781145
 20
83.7561204115
 11
46.4644781145
 21
83.6782225373
  0
LINE
  5
240
100
AcDbEntity
  8
0
100
AcDbLine
 62
7
  6
BYLAYER
 10
46.9644781145
 20
85.4583333333
 11
46.9644781145
 21
84.738882709
  0
LINE
  5
241
100
AcDbEntity
  8
0
100
AcDbLine
 62
7
  6
BYLAYER
 10
46.9644781145
 20
83.6782225373
 11
46.9644781145
 21
77.2583333333
  0
LINE
  5
242
100
AcDbEntity
  8
0
100
AcDbLine
 62
7
  6
BYLAYER
 10
47.4644781145
 20
84.9581277673
 11
47.4644781145
 21
77.758517907
  0
LINE
  5
243
100
AcDbEntity
  8
0
100
AcDbLine
 62
7
  6
BYLAYER
 10
21.9644781145
 20
62.3583333333
 11
30.7644781145
 21
62.3583333333
  0
LINE
  5
244
100
AcDbEntity
  8
0
100
AcDbLine
 62
7
  6
BYLAYER
 10
35.2644781145
 20
75.5364813401
 11
36.2644781145
 21
74.1083333333
  0
LINE
  5
245
100
AcDbEntity
  8
0
100
AcDbLine
 62
7
  6
BYLAYER
 10
31.1144781145
 20
65.3583333333
 11
28.2212225772
 21
65.3583333333
  0
LINE
  5
246
100
AcDbEntity
  8
0
100
AcDbLine
 62
7
  6
BYLAYER
 10
24.5077336517
 20
65.3583333333
 11
21.6144781145
 21
65.3583333333
  0
LINE
  5
247
100
AcDbEntity
  8
0
100
AcDbLine
 62
7
  6
BYLAYER
 10
21.6144781145
 20
66.3583333333
 11
31.1144781145
 21
66.3583333333
  0
LINE
  5
248
100
AcDbEntity
  8
0
100
AcDbLine
 62
7
  6
BYLAYER
 10
36.2644781145
 20
74.1083333333
 11
45.7644781145
 21
74.1083333333
  0
LINE
  5
249
100
AcDbEntity
  8
0
100
AcDbLine
 62
7
  6
BYLAYER
 10
33.3644781145
 20
74.6083333333
 11
33.0122085909
 21
74.6083333333
  0
LINE
  5
24A
100
AcDbEntity
  8
0
100
AcDbLine
 62
7
  6
BYLAYER
 10
35.2644781145
 20
76.6583333333
 11
34.3644781145
 21
76.6583333333
  0
LINE
  5
24B
100
AcDbEntity
  8
0
100
AcDbLine
 62
7
  6
BYLAYER
 10
29.0019298564
 20
77.2183597136
 11
31.4489768775
 21
77.2183597136
  0
LINE
  5
24C
100
AcDbEntity
  8
0
100
AcDbLine
 62
7
  6
BYLAYER
 10
46.9644781145
 20
77.2583333333
 11
45.7644781145
 21
77.2583333333
  0
LINE
  5
24D
100
AcDbEntity
  8
0
100
AcDbLine
 62
7
  6
BYLAYER
 10
31.4489766369
 20
77.6917942197
 11
29.00192227
 21
77.6917942197
  0
LINE
  5
24E
100
AcDbEntity
  8
0
100
AcDbLine
 62
7
  6
BYLAYER
 10
23.5915151145
 20
79.7676022748
 11
25.0789716602
 21
79.7676022748
  0
LINE
  5
24F
100
AcDbEntity
  8
0
100
AcDbLine
 62
7
  6
BYLAYER
 10
23.7960887561
 20
81.3583333333
 11
20.8645273683
 21
81.3583333333
  0
LINE
  5
250
100
AcDbEntity
  8
0
100
AcDbLine
 62
7
  6
BYLAYER
 10
46.9644781145
 20
83.6782225373
 11
45.7644781145
 21
83.6782225373
  0
LINE
  5
251
100
AcDbEntity
  8
0
100
AcDbLine
 62
7
  6
BYLAYER
 10
46.4644781145
 20
83.7561204115
 11
47.4644781145
 21
83.7561204115
  0
LINE
  5
252
100
AcDbEntity
  8
0
100
AcDbLine
 62
7
  6
BYLAYER
 10
47.4644781145
 20
84.3281818143
 11
45.7644781145
 21
84.3281818143
  0
LINE
  5
253
100
AcDbEntity
  8
0
100
AcDbLine
 62
7
  6
BYLAYER
 10
45.7644781145
 20
84.738882709
 11
46.9644781145
 21
84.738882709
  0
LINE
  5
254
100
AcDbEntity
  8
0
100
AcDbLine
 62
7
  6
BYLAYER
 10
22.5171817591
 20
87.0420318255
 11
28.1336805438
 21
88.0323720984
  0
LINE
  5
255
100
AcDbEntity
  8
0
100
AcDbLine
 62
7
  6
BYLAYER
 10
29.0019214321
 20
88.1083333333
 11
28.1336805438
 21
88.0323720984
  0
LINE
  5
256
100
AcDbEntity
  8
0
100
AcDbLine
 62
7
  6
BYLAYER
 10
46.9644781145
 20
85.4583333333
 11
45.7644781145
 21
85.4583333333
  0
LINE
  5
257
100
AcDbEntity
  8
0
100
AcDbLine
 62
7
  6
BYLAYER
 10
35.2644781145
 20
86.0583333333
 11
34.3644781145
 21
86.0583333333
  0
LINE
  5
258
100
AcDbEntity
  8
0
100
AcDbLine
 62
7
  6
BYLAYER
 10
29.0019214321
 20
88.1083333333
 11
33.3644781145
 21
88.1083333333
  0
LINE
  5
259
100
AcDbEntity
  8
0
100
AcDbLine
 62
7
  6
BYLAYER
 10
36.2644781145
 20
88.6083333333
 11
45.7644781145
 21
88.6083333333
  0
ARC
  5
25A
100
AcDbEntity
  8
0
100
AcDbCircle
 62
7
  6
BYLAYER
 10
29.0024398224
 20
80.1347764842
 40
2.9164176786
100
AcDbArc
 50
261.5620735555
 51
269.9899812363
  0
ARC
  5
25B
100
AcDbEntity
  8
0
100
AcDbCircle
 62
7
  6
BYLAYER
 10
29.0027472998
 20
80.0491896414
 40
2.3573974076
100
AcDbArc
 50
259.5330460225
 51
269.9799275513
  0
ARC
  5
25C
100
AcDbEntity
  8
0
100
AcDbCircle
 62
7
  6
BYLAYER
 10
22.8644781145
 20
85.0724163195
 40
2.0
100
AcDbArc
 50
100.0
 51
180.0
  0
ARC
  5
25D
100
AcDbEntity
  8
0
100
AcDbCircle
 62
7
  6
BYLAYER
 10
29.8144781145
 20
51.3583333333
 40
1.0
100
AcDbArc
 50
270.0
 51
338.9178757013
  0
ARC
  5
25E
100
AcDbEntity
  8
0
100
AcDbCircle
 62
7
  6
BYLAYER
 10
22.8144781145
 20
51.3583333333
 40
1.0
100
AcDbArc
 50
201.0821242987
 51
270.0
  0
ARC
  5
25F
100
AcDbEntity
  8
0
100
AcDbCircle
 62
7
  6
BYLAYER
 10
33.3644781145
 20
75.6083333333
 40
1.0
100
AcDbArc
 50
270.0
 51
360.0
  0
ARC
  5
260
100
AcDbEntity
  8
0
100
AcDbCircle
 62
7
  6
BYLAYER
 10
33.3644781145
 20
87.1083333333
 40
1.0
100
AcDbArc
 50
0.0
 51
90.0
  0
ARC
  5
261
100
AcDbEntity
  8
0
100
AcDbCircle
 62
7
  6
BYLAYER
 10
46.9644781145
 20
77.7583333333
 40
0.5
100
AcDbArc
 50
270.0
 51
360.0
  0
ARC
  5
262
100
AcDbEntity
  8
0
100
AcDbCircle
 62
7
  6
BYLAYER
 10
46.9644781145
 20
84.9583333333
 40
0.5
100
AcDbArc
 50
0.0
 51
90.0
  0
SPLINE
  5
263
100
AcDbEntity
  8
0
100
AcDbSpline
 62
7
  6
BYLAYER
 70
0
 71
3
 72
14
 73
10
 74
0
 42
0.0000001
 43
0.0000001
 44
0.0000000001
 40
0.0
 40
0.0
 40
0.0
 40
0.0
 40
0.2872784461
 40
0.4244109418
 40
0.5542686456
 40
0.6757767126
 40
0.7891962611
 40
0.8964986866
 40
1.0
 40
1.0
 40
1.0
 40
1.0
 10
46.9644781145
 20
83.6782225373
 30
0.0
 10
47.0294513356
 20
83.6782225373
 30
0.0
 10
47.126238133
 20
83.6642436751
 30
0.0
 10
47.2436905063
 20
83.6194003994
 30
0.0
 10
47.319857202
 20
83.5746424577
 30
0.0
 10
47.382411461
 20
83.5200031385
 30
0.0
 10
47.4287871092
 20
83.4571902933
 30
0.0
 10
47.4576555601
 20
83.3890240859
 30
0.0
 10
47.4644781145
 20
83.341140844
 30
0.0
 10
47.4644781145
 20
83.3177321483
 30
0.0
  0
SPLINE
  5
264
100
AcDbEntity
  8
0
100
AcDbSpline
 62
7
  6
BYLAYER
 70
0
 71
3
 72
14
 73
10
 74
0
 42
0.0000001
 43
0.0000001
 44
0.0000000001
 40
0.0
 40
0.0
 40
0.0
 40
0.0
 40
0.1070459196
 40
0.2210913865
 40
0.3426190513
 40
0.4706255496
 40
0.6035028574
 40
0.7384210246
 40
1.0
 40
1.0
 40
1.0
 40
1.0
 10
32.1849783026
 20
75.0768577169
 30
0.0
 10
32.1907718391
 20
75.1240423639
 30
0.0
 10
32.213229665
 20
75.220478897
 30
0.0
 10
32.2784705293
 20
75.3592084507
 30
0.0
 10
32.3778815273
 20
75.4879616976
 30
0.0
 10
32.5070107333
 20
75.5999654607
 30
0.0
 10
32.6607930817
 20
75.6872919348
 30
0.0
 10
32.8827631049
 20
75.767214061
 30
0.0
 10
33.0614454949
 20
75.7857484938
 30
0.0
 10
33.1775243935
 20
75.7812255518
 30
0.0
  0
SPLINE
  5
265
100
AcDbEntity
  8
0
100
AcDbSpline
 62
7
  6
BYLAYER
 70
0
 71
3
 72
20
 73
16
 74
0
 42
0.0000001
 43
0.0000001
 44
0.0000000001
 40
0.0
 40
0.0
 40
0.0
 40
0.0
 40
0.1198734562
 40
0.2447462226
 40
0.373407036
 40
0.5044074209
 40
0.5702557556
 40
0.6359525223
 40
0.7011222771
 40
0.7652600983
 40
0.8276784721
 40
0.88753126
 40
0.9442932401
 40
0.9720953574
 40
1.0
 40
1.0
 40
1.0
 40
1.0
 10
32.1849770965
 20
75.0768478926
 30
0.0
 10
32.1968378653
 20
75.1734538552
 30
0.0
 10
32.2086412729
 20
75.3723091945
 30
0.0
 10
32.1972129879
 20
75.6756318678
 30
0.0
 10
32.1599473222
 20
75.9859374456
 30
0.0
 10
32.1083319333
 20
76.2454597816
 30
0.0
 10
32.053526014
 20
76.4515337169
 30
0.0
 10
32.0049972665
 20
76.6037845413
 30
0.0
 10
31.948141443
 20
76.7516786422
 30
0.0
 10
31.8814365649
 20
76.8925444334
 30
0.0
 10
31.8022905731
 20
77.0220633673
 30
0.0
 10
31.7071912303
 20
77.1330897702
 30
0.0
 10
31.6067405989
 20
77.1992817809
 30
0.0
 10
31.5172149859
 20
77.2212624616
 30
0.0
 10
31.4714772695
 20
77.2210209073
 30
0.0
 10
31.4489776726
 20
77.2183532071
 30
0.0
  0
SPLINE
  5
266
100
AcDbEntity
  8
0
100
AcDbSpline
 62
7
  6
BYLAYER
 70
0
 71
3
 72
23
 73
19
 74
0
 42
0.0000001
 43
0.0000001
 44
0.0000000001
 40
0.0
 40
0.0
 40
0.0
 40
0.0
 40
0.1248972698
 40
0.1873678043
 40
0.2498511858
 40
0.312335803
 40
0.3748412744
 40
0.4373748183
 40
0.468670562
 40
0.5000015326
 40
0.5313341602
 40
0.562629662
 40
0.6251613765
 40
0.6876651111
 40
0.7501496237
 40
0.8126327112
 40
0.8751028536
 40
1.0
 40
1.0
 40
1.0
 40
1.0
 10
28.2212225772
 20
65.3583333333
 30
0.0
 10
28.1097804576
 20
65.1844513681
 30
0.0
 10
27.9334304701
 20
64.9290319358
 30
0.0
 10
27.6714626508
 20
64.6092486507
 30
0.0
 10
27.4581239696
 20
64.3839187197
 30
0.0
 10
27.2236861333
 20
64.1800941224
 30
0.0
 10
26.9639234844
 20
64.0085794883
 30
0.0
 10
26.7230606909
 20
63.9084223032
 30
0.0
 10
26.5199844433
 20
63.8655965616
 30
0.0
 10
26.3644675621
 20
63.8550169583
 30
0.0
 10
26.2089544899
 20
63.865615095
 30
0.0
 10
26.005871263
 20
63.9084063
 30
0.0
 10
25.7650279341
 20
64.0086014793
 30
0.0
 10
25.5052627573
 20
64.1800946719
 30
0.0
 10
25.2708295061
 20
64.3839217923
 30
0.0
 10
25.0574933665
 20
64.6092514813
 30
0.0
 10
24.7955238332
 20
64.9290318424
 30
0.0
 10
24.6191756612
 20
65.18445154
 30
0.0
 10
24.5077336517
 20
65.3583333333
 30
0.0
  0
SPLINE
  5
267
100
AcDbEntity
  8
0
100
AcDbSpline
 62
7
  6
BYLAYER
 70
0
 71
3
 72
16
 73
12
 74
0
 42
0.0000001
 43
0.0000001
 44
0.0000000001
 40
0.0
 40
0.0
 40
0.0
 40
0.0
 40
0.0953106323
 40
0.1853034456
 40
0.2672511457
 40
0.3426363633
 40
0.4795695376
 40
0.6034057288
 40
0.7166494986
 40
0.8201522076
 40
1.0
 40
1.0
 40
1.0
 40
1.0
 10
31.4489748067
 20
77.6917953861
 30
0.0
 10
31.5386565159
 20
77.691798826
 30
0.0
 10
31.7136027146
 20
77.6739533021
 30
0.0
 10
31.9549638796
 20
77.5985402823
 30
0.0
 10
32.1632058484
 20
77.4927270087
 30
0.0
 10
32.3920325412
 20
77.335849805
 30
0.0
 10
32.6244736204
 20
77.11865816
 30
0.0
 10
32.8436411265
 20
76.8422281506
 30
0.0
 10
33.0088142821
 20
76.5659888684
 30
0.0
 10
33.1549225065
 20
76.2232847557
 30
0.0
 10
33.2011695945
 20
75.9485237032
 30
0.0
 10
33.1774912986
 20
75.7809622225
 30
0.0
  0
SPLINE
  5
268
100
AcDbEntity
  8
0
100
AcDbSpline
 62
7
  6
BYLAYER
 70
0
 71
3
 72
10
 73
6
 74
0
 42
0.0000001
 43
0.0000001
 44
0.0000000001
 40
0.0
 40
0.0
 40
0.0
 40
0.0
 40
0.2492541555
 40
0.4991064014
 40
1.0
 40
1.0
 40
1.0
 40
1.0
 10
25.0789716438
 20
79.0940513915
 30
0.0
 10
25.2389219385
 20
79.0126849919
 30
0.0
 10
25.5628660688
 20
78.8569014964
 30
0.0
 10
26.2218215929
 20
78.5666442712
 30
0.0
 10
26.7247089294
 20
78.3678900261
 30
0.0
 10
27.0622456439
 20
78.2409135731
 30
0.0
  0
SPLINE
  5
269
100
AcDbEntity
  8
0
100
AcDbSpline
 62
7
  6
BYLAYER
 70
0
 71
3
 72
9
 73
5
 74
0
 42
0.0000001
 43
0.0000001
 44
0.0000000001
 40
0.0
 40
0.0
 40
0.0
 40
0.0
 40
0.4991617466
 40
1.0
 40
1.0
 40
1.0
 40
1.0
 10
23.7960887561
 20
81.3583333333
 30
0.0
 10
24.0143798894
 20
81.2779535571
 30
0.0
 10
24.4480491719
 20
81.1067981804
 30
0.0
 10
24.8712198193
 20
80.9105793754
 30
0.0
 10
25.0789716602
 20
80.8042064664
 30
0.0
  0
SPLINE
  5
26A
100
AcDbEntity
  8
0
100
AcDbSpline
 62
7
  6
BYLAYER
 70
0
 71
3
 72
9
 73
5
 74
0
 42
0.0000001
 43
0.0000001
 44
0.0000000001
 40
0.0
 40
0.0
 40
0.0
 40
0.0
 40
0.5000588533
 40
1.0
 40
1.0
 40
1.0
 40
1.0
 10
28.1336857192
 20
78.6794407227
 30
0.0
 10
27.948842524
 20
78.7760564587
 30
0.0
 10
27.5836169364
 20
78.9778619783
 30
0.0
 10
27.2320150059
 20
79.2032761479
 30
0.0
 10
27.0622456665
 20
79.3243525774
 30
0.0
  0
SPLINE
  5
26B
100
AcDbEntity
  8
0
100
AcDbSpline
 62
7
  6
BYLAYER
 70
0
 71
3
 72
9
 73
5
 74
0
 42
0.0000001
 43
0.0000001
 44
0.0000000001
 40
0.0
 40
0.0
 40
0.0
 40
0.0
 40
0.250264309
 40
1.0
 40
1.0
 40
1.0
 40
1.0
 10
28.5744911145
 20
78.5138695888
 30
0.0
 10
28.5362302168
 20
78.5230100161
 30
0.0
 10
28.38456305
 20
78.5644711253
 30
0.0
 10
28.2381254275
 20
78.6248500144
 30
0.0
 10
28.1336857192
 20
78.6794407227
 30
0.0
  0
SPLINE
  5
26C
100
AcDbEntity
  8
0
100
AcDbSpline
 62
7
  6
BYLAYER
 70
0
 71
3
 72
19
 73
15
 74
0
 42
0.0000001
 43
0.0000001
 44
0.0000000001
 40
0.0
 40
0.0
 40
0.0
 40
0.0
 40
0.0078865921
 40
0.014509244
 40
0.0231855055
 40
0.0469149103
 40
0.0792005933
 40
0.1198716607
 40
0.1686884711
 40
0.2892809079
 40
0.4374630267
 40
0.6087711274
 40
0.7982436732
 40
1.0
 40
1.0
 40
1.0
 40
1.0
 10
20.8645298317
 20
72.4661719515
 30
0.0
 10
20.8650618571
 20
72.4618389521
 30
0.0
 10
20.8728498331
 20
72.4561702393
 30
0.0
 10
20.8842622194
 20
72.4514536606
 30
0.0
 10
20.9052235372
 20
72.4452174683
 30
0.0
 10
20.9403928326
 20
72.4389784295
 30
0.0
 10
20.9936259449
 20
72.4327465115
 30
0.0
 10
21.0608310856
 20
72.4276589802
 30
0.0
 10
21.1769976686
 20
72.4219582058
 30
0.0
 10
21.3527932563
 20
72.418664886
 30
0.0
 10
21.5964067835
 20
72.4196209296
 30
0.0
 10
21.8780881439
 20
72.4254708534
 30
0.0
 10
22.1893013261
 20
72.4360638613
 30
0.0
 10
22.4056440713
 20
72.4458872328
 30
0.0
 10
22.5171817591
 20
72.4515249623
 30
0.0
  0
SPLINE
  5
26D
100
AcDbEntity
  8
0
100
AcDbSpline
 62
7
  6
BYLAYER
 70
0
 71
3
 72
9
 73
5
 74
0
 42
0.0000001
 43
0.0000001
 44
0.0000000001
 40
0.0
 40
0.0
 40
0.0
 40
0.0
 40
0.4992551756
 40
1.0
 40
1.0
 40
1.0
 40
1.0
 10
27.0622456435
 20
77.7649497211
 30
0.0
 10
26.7246834038
 20
77.9042258896
 30
0.0
 10
26.0536866617
 20
78.1957989141
 30
0.0
 10
25.3989541007
 20
78.5235084985
 30
0.0
 10
25.078971635
 20
78.701705767
 30
0.0
  0
SPLINE
  5
26E
100
AcDbEntity
  8
0
100
AcDbSpline
 62
7
  6
BYLAYER
 70
0
 71
3
 72
14
 73
10
 74
0
 42
0.0000001
 43
0.0000001
 44
0.0000000001
 40
0.0
 40
0.0
 40
0.0
 40
0.0
 40
0.1035077422
 40
0.2108313076
 40
0.3242527621
 40
0.4457420079
 40
0.5755822359
 40
0.7127158496
 40
1.0
 40
1.0
 40
1.0
 40
1.0
 10
47.4644781145
 20
84.3783923201
 30
0.0
 10
47.4644781145
 20
84.401801864
 30
0.0
 10
47.4576187061
 20
84.4496886268
 30
0.0
 10
47.4287057651
 20
84.517836721
 30
0.0
 10
47.3823420598
 20
84.5806516035
 30
0.0
 10
47.3198316654
 20
84.6353243938
 30
0.0
 10
47.2436946415
 20
84.6801164577
 30
0.0
 10
47.1262428162
 20
84.7249578558
 30
0.0
 10
47.0294509442
 20
84.738882709
 30
0.0
 10
46.9644781145
 20
84.738882709
 30
0.0
  0
ENDSEC
  0
SECTION
  2
OBJECTS
  0
DICTIONARY
  5
C
100
AcDbDictionary
280
0
281
1
  3
ACAD_GROUP
350
D
  3
ACAD_MLINESTYLE
350
17
  3
ACAD_LAYOUT
350
1A
  3
ACAD_PLOTSETTINGS
350
19
  3
ACAD_PLOTSTYLENAME
350
E
  0
DICTIONARY
  5
D
102
{ACAD_REACTORS
330
C
102
}
100
AcDbDictionary
280
0
281
1
  0
ACDBDICTIONARYWDFLT
  5
E
102
{ACAD_REACTORS
330
C
102
}
100
AcDbDictionary
281
1
  3
Normal
350
F
100
AcDbDictionaryWithDefault
340
F
  0
DICTIONARY
  5
17
102
{ACAD_REACTORS
330
C
102
}
100
AcDbDictionary
280
0
281
1
  3
Standard
350
18
  0
DICTIONARY
  5
19
102
{ACAD_REACTORS
330
C
102
}
100
AcDbDictionary
281
1
  0
DICTIONARY
  5
1A
102
{ACAD_REACTORS
330
C
102
}
100
AcDbDictionary
281
1
  3
Model
350
26F
  3
Layout1
350
270
  0
ACDBPLACEHOLDER
  5
F
102
{ACAD_REACTORS
330
E
102
}
  0
MLINESTYLE
  5
18
102
{ACAD_REACTORS
330
17
102
}
100
AcDbMlineStyle
  2
STANDARD
 70
0
  3

 62
256
 51
90.0
 52
90.0
 71
2
 49
0.5
 62
256
  6
BYLAYER
 49
-0.5
 62
256
  6
BYLAYER
  0
LAYOUT
  5
26F
102
{ACAD_REACTORS
330
1A
102
}
100
AcDbPlotSettings
  1

  2
none_device
  4

  6

 40
0.0
 41
0.0
 42
0.0
 43
0.0
 44
210.0
 45
297.0
 46
0.0
 47
0.0
 48
0.0
 49
0.0
140
0.0
141
0.0
142
1.0
143
1.0
 70
1024
 72
1
 73
0
 74
0
  7

 75
0
147
1.0
148
0.0
149
0.0
100
AcDbLayout
  1
Model
 70
0
 71
0
 10
0.0
 20
0.0
 11
210.0
 21
297.0
 12
0.0
 22
0.0
 32
0.0
 14
0.0
 24
0.0
 34
0.0
 15
0.0
 25
0.0
 35
0.0
146
0.0
 13
0.0
 23
0.0
 33
0.0
 16
1.0
 26
0.0
 36
0.0
 17
0.0
 27
1.0
 37
0.0
 76
0
330
210
345
0
346
0
  0
LAYOUT
  5
270
102
{ACAD_REACTORS
330
1A
102
}
100
AcDbPlotSettings
  1

  2
none_device
  4

  6

 40
0.0
 41
0.0
 42
0.0
 43
0.0
 44
210.0
 45
297.0
 46
0.0
 47
0.0
 48
0.0
 49
0.0
140
0.0
141
0.0
142
1.0
143
1.0
 70
0
 72
1
 73
0
 74
0
  7

 75
0
147
1.0
148
0.0
149
0.0
100
AcDbLayout
  1
Layout1
 70
0
 71
1
 10
0.0
 20
0.0
 11
210.0
 21
297.0
 12
0.0
 22
0.0
 32
0.0
 14
0.0
 24
0.0
 34
0.0
 15
0.0
 25
0.0
 35
0.0
146
0.0
 13
0.0
 23
0.0
 33
0.0
 16
1.0
 26
0.0
 36
0.0
 17
0.0
 27
1.0
 37
0.0
 76
0
330
211
345
0
346
0
  0
ENDSEC
  0
EOF
