999
DXF file: C:\Users\sesa63760\Dev\_Creo\CAD\MCADID0004334_3D-CAD\drw0001_5.dxf
999
Pro/ENGINEER 2019471 by Parametric Technology Corporation
  0
SECTION
  2
HEADER
  9
$ACADVER
  1
AC1024
  9
$DWGCODEPAGE
  3
ANSI_1252
  9
$EXTMAX
 10
95.4611009243
 20
135.0092713072
 30
0.0
  9
$EXTMIN
 10
0.0
 20
0.0
 30
0.0
  9
$LIMMIN
 10
0.0
 20
0.0
  9
$LIMMAX
 10
95.4611009243
 20
135.0092713072
  9
$VIEWCTR
 10
47.7305504622
 20
67.5046356536
  9
$VIEWSIZE
 40
135.0092713072
  9
$CLAYER
  8
0
  9
$LTSCALE
 40
8.8006043519
  9
$CELTYPE
  6
BYLAYER
  9
$DIMSCALE
 40
1.0
  9
$DIMASZ
 40
1.1364416777
  9
$DIMEXO
 40
1.0
  9
$DIMDLI
 40
6.0804175522
  9
$DIMEXE
 40
1.0
  9
$DIMCEN
 40
1.4400988939
  9
$DIMLFAC
 40
1.0
  9
$DIMBLK
  1
_FILLED
  9
$DIMALT
 70
0
  9
$DIMALTF
 40
0.0393700787
  9
$DIMTXT
 40
1.5910183487
  9
$DIMTOL
 70
1
  9
$DIMLIM
 70
0
  9
$DIMTFAC
 40
1.0
  9
$DIMTP
 40
0.01
  9
$DIMTM
 40
0.01
  9
$DIMGAP
 40
0.625
  9
$DIMDSEP
 70
46
  9
$AUNITS
 70
0
  9
$PDMODE
 70
3
  9
$PDSIZE
 40
0.3125
  9
$HANDSEED
  5
274
  9
$TILEMODE
 70
1
  9
$MEASUREMENT
 70
1
  9
$INSUNITS
 70
4
  0
ENDSEC
  0
SECTION
  2
CLASSES
  0
CLASS
  1
ACDBDICTIONARYWDFLT
  2
AcDbDictionaryWithDefault
  3
AutoCAD 2000
 90
0
 91
1
280
0
281
0
  0
CLASS
  1
ACDBPLACEHOLDER
  2
AcDbPlaceHolder
  3
AutoCAD 2000
 90
0
 91
1
280
0
281
0
  0
CLASS
  1
LAYOUT
  2
AcDbLayout
  3
AutoCAD 2000
 90
0
 91
0
280
0
281
0
  0
ENDSEC
  0
SECTION
  2
TABLES
  0
TABLE
  2
VPORT
  5
8
100
AcDbSymbolTable
 70
2
  0
VPORT
  5
1F4
100
AcDbSymbolTableRecord
100
AcDbViewportTableRecord
  2
*ACTIVE
 70
0
 10
0.0
 20
0.0
 11
1.0
 21
1.0
 12
47.7305504622
 22
67.5046356536
 13
0.0
 23
0.0
 14
1.0
 24
1.0
 15
0.0
 25
0.0
 16
0.0
 26
0.0
 36
1.0
 17
0.0
 27
0.0
 37
0.0
 40
135.0092713072
 41
0.7070707071
 42
50.0
 43
0.0
 44
0.0
 50
0.0
 51
0.0
 71
0
 72
100
 73
1
 74
1
 75
0
 76
0
 77
0
 78
0
  0
ENDTAB
  0
TABLE
  2
LTYPE
  5
5
100
AcDbSymbolTable
 70
6
  0
LTYPE
  5
14
100
AcDbSymbolTableRecord
100
AcDbLinetypeTableRecord
  2
BYBLOCK
 70
0
  3

 72
65
 73
0
 40
0.0
  0
LTYPE
  5
15
100
AcDbSymbolTableRecord
100
AcDbLinetypeTableRecord
  2
BYLAYER
 70
0
  3

 72
65
 73
0
 40
0.0
  0
LTYPE
  5
16
100
AcDbSymbolTableRecord
100
AcDbLinetypeTableRecord
  2
CONTINUOUS
 70
64
  3
Solid line
 72
65
 73
0
 40
0.0
  0
LTYPE
  5
1F5
100
AcDbSymbolTableRecord
100
AcDbLinetypeTableRecord
  2
CENTER
 70
64
  3
____ _ ____ _ ____ _ ____ _ ____ _ ____ _ ____
 72
65
 73
4
 40
0.6
 49
0.375
 74
0
 49
-0.075
 74
0
 49
0.075
 74
0
 49
-0.075
 74
0
  0
LTYPE
  5
1F6
100
AcDbSymbolTableRecord
100
AcDbLinetypeTableRecord
  2
HIDDEN
 70
64
  3
- - - - - - - - - - - - - - - - - - - -
 72
65
 73
2
 40
0.2
 49
0.1
 74
0
 49
-0.1
 74
0
  0
LTYPE
  5
1F7
100
AcDbSymbolTableRecord
100
AcDbLinetypeTableRecord
  2
PHANTOM
 70
64
  3
_____ _ _ _____ _ _ _____ _ _ _____
 72
65
 73
6
 40
0.8
 49
0.45
 74
0
 49
-0.05
 74
0
 49
0.1
 74
0
 49
-0.05
 74
0
 49
0.1
 74
0
 49
-0.05
 74
0
  0
LTYPE
  5
1F8
100
AcDbSymbolTableRecord
100
AcDbLinetypeTableRecord
  2
DOT
 70
64
  3
. . . . . . . . . . . . . . . . . . . .
 72
65
 73
2
 40
0.2
 49
0.1
 74
0
 49
-0.1
 74
0
  0
LTYPE
  5
1F9
100
AcDbSymbolTableRecord
100
AcDbLinetypeTableRecord
  2
DASHED
 70
64
  3
- - - - - - - - - - - - - - - - - - - -
 72
65
 73
2
 40
0.2
 49
0.1
 74
0
 49
-0.1
 74
0
  0
ENDTAB
  0
TABLE
  2
LAYER
  5
2
100
AcDbSymbolTable
 70
36
  0
LAYER
  5
10
100
AcDbSymbolTableRecord
100
AcDbLayerTableRecord
  2
0
 70
0
 62
7
  6
CONTINUOUS
370
-3
390
F
  0
LAYER
  5
1FA
100
AcDbSymbolTableRecord
100
AcDbLayerTableRecord
  2
DEFAULT_1
 70
0
 62
7
  6
CENTER
370
-3
390
F
  0
LAYER
  5
1FB
100
AcDbSymbolTableRecord
100
AcDbLayerTableRecord
  2
DEFAULT_2
 70
0
 62
7
  6
HIDDEN
370
-3
390
F
  0
LAYER
  5
1FC
100
AcDbSymbolTableRecord
100
AcDbLayerTableRecord
  2
DEFAULT_3
 70
0
 62
7
  6
PHANTOM
370
-3
390
F
  0
LAYER
  5
1FD
100
AcDbSymbolTableRecord
100
AcDbLayerTableRecord
  2
00_COMPONENTS
 70
0
 62
7
  6
CONTINUOUS
370
-3
390
F
  0
LAYER
  5
1FE
100
AcDbSymbolTableRecord
100
AcDbLayerTableRecord
  2
01_1_DEFAULT_DATUMS
 70
0
 62
7
  6
CONTINUOUS
370
-3
390
F
  0
LAYER
  5
1FF
100
AcDbSymbolTableRecord
100
AcDbLayerTableRecord
  2
01_PLANES
 70
0
 62
7
  6
CONTINUOUS
370
-3
390
F
  0
LAYER
  5
200
100
AcDbSymbolTableRecord
100
AcDbLayerTableRecord
  2
02_COORD_SYS
 70
0
 62
7
  6
CONTINUOUS
370
-3
390
F
  0
LAYER
  5
201
100
AcDbSymbolTableRecord
100
AcDbLayerTableRecord
  2
03_AXES
 70
0
 62
7
  6
CONTINUOUS
370
-3
390
F
  0
LAYER
  5
202
100
AcDbSymbolTableRecord
100
AcDbLayerTableRecord
  2
04_POINTS
 70
0
 62
7
  6
CONTINUOUS
370
-3
390
F
  0
LAYER
  5
203
100
AcDbSymbolTableRecord
100
AcDbLayerTableRecord
  2
05_CURVES
 70
0
 62
7
  6
CONTINUOUS
370
-3
390
F
  0
LAYER
  5
204
100
AcDbSymbolTableRecord
100
AcDbLayerTableRecord
  2
06_SURFS
 70
0
 62
7
  6
CONTINUOUS
370
-3
390
F
  0
LAYER
  5
205
100
AcDbSymbolTableRecord
100
AcDbLayerTableRecord
  2
07_COSMETICS
 70
0
 62
7
  6
CONTINUOUS
370
-3
390
F
  0
LAYER
  5
206
100
AcDbSymbolTableRecord
100
AcDbLayerTableRecord
  2
10_NOTES
 70
0
 62
7
  6
CONTINUOUS
370
-3
390
F
  0
LAYER
  5
207
100
AcDbSymbolTableRecord
100
AcDbLayerTableRecord
  2
11_NOTES_PUB
 70
0
 62
7
  6
CONTINUOUS
370
-3
390
F
  0
LAYER
  5
208
100
AcDbSymbolTableRecord
100
AcDbLayerTableRecord
  2
13_REF_GTOL
 70
0
 62
7
  6
CONTINUOUS
370
-3
390
F
  0
LAYER
  5
209
100
AcDbSymbolTableRecord
100
AcDbLayerTableRecord
  2
16_MISC
 70
0
 62
7
  6
CONTINUOUS
370
-3
390
F
  0
LAYER
  5
20A
100
AcDbSymbolTableRecord
100
AcDbLayerTableRecord
  2
17_NO_PRINT
 70
0
 62
7
  6
CONTINUOUS
370
-3
390
F
  0
LAYER
  5
20B
100
AcDbSymbolTableRecord
100
AcDbLayerTableRecord
  2
18_DATUM_CAMS_JOINTS
 70
0
 62
7
  6
CONTINUOUS
370
-3
390
F
  0
LAYER
  5
20C
100
AcDbSymbolTableRecord
100
AcDbLayerTableRecord
  2
19_DATUM_FUNCTIONAL
 70
0
 62
7
  6
CONTINUOUS
370
-3
390
F
  0
LAYER
  5
20D
100
AcDbSymbolTableRecord
100
AcDbLayerTableRecord
  2
20_DATUM_KINEMATIC_SCHEME
 70
0
 62
7
  6
CONTINUOUS
370
-3
390
F
  0
ENDTAB
  0
TABLE
  2
STYLE
  5
3
100
AcDbSymbolTable
 70
1
  0
STYLE
  5
11
100
AcDbSymbolTableRecord
100
AcDbTextStyleTableRecord
  2
STANDARD
 70
0
 40
0.0
 41
1.0
 50
0.0
 71
0
 42
0.2
  3
ARIAL.TTF
  4

  0
STYLE
  5
20E
100
AcDbSymbolTableRecord
100
AcDbTextStyleTableRecord
  2
TEXTSTYLE_1
 70
0
 40
0.0
 41
0.8
 50
0.0
 71
0
 42
0.2
  3
gdt
  4

  0
ENDTAB
  0
TABLE
  2
VIEW
  5
6
100
AcDbSymbolTable
 70
0
  0
ENDTAB
  0
TABLE
  2
UCS
  5
7
100
AcDbSymbolTable
 70
0
  0
ENDTAB
  0
TABLE
  2
APPID
  5
9
100
AcDbSymbolTable
 70
1
  0
APPID
  5
20F
100
AcDbSymbolTableRecord
100
AcDbRegAppTableRecord
  2
ACAD
 70
0
  0
ENDTAB
  0
TABLE
  2
BLOCK_RECORD
  5
1
100
AcDbSymbolTable
 70
0
  0
BLOCK_RECORD
  5
210
100
AcDbSymbolTableRecord
100
AcDbBlockTableRecord
  2
*Model_Space
  0
BLOCK_RECORD
  5
211
100
AcDbSymbolTableRecord
100
AcDbBlockTableRecord
  2
*Paper_Space
  0
BLOCK_RECORD
  5
212
100
AcDbSymbolTableRecord
100
AcDbBlockTableRecord
  2
_FILLED
  0
ENDTAB
  0
TABLE
  2
DIMSTYLE
  5
A
100
AcDbSymbolTable
 70
1
100
AcDbDimStyleTable
 71
0
  0
DIMSTYLE
105
213
100
AcDbSymbolTableRecord
100
AcDbDimStyleTableRecord
  2
STANDARD
 70
0
  3

  4

 40
1.0
 41
1.1364416777
 42
1.0
 43
0.38
 44
1.0
 45
0.0
 46
0.0
 47
0.01
 48
0.01
140
1.5910183487
141
0.09
142
0.0
143
25.4
144
1.0
145
0.0
146
1.0
147
0.625
 71
1
 72
0
 73
0
 74
0
 75
0
 76
0
 77
1
 78
8
 79
2
170
0
171
1
172
0
173
0
174
0
175
0
176
0
177
0
178
0
270
2
179
2
271
2
272
2
273
2
274
2
275
0
280
0
281
0
282
0
283
1
284
8
285
0
286
0
287
3
288
0
340
11
278
46
341
212
342
212
343
212
344
212
  0
ENDTAB
  0
ENDSEC
  0
SECTION
  2
BLOCKS
  0
BLOCK
  5
20
100
AcDbEntity
  8
0
100
AcDbBlockBegin
  2
*Model_Space
 70
0
 10
0.0
 20
0.0
 30
0.0
  3
*Model_Space
  1

  0
ENDBLK
  5
21
100
AcDbEntity
  8
0
100
AcDbBlockEnd
  0
BLOCK
  5
1C
100
AcDbEntity
  8
0
100
AcDbBlockBegin
  2
*Paper_Space
 70
0
 10
0.0
 20
0.0
 30
0.0
  3
*Paper_Space
  1

  0
ENDBLK
  5
1D
100
AcDbEntity
  8
0
100
AcDbBlockEnd
  0
BLOCK
  5
214
100
AcDbEntity
  8
0
100
AcDbBlockBegin
  2
_FILLED
 70
64
 10
0.0
 20
0.0
  3
_FILLED
  1

  0
SOLID
  5
215
100
AcDbEntity
  8
0
  6
BYBLOCK
 62
0
100
AcDbTrace
 10
0.0
 20
0.0
 11
-1.0
 21
0.25
 12
-1.0
 22
-0.25
 13
-1.0
 23
-0.25
  0
ENDBLK
  5
216
100
AcDbEntity
  8
0
  6
BYBLOCK
 62
0
100
AcDbBlockEnd
  0
ENDSEC
  0
SECTION
  2
ENTITIES
  0
LINE
  5
217
100
AcDbEntity
  8
0
100
AcDbLine
 62
7
  6
BYLAYER
 10
54.3559403121
 20
10.9891267343
 11
43.7491610295
 21
10.9891267343
  0
LINE
  5
218
100
AcDbEntity
  8
0
100
AcDbLine
 62
7
  6
BYLAYER
 10
43.7490214988
 20
12.5139813801
 11
54.3560798428
 21
12.5139813801
  0
LINE
  5
219
100
AcDbEntity
  8
0
100
AcDbLine
 62
7
  6
BYLAYER
 10
54.9516202961
 20
12.9528006614
 11
43.1534810454
 21
12.9528006614
  0
LINE
  5
21A
100
AcDbEntity
  8
0
100
AcDbLine
 62
7
  6
BYLAYER
 10
43.1534810454
 20
19.0530663859
 11
54.9516202961
 21
19.0530663859
  0
LINE
  5
21B
100
AcDbEntity
  8
0
100
AcDbLine
 62
7
  6
BYLAYER
 10
43.4916350911
 20
19.2945017048
 11
54.6134662505
 21
19.2945017048
  0
LINE
  5
21C
100
AcDbEntity
  8
0
100
AcDbLine
 62
7
  6
BYLAYER
 10
59.5549760519
 20
21.0006446251
 11
38.5501252897
 21
21.0006446251
  0
LINE
  5
21D
100
AcDbEntity
  8
0
100
AcDbLine
 62
7
  6
BYLAYER
 10
43.7490214988
 20
12.5139813801
 11
43.1534810454
 21
12.9528006614
  0
LINE
  5
21E
100
AcDbEntity
  8
0
100
AcDbLine
 62
7
  6
BYLAYER
 10
59.7129210784
 20
21.5157066388
 11
50.6500796847
 21
21.5157066388
  0
LINE
  5
21F
100
AcDbEntity
  8
0
100
AcDbLine
 62
7
  6
BYLAYER
 10
47.4550216569
 20
21.5157066388
 11
38.3921802632
 21
21.5157066388
  0
LINE
  5
220
100
AcDbEntity
  8
0
100
AcDbLine
 62
7
  6
BYLAYER
 10
38.5501142982
 20
21.0006446251
 11
38.3872621659
 21
21.1634967574
  0
LINE
  5
221
100
AcDbEntity
  8
0
100
AcDbLine
 62
7
  6
BYLAYER
 10
33.8013027443
 20
120.4185857433
 11
33.7057335667
 21
120.1955909955
  0
LINE
  5
222
100
AcDbEntity
  8
0
100
AcDbLine
 62
7
  6
BYLAYER
 10
54.6136108497
 20
19.2945017048
 11
54.9516202961
 21
19.0530663859
  0
LINE
  5
223
100
AcDbEntity
  8
0
100
AcDbLine
 62
7
  6
BYLAYER
 10
33.8975506708
 20
33.0006446251
 11
64.2075506708
 21
33.0006446251
  0
LINE
  5
224
100
AcDbEntity
  8
0
100
AcDbLine
 62
7
  6
BYLAYER
 10
64.2075506708
 20
33.4996109508
 11
33.8975506708
 21
33.4996109508
  0
LINE
  5
225
100
AcDbEntity
  8
0
100
AcDbLine
 62
7
  6
BYLAYER
 10
64.3993677749
 20
39.4833738503
 11
64.2075506708
 21
39.4833738503
  0
LINE
  5
226
100
AcDbEntity
  8
0
100
AcDbLine
 62
7
  6
BYLAYER
 10
33.8975506708
 20
39.4833738503
 11
33.7057335667
 21
39.4833738503
  0
LINE
  5
227
100
AcDbEntity
  8
0
100
AcDbLine
 62
7
  6
BYLAYER
 10
33.7057335667
 20
39.988503506
 11
33.9025506708
 21
39.988503506
  0
LINE
  5
228
100
AcDbEntity
  8
0
100
AcDbLine
 62
7
  6
BYLAYER
 10
64.2025506708
 20
39.988503506
 11
64.3993677749
 21
39.988503506
  0
LINE
  5
229
100
AcDbEntity
  8
0
100
AcDbLine
 62
7
  6
BYLAYER
 10
46.4289535386
 20
122.6180988369
 11
46.2519009714
 21
122.1191325112
  0
LINE
  5
22A
100
AcDbEntity
  8
0
100
AcDbLine
 62
7
  6
BYLAYER
 10
33.7057335667
 20
33.4984187094
 11
33.7057335667
 21
120.1955909955
  0
LINE
  5
22B
100
AcDbEntity
  8
0
100
AcDbLine
 62
7
  6
BYLAYER
 10
33.8975506708
 20
33.0006446251
 11
33.8975506708
 21
54.7996109508
  0
LINE
  5
22C
100
AcDbEntity
  8
0
100
AcDbLine
 62
7
  6
BYLAYER
 10
33.9025506708
 20
54.7996109508
 11
33.9025506708
 21
120.4381559467
  0
LINE
  5
22D
100
AcDbEntity
  8
0
100
AcDbLine
 62
7
  6
BYLAYER
 10
34.5682931255
 20
83.7513728266
 11
34.5682931255
 21
120.5634787208
  0
LINE
  5
22E
100
AcDbEntity
  8
0
100
AcDbLine
 62
7
  6
BYLAYER
 10
64.2075506708
 20
54.7996109508
 11
33.8975506708
 21
54.7996109508
  0
LINE
  5
22F
100
AcDbEntity
  8
0
100
AcDbLine
 62
7
  6
BYLAYER
 10
64.2025506708
 20
55.6138539728
 11
33.9025506708
 21
55.6138539728
  0
LINE
  5
230
100
AcDbEntity
  8
0
100
AcDbLine
 62
7
  6
BYLAYER
 10
38.3872618691
 20
21.1634755028
 11
38.5525506708
 21
33.0006446251
  0
LINE
  5
231
100
AcDbEntity
  8
0
100
AcDbLine
 62
7
  6
BYLAYER
 10
64.2025506708
 20
59.2203797847
 11
33.9025506708
 21
59.2203797847
  0
LINE
  5
232
100
AcDbEntity
  8
0
100
AcDbLine
 62
7
  6
BYLAYER
 10
43.1534810454
 20
12.9528006614
 11
43.1534810454
 21
19.0530663859
  0
LINE
  5
233
100
AcDbEntity
  8
0
100
AcDbLine
 62
7
  6
BYLAYER
 10
43.7490214988
 20
10.9891267343
 11
43.7490214988
 21
12.5139813801
  0
LINE
  5
234
100
AcDbEntity
  8
0
100
AcDbLine
 62
7
  6
BYLAYER
 10
43.7973085625
 20
19.2945017048
 11
43.7973085625
 21
21.0006446251
  0
LINE
  5
235
100
AcDbEntity
  8
0
100
AcDbLine
 62
7
  6
BYLAYER
 10
64.2025506708
 20
61.3083232131
 11
33.9025506708
 21
61.3083232131
  0
LINE
  5
236
100
AcDbEntity
  8
0
100
AcDbLine
 62
7
  6
BYLAYER
 10
46.2519009714
 20
122.1191325112
 11
46.2519009714
 21
121.833079302
  0
LINE
  5
237
100
AcDbEntity
  8
0
100
AcDbLine
 62
7
  6
BYLAYER
 10
48.6525506708
 20
115.0787069024
 11
48.6525506708
 21
120.6225823478
  0
LINE
  5
238
100
AcDbEntity
  8
0
100
AcDbLine
 62
7
  6
BYLAYER
 10
48.6525506708
 20
122.0706446251
 11
48.6525506708
 21
123.3747415801
  0
LINE
  5
239
100
AcDbEntity
  8
0
100
AcDbLine
 62
7
  6
BYLAYER
 10
49.4525506708
 20
123.3747415801
 11
49.4525506708
 21
122.0706446251
  0
LINE
  5
23A
100
AcDbEntity
  8
0
100
AcDbLine
 62
7
  6
BYLAYER
 10
49.4525506708
 20
120.6225823478
 11
49.4525506708
 21
115.0787069024
  0
LINE
  5
23B
100
AcDbEntity
  8
0
100
AcDbLine
 62
7
  6
BYLAYER
 10
51.8532003701
 20
122.1191325112
 11
51.8532003701
 21
121.8330793142
  0
LINE
  5
23C
100
AcDbEntity
  8
0
100
AcDbLine
 62
7
  6
BYLAYER
 10
54.3077927791
 20
19.2945017048
 11
54.3077927791
 21
21.0006446251
  0
LINE
  5
23D
100
AcDbEntity
  8
0
100
AcDbLine
 62
7
  6
BYLAYER
 10
54.3560798428
 20
10.9891267343
 11
54.3560798428
 21
12.5139813801
  0
LINE
  5
23E
100
AcDbEntity
  8
0
100
AcDbLine
 62
7
  6
BYLAYER
 10
54.9516202961
 20
12.9528006614
 11
54.9516202961
 21
19.0530663859
  0
LINE
  5
23F
100
AcDbEntity
  8
0
100
AcDbLine
 62
7
  6
BYLAYER
 10
64.0173788388
 20
75.2999720241
 11
34.0321164656
 21
75.2999720241
  0
LINE
  5
240
100
AcDbEntity
  8
0
100
AcDbLine
 62
7
  6
BYLAYER
 10
59.7178394725
 20
21.1634755028
 11
59.5525506708
 21
33.0006446251
  0
LINE
  5
241
100
AcDbEntity
  8
0
100
AcDbLine
 62
7
  6
BYLAYER
 10
63.403694349
 20
84.4095879056
 11
63.403694349
 21
120.5878236078
  0
LINE
  5
242
100
AcDbEntity
  8
0
100
AcDbLine
 62
7
  6
BYLAYER
 10
64.2025506708
 20
54.7996109508
 11
64.2025506708
 21
120.4381559467
  0
LINE
  5
243
100
AcDbEntity
  8
0
100
AcDbLine
 62
7
  6
BYLAYER
 10
64.2075506708
 20
54.7996109508
 11
64.2075506708
 21
33.0006446251
  0
LINE
  5
244
100
AcDbEntity
  8
0
100
AcDbLine
 62
7
  6
BYLAYER
 10
64.3993677749
 20
33.4984187094
 11
64.3993677749
 21
120.1955909955
  0
LINE
  5
245
100
AcDbEntity
  8
0
100
AcDbLine
 62
7
  6
BYLAYER
 10
51.6761478029
 20
122.6180988369
 11
51.8532003701
 21
122.1191325112
  0
LINE
  5
246
100
AcDbEntity
  8
0
100
AcDbLine
 62
7
  6
BYLAYER
 10
64.3993677749
 20
95.7738275415
 11
64.2025506708
 21
95.7738275415
  0
LINE
  5
247
100
AcDbEntity
  8
0
100
AcDbLine
 62
7
  6
BYLAYER
 10
33.9025506708
 20
95.7738275415
 11
33.7057335667
 21
95.7738275415
  0
LINE
  5
248
100
AcDbEntity
  8
0
100
AcDbLine
 62
7
  6
BYLAYER
 10
64.3993677749
 20
120.1955909955
 11
64.3037985973
 21
120.4185857433
  0
LINE
  5
249
100
AcDbEntity
  8
0
100
AcDbLine
 62
7
  6
BYLAYER
 10
43.4914904919
 20
19.2945017048
 11
43.1534810454
 21
19.0530663859
  0
LINE
  5
24A
100
AcDbEntity
  8
0
100
AcDbLine
 62
7
  6
BYLAYER
 10
64.3993677749
 20
104.5459774619
 11
64.2025506708
 21
104.5459774619
  0
LINE
  5
24B
100
AcDbEntity
  8
0
100
AcDbLine
 62
7
  6
BYLAYER
 10
33.9025506708
 20
104.5459774619
 11
33.7057335667
 21
104.5459774619
  0
LINE
  5
24C
100
AcDbEntity
  8
0
100
AcDbLine
 62
7
  6
BYLAYER
 10
59.5549870433
 20
21.0006446251
 11
59.7178391757
 21
21.1634967574
  0
LINE
  5
24D
100
AcDbEntity
  8
0
100
AcDbLine
 62
7
  6
BYLAYER
 10
53.3523236032
 20
112.8351162705
 11
44.7688785797
 21
112.8351162705
  0
LINE
  5
24E
100
AcDbEntity
  8
0
100
AcDbLine
 62
7
  6
BYLAYER
 10
54.3560798428
 20
12.5139813801
 11
54.9516202961
 21
12.9528006614
  0
LINE
  5
24F
100
AcDbEntity
  8
0
100
AcDbLine
 62
7
  6
BYLAYER
 10
42.6542131289
 20
121.3767329582
 11
55.4669919263
 21
121.3767329582
  0
LINE
  5
250
100
AcDbEntity
  8
0
100
AcDbLine
 62
7
  6
BYLAYER
 10
54.8808597933
 20
121.6716489426
 11
43.2242415483
 21
121.6716489426
  0
LINE
  5
251
100
AcDbEntity
  8
0
100
AcDbLine
 62
7
  6
BYLAYER
 10
51.4295661043
 20
121.8487015098
 11
46.6755352373
 21
121.8487015098
  0
LINE
  5
252
100
AcDbEntity
  8
0
100
AcDbLine
 62
7
  6
BYLAYER
 10
48.6525506708
 20
122.0706446251
 11
49.4525506708
 21
122.0706446251
  0
LINE
  5
253
100
AcDbEntity
  8
0
100
AcDbLine
 62
7
  6
BYLAYER
 10
46.2519009714
 20
122.1191325112
 11
48.6525506708
 21
122.1191325112
  0
LINE
  5
254
100
AcDbEntity
  8
0
100
AcDbLine
 62
7
  6
BYLAYER
 10
49.4525506708
 20
122.1191325112
 11
51.8532003701
 21
122.1191325112
  0
LINE
  5
255
100
AcDbEntity
  8
0
100
AcDbLine
 62
7
  6
BYLAYER
 10
46.4289535386
 20
122.6180988369
 11
48.6525506708
 21
122.6180988369
  0
LINE
  5
256
100
AcDbEntity
  8
0
100
AcDbLine
 62
7
  6
BYLAYER
 10
49.4525506708
 20
122.6180988369
 11
51.6761478029
 21
122.6180988369
  0
ARC
  5
257
100
AcDbEntity
  8
0
100
AcDbCircle
 62
7
  6
BYLAYER
 10
34.1952192905
 20
33.4941303489
 40
0.4895045085
100
AcDbArc
 50
180.0108477152
 51
231.3068887713
  0
ARC
  5
258
100
AcDbEntity
  8
0
100
AcDbCircle
 62
7
  6
BYLAYER
 10
48.920885183
 20
118.9405299186
 40
4.4423233189
100
AcDbArc
 50
93.4630076788
 51
124.1216837587
  0
ARC
  5
259
100
AcDbEntity
  8
0
100
AcDbCircle
 62
7
  6
BYLAYER
 10
49.0525506708
 20
41.7867941434
 40
80.0971860524
100
AcDbArc
 50
91.7005959602
 51
100.9766705603
  0
ARC
  5
25A
100
AcDbEntity
  8
0
100
AcDbCircle
 62
7
  6
BYLAYER
 10
49.0525506708
 20
41.7867941434
 40
80.0971860524
100
AcDbArc
 50
79.0233294397
 51
88.2994040398
  0
ARC
  5
25B
100
AcDbEntity
  8
0
100
AcDbCircle
 62
7
  6
BYLAYER
 10
63.9098820511
 20
33.4941303489
 40
0.4895045085
100
AcDbArc
 50
308.7143387125
 51
359.9891856906
  0
ARC
  5
25C
100
AcDbEntity
  8
0
100
AcDbCircle
 62
7
  6
BYLAYER
 10
49.0525506708
 20
118.3806446251
 40
5.97
100
AcDbArc
 50
34.1438090086
 51
145.8561909914
  0
ARC
  5
25D
100
AcDbEntity
  8
0
100
AcDbCircle
 62
7
  6
BYLAYER
 10
49.0525506708
 20
118.3806446251
 40
4.8371025222
100
AcDbArc
 50
45.1337011977
 51
58.3058611521
  0
ARC
  5
25E
100
AcDbEntity
  8
0
100
AcDbCircle
 62
7
  6
BYLAYER
 10
49.0525506708
 20
118.3806446251
 40
4.8371025222
100
AcDbArc
 50
125.4608365846
 51
134.8662988023
  0
ARC
  5
25F
100
AcDbEntity
  8
0
100
AcDbCircle
 62
7
  6
BYLAYER
 10
49.0525506708
 20
118.3806446251
 40
4.8371025222
100
AcDbArc
 50
85.138719995
 51
94.861280005
  0
ARC
  5
260
100
AcDbEntity
  8
0
100
AcDbCircle
 62
7
  6
BYLAYER
 10
49.1842161586
 20
118.9405299186
 40
4.4423233189
100
AcDbArc
 50
55.8783162413
 51
86.5369923212
  0
CIRCLE
  5
261
100
AcDbEntity
  8
0
100
AcDbCircle
 62
7
  6
BYLAYER
 10
49.0525506708
 20
117.8506446251
 40
2.8006496993
  0
ARC
  5
262
100
AcDbEntity
  8
0
100
AcDbCircle
 62
7
  6
BYLAYER
 10
49.0525506708
 20
117.8506446251
 40
2.6235971321
100
AcDbArc
 50
98.7696551779
 51
261.2303448221
  0
ARC
  5
263
100
AcDbEntity
  8
0
100
AcDbCircle
 62
7
  6
BYLAYER
 10
49.0525506708
 20
117.8506446251
 40
2.6235971321
100
AcDbArc
 50
278.7696551779
 51
81.2303448221
  0
SPLINE
  5
264
100
AcDbEntity
  8
0
100
AcDbSpline
 62
7
  6
BYLAYER
 70
0
 71
3
 72
16
 73
12
 74
0
 42
0.0000001
 43
0.0000001
 44
0.0000000001
 40
0.0
 40
0.0
 40
0.0
 40
0.0
 40
0.0625047235
 40
0.1250102908
 40
0.1875126042
 40
0.2500156565
 40
0.3750132312
 40
0.5000117939
 40
0.6250102092
 40
0.7500083097
 40
1.0
 40
1.0
 40
1.0
 40
1.0
 10
47.4550216569
 20
21.5157066388
 30
0.0
 10
47.3480320967
 20
21.7387102267
 30
0.0
 10
47.1510887566
 20
22.1929371683
 30
0.0
 10
46.8902134493
 20
22.887758139
 30
0.0
 10
46.6544156521
 20
23.5914407879
 30
0.0
 10
46.3657568353
 20
24.5377797198
 30
0.0
 10
46.0427175224
 20
25.7317522635
 30
0.0
 10
45.6964700973
 20
27.1748284803
 30
0.0
 10
45.3809618856
 20
28.6249043503
 30
0.0
 10
44.9921866846
 20
30.5649201306
 30
0.0
 10
44.7292665957
 20
32.0254991423
 30
0.0
 10
44.5627849089
 20
33.0006446251
 30
0.0
  0
SPLINE
  5
265
100
AcDbEntity
  8
0
100
AcDbSpline
 62
7
  6
BYLAYER
 70
0
 71
3
 72
16
 73
12
 74
0
 42
0.0000001
 43
0.0000001
 44
0.0000000001
 40
0.0
 40
0.0
 40
0.0
 40
0.0
 40
0.0625047234
 40
0.1250102907
 40
0.1875126042
 40
0.2500156565
 40
0.3750132312
 40
0.5000117939
 40
0.6250102092
 40
0.7500083097
 40
1.0
 40
1.0
 40
1.0
 40
1.0
 10
50.6500796847
 20
21.5157066388
 30
0.0
 10
50.7570692448
 20
21.7387102266
 30
0.0
 10
50.9540125843
 20
22.1929371683
 30
0.0
 10
51.2148878922
 20
22.8877581385
 30
0.0
 10
51.4506856896
 20
23.5914407874
 30
0.0
 10
51.7393445061
 20
24.5377797196
 30
0.0
 10
52.0623838191
 20
25.7317522635
 30
0.0
 10
52.4086312444
 20
27.1748284803
 30
0.0
 10
52.7241394559
 20
28.6249043504
 30
0.0
 10
53.1129146569
 20
30.5649201308
 30
0.0
 10
53.3758347459
 20
32.0254991424
 30
0.0
 10
53.5423164327
 20
33.0006446251
 30
0.0
  0
SPLINE
  5
266
100
AcDbEntity
  8
0
100
AcDbSpline
 62
7
  6
BYLAYER
 70
0
 71
3
 72
9
 73
5
 74
0
 42
0.0000001
 43
0.0000001
 44
0.0000000001
 40
0.0
 40
0.0
 40
0.0
 40
0.0
 40
0.5000028272
 40
1.0
 40
1.0
 40
1.0
 40
1.0
 10
49.0525506708
 20
21.4031999449
 30
0.0
 10
49.3196318552
 20
21.4031999449
 30
0.0
 10
49.8539851582
 20
21.4217438048
 30
0.0
 10
50.3855867195
 20
21.4786362041
 30
0.0
 10
50.6500796847
 20
21.5157066388
 30
0.0
  0
SPLINE
  5
267
100
AcDbEntity
  8
0
100
AcDbSpline
 62
7
  6
BYLAYER
 70
0
 71
3
 72
9
 73
5
 74
0
 42
0.0000001
 43
0.0000001
 44
0.0000000001
 40
0.0
 40
0.0
 40
0.0
 40
0.0
 40
0.4999971728
 40
1.0
 40
1.0
 40
1.0
 40
1.0
 10
47.4550216569
 20
21.5157066388
 30
0.0
 10
47.7195146221
 20
21.4786362041
 30
0.0
 10
48.2511161833
 20
21.4217438048
 30
0.0
 10
48.7854694863
 20
21.4031999449
 30
0.0
 10
49.0525506708
 20
21.4031999449
 30
0.0
  0
SPLINE
  5
268
100
AcDbEntity
  8
0
100
AcDbSpline
 62
7
  6
BYLAYER
 70
0
 71
3
 72
18
 73
14
 74
0
 42
0.0000001
 43
0.0000001
 44
0.0000000001
 40
0.0
 40
0.0
 40
0.0
 40
0.0
 40
0.0312584991
 40
0.0625192542
 40
0.1250217396
 40
0.1875260926
 40
0.250029308
 40
0.3125316841
 40
0.3750331955
 40
0.5000286293
 40
0.625024262
 40
0.7500193534
 40
1.0
 40
1.0
 40
1.0
 40
1.0
 10
53.3523236032
 20
112.8351162705
 30
0.0
 10
53.5456396741
 20
112.5852532825
 30
0.0
 10
53.9159685131
 20
112.0727597566
 30
0.0
 10
54.6027167836
 20
111.011703975
 30
0.0
 10
55.3782339013
 20
109.6342220502
 30
0.0
 10
56.2122767187
 20
107.9318291766
 30
0.0
 10
56.9730564306
 20
106.1956649804
 30
0.0
 10
57.675935071
 20
104.4354969987
 30
0.0
 10
58.5502161035
 20
102.0647059491
 30
0.0
 10
59.5458538036
 20
99.0666623377
 30
0.0
 10
60.6273866275
 20
95.4340071539
 30
0.0
 10
61.9525351271
 20
90.5575222079
 30
0.0
 10
62.8422634669
 20
86.8728583879
 30
0.0
 10
63.403694349
 20
84.4095879056
 30
0.0
  0
SPLINE
  5
269
100
AcDbEntity
  8
0
100
AcDbSpline
 62
7
  6
BYLAYER
 70
0
 71
3
 72
18
 73
14
 74
0
 42
0.0000001
 43
0.0000001
 44
0.0000000001
 40
0.0
 40
0.0
 40
0.0
 40
0.0
 40
0.0312585371
 40
0.0625193035
 40
0.1250216072
 40
0.1875258762
 40
0.2500290449
 40
0.3125313811
 40
0.375032865
 40
0.5000283269
 40
0.6250239875
 40
0.7500191222
 40
1.0
 40
1.0
 40
1.0
 40
1.0
 10
44.7688785797
 20
112.8351162705
 30
0.0
 10
44.5712593935
 20
112.5796914091
 30
0.0
 10
44.1930526516
 20
112.0555045823
 30
0.0
 10
43.4927262633
 20
110.9697166823
 30
0.0
 10
42.7032821659
 20
109.5596683197
 30
0.0
 10
41.8554964351
 20
107.8170287542
 30
0.0
 10
41.0829710241
 20
106.039954903
 30
0.0
 10
40.3697642367
 20
104.2384961252
 30
0.0
 10
39.4831298151
 20
101.8123272125
 30
0.0
 10
38.4740924695
 20
98.7446614872
 30
0.0
 10
37.3785932486
 20
95.0281592157
 30
0.0
 10
36.036862131
 20
90.0396413417
 30
0.0
 10
35.1364030291
 20
86.2707930197
 30
0.0
 10
34.5682931255
 20
83.7513728266
 30
0.0
  0
SPLINE
  5
26A
100
AcDbEntity
  8
0
100
AcDbSpline
 62
7
  6
BYLAYER
 70
0
 71
3
 72
10
 73
6
 74
0
 42
0.0000001
 43
0.0000001
 44
0.0000000001
 40
0.0
 40
0.0
 40
0.0
 40
0.0
 40
0.4999873292
 40
0.7499958543
 40
1.0
 40
1.0
 40
1.0
 40
1.0
 10
42.6542131289
 20
121.3767329582
 30
0.0
 10
42.9509177214
 20
119.9400257687
 30
0.0
 10
43.4248646723
 20
117.7904525643
 30
0.0
 10
44.1489871338
 20
114.9468600743
 30
0.0
 10
44.5526309697
 20
113.5359844722
 30
0.0
 10
44.7691238589
 20
112.8351162705
 30
0.0
  0
SPLINE
  5
26B
100
AcDbEntity
  8
0
100
AcDbSpline
 62
7
  6
BYLAYER
 70
0
 71
3
 72
10
 73
6
 74
0
 42
0.0000001
 43
0.0000001
 44
0.0000000001
 40
0.0
 40
0.0
 40
0.0
 40
0.0
 40
0.2500041903
 40
0.5000128997
 40
1.0
 40
1.0
 40
1.0
 40
1.0
 10
53.3520811963
 20
112.8351162705
 30
0.0
 10
53.5685741666
 20
113.535984589
 30
0.0
 10
53.972223035
 20
114.9468594908
 30
0.0
 10
54.6963363401
 20
117.7904543972
 30
0.0
 10
55.170287444
 20
119.9400264221
 30
0.0
 10
55.4669919263
 20
121.3767329582
 30
0.0
  0
SPLINE
  5
26C
100
AcDbEntity
  8
0
100
AcDbSpline
 62
7
  6
BYLAYER
 70
0
 71
3
 72
18
 73
14
 74
0
 42
0.0000001
 43
0.0000001
 44
0.0000000001
 40
0.0
 40
0.0
 40
0.0
 40
0.0
 40
0.2498035087
 40
0.3747304258
 40
0.4996777571
 40
0.6246455027
 40
0.7496091216
 40
0.8121185015
 40
0.8745689069
 40
0.9059322594
 40
0.9372775602
 40
0.9685252899
 40
1.0
 40
1.0
 40
1.0
 40
1.0
 10
41.8750491266
 20
121.5617316002
 30
0.0
 10
41.9424420982
 20
121.5541510386
 30
0.0
 10
42.0434418173
 20
121.5418478226
 30
0.0
 10
42.1777342578
 20
121.5226401654
 30
0.0
 10
42.278221313
 20
121.5065172166
 30
0.0
 10
42.3783316293
 20
121.488169278
 30
0.0
 10
42.4611978966
 20
121.4697842825
 30
0.0
 10
42.5264752337
 20
121.4512215089
 30
0.0
 10
42.5667038544
 20
121.437571155
 30
0.0
 10
42.598222904
 20
121.4249238807
 30
0.0
 10
42.6213490477
 20
121.413894688
 30
0.0
 10
42.6413458958
 20
121.3975605424
 30
0.0
 10
42.6517484928
 20
121.3839180828
 30
0.0
 10
42.656373387
 20
121.3767329582
 30
0.0
  0
SPLINE
  5
26D
100
AcDbEntity
  8
0
100
AcDbSpline
 62
7
  6
BYLAYER
 70
0
 71
3
 72
18
 73
14
 74
0
 42
0.0000001
 43
0.0000001
 44
0.0000000001
 40
0.0
 40
0.0
 40
0.0
 40
0.0
 40
0.0314744633
 40
0.0627234916
 40
0.0940673583
 40
0.1254314411
 40
0.1878824182
 40
0.2503916208
 40
0.3753541639
 40
0.500321726
 40
0.6252691926
 40
0.7501961315
 40
1.0
 40
1.0
 40
1.0
 40
1.0
 10
55.464841839
 20
121.3767329582
 30
0.0
 10
55.4694175676
 20
121.3838598942
 30
0.0
 10
55.4797048918
 20
121.3973977509
 30
0.0
 10
55.499475133
 20
121.4136457904
 30
0.0
 10
55.5223639835
 20
121.4246493236
 30
0.0
 10
55.5535842216
 20
121.4372370072
 30
0.0
 10
55.5934424456
 20
121.4508122869
 30
0.0
 10
55.6581163968
 20
121.4693037285
 30
0.0
 10
55.7402268048
 20
121.4876357491
 30
0.0
 10
55.8394378385
 20
121.5059038032
 30
0.0
 10
55.939025031
 20
121.5219610007
 30
0.0
 10
56.0721168645
 20
121.5411017457
 30
0.0
 10
56.1722163202
 20
121.5533653252
 30
0.0
 10
56.2390090732
 20
121.5609242546
 30
0.0
  0
ELLIPSE
  5
26E
100
AcDbEntity
  8
0
100
AcDbEllipse
 62
7
  6
BYLAYER
 10
63.2238186396
 20
72.0104119686
 30
0.0
 11
0.0
 21
5.5811512886
 31
0.0
 40
0.1760078663
 41
-1.4852229383
 42
-0.9404738677
  0
ELLIPSE
  5
26F
100
AcDbEntity
  8
0
100
AcDbEllipse
 62
7
  6
BYLAYER
 10
34.720245566
 20
72.7527891463
 30
0.0
 11
0.0
 21
4.6662084544
 31
0.0
 40
0.1760078663
 41
0.9933590691
 42
1.4772030692
  0
ELLIPSE
  5
270
100
AcDbEntity
  8
0
100
AcDbEllipse
 62
7
  6
BYLAYER
 10
63.2238186396
 20
61.6615775103
 30
0.0
 11
-0.0
 21
23.139247143
 31
0.0
 40
0.0424528302
 41
-0.9404738677
 42
-0.1841509779
  0
ELLIPSE
  5
271
100
AcDbEntity
  8
0
100
AcDbEllipse
 62
7
  6
BYLAYER
 10
34.720245566
 20
64.7394458746
 30
0.0
 11
0.0
 21
19.3459279392
 31
0.0
 40
0.0424528302
 41
0.1860890876
 42
0.9933590691
  0
ENDSEC
  0
SECTION
  2
OBJECTS
  0
DICTIONARY
  5
C
100
AcDbDictionary
280
0
281
1
  3
ACAD_GROUP
350
D
  3
ACAD_MLINESTYLE
350
17
  3
ACAD_LAYOUT
350
1A
  3
ACAD_PLOTSETTINGS
350
19
  3
ACAD_PLOTSTYLENAME
350
E
  0
DICTIONARY
  5
D
102
{ACAD_REACTORS
330
C
102
}
100
AcDbDictionary
280
0
281
1
  0
ACDBDICTIONARYWDFLT
  5
E
102
{ACAD_REACTORS
330
C
102
}
100
AcDbDictionary
281
1
  3
Normal
350
F
100
AcDbDictionaryWithDefault
340
F
  0
DICTIONARY
  5
17
102
{ACAD_REACTORS
330
C
102
}
100
AcDbDictionary
280
0
281
1
  3
Standard
350
18
  0
DICTIONARY
  5
19
102
{ACAD_REACTORS
330
C
102
}
100
AcDbDictionary
281
1
  0
DICTIONARY
  5
1A
102
{ACAD_REACTORS
330
C
102
}
100
AcDbDictionary
281
1
  3
Model
350
272
  3
Layout1
350
273
  0
ACDBPLACEHOLDER
  5
F
102
{ACAD_REACTORS
330
E
102
}
  0
MLINESTYLE
  5
18
102
{ACAD_REACTORS
330
17
102
}
100
AcDbMlineStyle
  2
STANDARD
 70
0
  3

 62
256
 51
90.0
 52
90.0
 71
2
 49
0.5
 62
256
  6
BYLAYER
 49
-0.5
 62
256
  6
BYLAYER
  0
LAYOUT
  5
272
102
{ACAD_REACTORS
330
1A
102
}
100
AcDbPlotSettings
  1

  2
none_device
  4

  6

 40
0.0
 41
0.0
 42
0.0
 43
0.0
 44
210.0
 45
297.0
 46
0.0
 47
0.0
 48
0.0
 49
0.0
140
0.0
141
0.0
142
1.0
143
1.0
 70
1024
 72
1
 73
0
 74
0
  7

 75
0
147
1.0
148
0.0
149
0.0
100
AcDbLayout
  1
Model
 70
0
 71
0
 10
0.0
 20
0.0
 11
210.0
 21
297.0
 12
0.0
 22
0.0
 32
0.0
 14
0.0
 24
0.0
 34
0.0
 15
0.0
 25
0.0
 35
0.0
146
0.0
 13
0.0
 23
0.0
 33
0.0
 16
1.0
 26
0.0
 36
0.0
 17
0.0
 27
1.0
 37
0.0
 76
0
330
210
345
0
346
0
  0
LAYOUT
  5
273
102
{ACAD_REACTORS
330
1A
102
}
100
AcDbPlotSettings
  1

  2
none_device
  4

  6

 40
0.0
 41
0.0
 42
0.0
 43
0.0
 44
210.0
 45
297.0
 46
0.0
 47
0.0
 48
0.0
 49
0.0
140
0.0
141
0.0
142
1.0
143
1.0
 70
0
 72
1
 73
0
 74
0
  7

 75
0
147
1.0
148
0.0
149
0.0
100
AcDbLayout
  1
Layout1
 70
0
 71
1
 10
0.0
 20
0.0
 11
210.0
 21
297.0
 12
0.0
 22
0.0
 32
0.0
 14
0.0
 24
0.0
 34
0.0
 15
0.0
 25
0.0
 35
0.0
146
0.0
 13
0.0
 23
0.0
 33
0.0
 16
1.0
 26
0.0
 36
0.0
 17
0.0
 27
1.0
 37
0.0
 76
0
330
211
345
0
346
0
  0
ENDSEC
  0
EOF
