999
DXF file: C:\Users\sesa63760\Dev\_Creo\CAD\MCADID0004767_3D-CAD\drw0001_2.dxf
999
Pro/ENGINEER 2019471 by Parametric Technology Corporation
  0
SECTION
  2
HEADER
  9
$ACADVER
  1
AC1024
  9
$DWGCODEPAGE
  3
ANSI_1252
  9
$EXTMAX
 10
54.2287766257
 20
76.694984085
 30
0.0
  9
$EXTMIN
 10
0.0
 20
0.0
 30
0.0
  9
$LIMMIN
 10
0.0
 20
0.0
  9
$LIMMAX
 10
54.2287766257
 20
76.694984085
  9
$VIEWCTR
 10
27.1143883129
 20
38.3474920425
  9
$VIEWSIZE
 40
76.694984085
  9
$CLAYER
  8
0
  9
$LTSCALE
 40
4.9993767404
  9
$CELTYPE
  6
BYLAYER
  9
$DIMSCALE
 40
1.0
  9
$DIMASZ
 40
0.6455806741
  9
$DIMEXO
 40
1.0
  9
$DIMDLI
 40
3.4541148388
  9
$DIMEXE
 40
1.0
  9
$DIMCEN
 40
0.8180798302
  9
$DIMLFAC
 40
1.0
  9
$DIMBLK
  1
_FILLED
  9
$DIMALT
 70
0
  9
$DIMALTF
 40
0.0393700787
  9
$DIMTXT
 40
0.9038129438
  9
$DIMTOL
 70
1
  9
$DIMLIM
 70
0
  9
$DIMTFAC
 40
1.0
  9
$DIMTP
 40
0.01
  9
$DIMTM
 40
0.01
  9
$DIMGAP
 40
0.625
  9
$DIMDSEP
 70
46
  9
$AUNITS
 70
0
  9
$PDMODE
 70
3
  9
$PDSIZE
 40
0.3125
  9
$HANDSEED
  5
272
  9
$TILEMODE
 70
1
  9
$MEASUREMENT
 70
1
  9
$INSUNITS
 70
4
  0
ENDSEC
  0
SECTION
  2
CLASSES
  0
CLASS
  1
ACDBDICTIONARYWDFLT
  2
AcDbDictionaryWithDefault
  3
AutoCAD 2000
 90
0
 91
1
280
0
281
0
  0
CLASS
  1
ACDBPLACEHOLDER
  2
AcDbPlaceHolder
  3
AutoCAD 2000
 90
0
 91
1
280
0
281
0
  0
CLASS
  1
LAYOUT
  2
AcDbLayout
  3
AutoCAD 2000
 90
0
 91
0
280
0
281
0
  0
ENDSEC
  0
SECTION
  2
TABLES
  0
TABLE
  2
VPORT
  5
8
100
AcDbSymbolTable
 70
2
  0
VPORT
  5
1F4
100
AcDbSymbolTableRecord
100
AcDbViewportTableRecord
  2
*ACTIVE
 70
0
 10
0.0
 20
0.0
 11
1.0
 21
1.0
 12
27.1143883129
 22
38.3474920425
 13
0.0
 23
0.0
 14
1.0
 24
1.0
 15
0.0
 25
0.0
 16
0.0
 26
0.0
 36
1.0
 17
0.0
 27
0.0
 37
0.0
 40
76.694984085
 41
0.7070707071
 42
50.0
 43
0.0
 44
0.0
 50
0.0
 51
0.0
 71
0
 72
100
 73
1
 74
1
 75
0
 76
0
 77
0
 78
0
  0
ENDTAB
  0
TABLE
  2
LTYPE
  5
5
100
AcDbSymbolTable
 70
6
  0
LTYPE
  5
14
100
AcDbSymbolTableRecord
100
AcDbLinetypeTableRecord
  2
BYBLOCK
 70
0
  3

 72
65
 73
0
 40
0.0
  0
LTYPE
  5
15
100
AcDbSymbolTableRecord
100
AcDbLinetypeTableRecord
  2
BYLAYER
 70
0
  3

 72
65
 73
0
 40
0.0
  0
LTYPE
  5
16
100
AcDbSymbolTableRecord
100
AcDbLinetypeTableRecord
  2
CONTINUOUS
 70
64
  3
Solid line
 72
65
 73
0
 40
0.0
  0
LTYPE
  5
1F5
100
AcDbSymbolTableRecord
100
AcDbLinetypeTableRecord
  2
CENTER
 70
64
  3
____ _ ____ _ ____ _ ____ _ ____ _ ____ _ ____
 72
65
 73
4
 40
0.6
 49
0.375
 74
0
 49
-0.075
 74
0
 49
0.075
 74
0
 49
-0.075
 74
0
  0
LTYPE
  5
1F6
100
AcDbSymbolTableRecord
100
AcDbLinetypeTableRecord
  2
HIDDEN
 70
64
  3
- - - - - - - - - - - - - - - - - - - -
 72
65
 73
2
 40
0.2
 49
0.1
 74
0
 49
-0.1
 74
0
  0
LTYPE
  5
1F7
100
AcDbSymbolTableRecord
100
AcDbLinetypeTableRecord
  2
PHANTOM
 70
64
  3
_____ _ _ _____ _ _ _____ _ _ _____
 72
65
 73
6
 40
0.8
 49
0.45
 74
0
 49
-0.05
 74
0
 49
0.1
 74
0
 49
-0.05
 74
0
 49
0.1
 74
0
 49
-0.05
 74
0
  0
LTYPE
  5
1F8
100
AcDbSymbolTableRecord
100
AcDbLinetypeTableRecord
  2
DOT
 70
64
  3
. . . . . . . . . . . . . . . . . . . .
 72
65
 73
2
 40
0.2
 49
0.1
 74
0
 49
-0.1
 74
0
  0
LTYPE
  5
1F9
100
AcDbSymbolTableRecord
100
AcDbLinetypeTableRecord
  2
DASHED
 70
64
  3
- - - - - - - - - - - - - - - - - - - -
 72
65
 73
2
 40
0.2
 49
0.1
 74
0
 49
-0.1
 74
0
  0
ENDTAB
  0
TABLE
  2
LAYER
  5
2
100
AcDbSymbolTable
 70
36
  0
LAYER
  5
10
100
AcDbSymbolTableRecord
100
AcDbLayerTableRecord
  2
0
 70
0
 62
7
  6
CONTINUOUS
370
-3
390
F
  0
LAYER
  5
1FA
100
AcDbSymbolTableRecord
100
AcDbLayerTableRecord
  2
DEFAULT_1
 70
0
 62
7
  6
CENTER
370
-3
390
F
  0
LAYER
  5
1FB
100
AcDbSymbolTableRecord
100
AcDbLayerTableRecord
  2
DEFAULT_2
 70
0
 62
7
  6
HIDDEN
370
-3
390
F
  0
LAYER
  5
1FC
100
AcDbSymbolTableRecord
100
AcDbLayerTableRecord
  2
DEFAULT_3
 70
0
 62
7
  6
PHANTOM
370
-3
390
F
  0
LAYER
  5
1FD
100
AcDbSymbolTableRecord
100
AcDbLayerTableRecord
  2
00_COMPONENTS
 70
0
 62
7
  6
CONTINUOUS
370
-3
390
F
  0
LAYER
  5
1FE
100
AcDbSymbolTableRecord
100
AcDbLayerTableRecord
  2
01_1_DEFAULT_DATUMS
 70
0
 62
7
  6
CONTINUOUS
370
-3
390
F
  0
LAYER
  5
1FF
100
AcDbSymbolTableRecord
100
AcDbLayerTableRecord
  2
01_PLANES
 70
0
 62
7
  6
CONTINUOUS
370
-3
390
F
  0
LAYER
  5
200
100
AcDbSymbolTableRecord
100
AcDbLayerTableRecord
  2
02_COORD_SYS
 70
0
 62
7
  6
CONTINUOUS
370
-3
390
F
  0
LAYER
  5
201
100
AcDbSymbolTableRecord
100
AcDbLayerTableRecord
  2
03_AXES
 70
0
 62
7
  6
CONTINUOUS
370
-3
390
F
  0
LAYER
  5
202
100
AcDbSymbolTableRecord
100
AcDbLayerTableRecord
  2
04_POINTS
 70
0
 62
7
  6
CONTINUOUS
370
-3
390
F
  0
LAYER
  5
203
100
AcDbSymbolTableRecord
100
AcDbLayerTableRecord
  2
05_CURVES
 70
0
 62
7
  6
CONTINUOUS
370
-3
390
F
  0
LAYER
  5
204
100
AcDbSymbolTableRecord
100
AcDbLayerTableRecord
  2
06_SURFS
 70
0
 62
7
  6
CONTINUOUS
370
-3
390
F
  0
LAYER
  5
205
100
AcDbSymbolTableRecord
100
AcDbLayerTableRecord
  2
07_COSMETICS
 70
0
 62
7
  6
CONTINUOUS
370
-3
390
F
  0
LAYER
  5
206
100
AcDbSymbolTableRecord
100
AcDbLayerTableRecord
  2
10_NOTES
 70
0
 62
7
  6
CONTINUOUS
370
-3
390
F
  0
LAYER
  5
207
100
AcDbSymbolTableRecord
100
AcDbLayerTableRecord
  2
11_NOTES_PUB
 70
0
 62
7
  6
CONTINUOUS
370
-3
390
F
  0
LAYER
  5
208
100
AcDbSymbolTableRecord
100
AcDbLayerTableRecord
  2
13_REF_GTOL
 70
0
 62
7
  6
CONTINUOUS
370
-3
390
F
  0
LAYER
  5
209
100
AcDbSymbolTableRecord
100
AcDbLayerTableRecord
  2
16_MISC
 70
0
 62
7
  6
CONTINUOUS
370
-3
390
F
  0
LAYER
  5
20A
100
AcDbSymbolTableRecord
100
AcDbLayerTableRecord
  2
17_NO_PRINT
 70
0
 62
7
  6
CONTINUOUS
370
-3
390
F
  0
LAYER
  5
20B
100
AcDbSymbolTableRecord
100
AcDbLayerTableRecord
  2
18_DATUM_CAMS_JOINTS
 70
0
 62
7
  6
CONTINUOUS
370
-3
390
F
  0
LAYER
  5
20C
100
AcDbSymbolTableRecord
100
AcDbLayerTableRecord
  2
19_DATUM_FUNCTIONAL
 70
0
 62
7
  6
CONTINUOUS
370
-3
390
F
  0
LAYER
  5
20D
100
AcDbSymbolTableRecord
100
AcDbLayerTableRecord
  2
20_DATUM_KINEMATIC_SCHEME
 70
0
 62
7
  6
CONTINUOUS
370
-3
390
F
  0
ENDTAB
  0
TABLE
  2
STYLE
  5
3
100
AcDbSymbolTable
 70
1
  0
STYLE
  5
11
100
AcDbSymbolTableRecord
100
AcDbTextStyleTableRecord
  2
STANDARD
 70
0
 40
0.0
 41
1.0
 50
0.0
 71
0
 42
0.2
  3
ARIAL.TTF
  4

  0
STYLE
  5
20E
100
AcDbSymbolTableRecord
100
AcDbTextStyleTableRecord
  2
TEXTSTYLE_1
 70
0
 40
0.0
 41
0.8
 50
0.0
 71
0
 42
0.2
  3
gdt
  4

  0
ENDTAB
  0
TABLE
  2
VIEW
  5
6
100
AcDbSymbolTable
 70
0
  0
ENDTAB
  0
TABLE
  2
UCS
  5
7
100
AcDbSymbolTable
 70
0
  0
ENDTAB
  0
TABLE
  2
APPID
  5
9
100
AcDbSymbolTable
 70
1
  0
APPID
  5
20F
100
AcDbSymbolTableRecord
100
AcDbRegAppTableRecord
  2
ACAD
 70
0
  0
ENDTAB
  0
TABLE
  2
BLOCK_RECORD
  5
1
100
AcDbSymbolTable
 70
0
  0
BLOCK_RECORD
  5
210
100
AcDbSymbolTableRecord
100
AcDbBlockTableRecord
  2
*Model_Space
  0
BLOCK_RECORD
  5
211
100
AcDbSymbolTableRecord
100
AcDbBlockTableRecord
  2
*Paper_Space
  0
BLOCK_RECORD
  5
212
100
AcDbSymbolTableRecord
100
AcDbBlockTableRecord
  2
_FILLED
  0
ENDTAB
  0
TABLE
  2
DIMSTYLE
  5
A
100
AcDbSymbolTable
 70
1
100
AcDbDimStyleTable
 71
0
  0
DIMSTYLE
105
213
100
AcDbSymbolTableRecord
100
AcDbDimStyleTableRecord
  2
STANDARD
 70
0
  3

  4

 40
1.0
 41
0.6455806741
 42
1.0
 43
0.38
 44
1.0
 45
0.0
 46
0.0
 47
0.01
 48
0.01
140
0.9038129438
141
0.09
142
0.0
143
25.4
144
1.0
145
0.0
146
1.0
147
0.625
 71
1
 72
0
 73
0
 74
0
 75
0
 76
0
 77
1
 78
8
 79
2
170
0
171
1
172
0
173
0
174
0
175
0
176
0
177
0
178
0
270
2
179
2
271
2
272
2
273
2
274
2
275
0
280
0
281
0
282
0
283
1
284
8
285
0
286
0
287
3
288
0
340
11
278
46
341
212
342
212
343
212
344
212
  0
ENDTAB
  0
ENDSEC
  0
SECTION
  2
BLOCKS
  0
BLOCK
  5
20
100
AcDbEntity
  8
0
100
AcDbBlockBegin
  2
*Model_Space
 70
0
 10
0.0
 20
0.0
 30
0.0
  3
*Model_Space
  1

  0
ENDBLK
  5
21
100
AcDbEntity
  8
0
100
AcDbBlockEnd
  0
BLOCK
  5
1C
100
AcDbEntity
  8
0
100
AcDbBlockBegin
  2
*Paper_Space
 70
0
 10
0.0
 20
0.0
 30
0.0
  3
*Paper_Space
  1

  0
ENDBLK
  5
1D
100
AcDbEntity
  8
0
100
AcDbBlockEnd
  0
BLOCK
  5
214
100
AcDbEntity
  8
0
100
AcDbBlockBegin
  2
_FILLED
 70
64
 10
0.0
 20
0.0
  3
_FILLED
  1

  0
SOLID
  5
215
100
AcDbEntity
  8
0
  6
BYBLOCK
 62
0
100
AcDbTrace
 10
0.0
 20
0.0
 11
-1.0
 21
0.25
 12
-1.0
 22
-0.25
 13
-1.0
 23
-0.25
  0
ENDBLK
  5
216
100
AcDbEntity
  8
0
  6
BYBLOCK
 62
0
100
AcDbBlockEnd
  0
ENDSEC
  0
SECTION
  2
ENTITIES
  0
LINE
  5
217
100
AcDbEntity
  8
0
100
AcDbLine
 62
7
  6
BYLAYER
 10
33.866808859
 20
5.1161280693
 11
21.112959043
 21
5.1161280693
  0
LINE
  5
218
100
AcDbEntity
  8
0
100
AcDbLine
 62
7
  6
BYLAYER
 10
34.2175316858
 20
5.5293039805
 11
32.8033181235
 21
5.5293039805
  0
LINE
  5
219
100
AcDbEntity
  8
0
100
AcDbLine
 62
7
  6
BYLAYER
 10
30.9466086765
 20
5.5293039805
 11
24.0331592254
 21
5.5293039805
  0
LINE
  5
21A
100
AcDbEntity
  8
0
100
AcDbLine
 62
7
  6
BYLAYER
 10
22.1764497785
 20
5.5293039805
 11
20.7622362161
 21
5.5293039805
  0
LINE
  5
21B
100
AcDbEntity
  8
0
100
AcDbLine
 62
7
  6
BYLAYER
 10
23.7143192482
 20
8.0529521581
 11
31.2654486537
 21
8.0529521581
  0
LINE
  5
21C
100
AcDbEntity
  8
0
100
AcDbLine
 62
7
  6
BYLAYER
 10
36.6350661322
 20
8.4661280693
 11
18.3447004601
 21
8.4661280693
  0
LINE
  5
21D
100
AcDbEntity
  8
0
100
AcDbLine
 62
7
  6
BYLAYER
 10
37.0681961145
 20
8.7161280693
 11
34.6070925627
 21
8.7161280693
  0
LINE
  5
21E
100
AcDbEntity
  8
0
100
AcDbLine
 62
7
  6
BYLAYER
 10
33.8999857816
 20
8.7161280693
 11
17.9115717875
 21
8.7161280693
  0
LINE
  5
21F
100
AcDbEntity
  8
0
100
AcDbLine
 62
7
  6
BYLAYER
 10
17.3445345317
 20
9.6982654061
 11
34.3014584322
 21
9.6982654061
  0
LINE
  5
220
100
AcDbEntity
  8
0
100
AcDbLine
 62
7
  6
BYLAYER
 10
35.0085652134
 20
9.6982654061
 11
37.6352333703
 21
9.6982654061
  0
LINE
  5
221
100
AcDbEntity
  8
0
100
AcDbLine
 62
7
  6
BYLAYER
 10
37.7021445159
 20
9.9395392029
 11
35.0559357245
 21
9.9395392029
  0
LINE
  5
222
100
AcDbEntity
  8
0
100
AcDbLine
 62
7
  6
BYLAYER
 10
34.3488289433
 20
9.9395392029
 11
17.277623386
 21
9.9395392029
  0
LINE
  5
223
100
AcDbEntity
  8
0
100
AcDbLine
 62
7
  6
BYLAYER
 10
37.789883951
 20
14.9661280696
 11
35.1180507334
 21
14.9661280696
  0
LINE
  5
224
100
AcDbEntity
  8
0
100
AcDbLine
 62
7
  6
BYLAYER
 10
34.4109439522
 20
14.9661280696
 11
17.189883951
 21
14.9661280696
  0
LINE
  5
225
100
AcDbEntity
  8
0
100
AcDbLine
 62
7
  6
BYLAYER
 10
39.489883951
 20
15.3661280693
 11
33.0223054075
 21
15.3661280693
  0
LINE
  5
226
100
AcDbEntity
  8
0
100
AcDbLine
 62
7
  6
BYLAYER
 10
21.9574624944
 20
15.3661280693
 11
15.489883951
 21
15.3661280693
  0
LINE
  5
227
100
AcDbEntity
  8
0
100
AcDbLine
 62
7
  6
BYLAYER
 10
40.989883951
 20
15.9661280693
 11
13.989883951
 21
15.9661280693
  0
LINE
  5
228
100
AcDbEntity
  8
0
100
AcDbLine
 62
7
  6
BYLAYER
 10
17.9115717875
 20
8.7161280693
 11
17.3445345317
 21
9.6982654061
  0
LINE
  5
229
100
AcDbEntity
  8
0
100
AcDbLine
 62
7
  6
BYLAYER
 10
17.3445345317
 20
9.6982654061
 11
17.277623386
 21
9.9395392029
  0
LINE
  5
22A
100
AcDbEntity
  8
0
100
AcDbLine
 62
7
  6
BYLAYER
 10
13.989883951
 20
22.4661280693
 11
40.989883951
 21
22.4661280693
  0
LINE
  5
22B
100
AcDbEntity
  8
0
100
AcDbLine
 62
7
  6
BYLAYER
 10
13.989883951
 20
15.9661280693
 11
13.989883951
 21
22.4661280693
  0
LINE
  5
22C
100
AcDbEntity
  8
0
100
AcDbLine
 62
7
  6
BYLAYER
 10
14.039883951
 20
22.4661280693
 11
14.039883951
 21
44.3661280693
  0
LINE
  5
22D
100
AcDbEntity
  8
0
100
AcDbLine
 62
7
  6
BYLAYER
 10
14.6897883216
 20
15.9661280693
 11
14.6897846605
 21
22.4661280693
  0
LINE
  5
22E
100
AcDbEntity
  8
0
100
AcDbLine
 62
7
  6
BYLAYER
 10
15.489883951
 20
15.9661280693
 11
15.489883951
 21
15.3661280693
  0
LINE
  5
22F
100
AcDbEntity
  8
0
100
AcDbLine
 62
7
  6
BYLAYER
 10
15.6485428049
 20
15.3661280693
 11
15.6485428049
 21
15.9661280693
  0
LINE
  5
230
100
AcDbEntity
  8
0
100
AcDbLine
 62
7
  6
BYLAYER
 10
17.277623386
 20
9.9395392029
 11
17.189883951
 21
14.9661280696
  0
LINE
  5
231
100
AcDbEntity
  8
0
100
AcDbLine
 62
7
  6
BYLAYER
 10
16.7092029767
 20
15.9661280693
 11
16.7092029767
 21
15.3661280693
  0
LINE
  5
232
100
AcDbEntity
  8
0
100
AcDbLine
 62
7
  6
BYLAYER
 10
17.189883951
 20
15.3661280693
 11
17.189883951
 21
14.9661280696
  0
LINE
  5
233
100
AcDbEntity
  8
0
100
AcDbLine
 62
7
  6
BYLAYER
 10
18.0075220412
 20
15.3661280693
 11
18.0075220412
 21
15.9661280693
  0
LINE
  5
234
100
AcDbEntity
  8
0
100
AcDbLine
 62
7
  6
BYLAYER
 10
15.843282316
 20
15.3661280693
 11
15.8514867296
 21
15.9661280693
  0
LINE
  5
235
100
AcDbEntity
  8
0
100
AcDbLine
 62
7
  6
BYLAYER
 10
21.8900356843
 20
46.4911838816
 11
21.4568795827
 21
53.5521681563
  0
LINE
  5
236
100
AcDbEntity
  8
0
100
AcDbLine
 62
7
  6
BYLAYER
 10
20.739883951
 20
41.8661280693
 11
20.739883951
 21
44.3661280693
  0
LINE
  5
237
100
AcDbEntity
  8
0
100
AcDbLine
 62
7
  6
BYLAYER
 10
21.9574624944
 20
15.9661280693
 11
21.9574624944
 21
15.3661280693
  0
LINE
  5
238
100
AcDbEntity
  8
0
100
AcDbLine
 62
7
  6
BYLAYER
 10
25.9277286069
 20
44.3661280693
 11
25.8714937366
 21
45.2828265381
  0
LINE
  5
239
100
AcDbEntity
  8
0
100
AcDbLine
 62
7
  6
BYLAYER
 10
28.0673658531
 20
45.4175323197
 11
28.13186425
 21
44.3661280693
  0
LINE
  5
23A
100
AcDbEntity
  8
0
100
AcDbLine
 62
7
  6
BYLAYER
 10
31.4442280156
 20
54.0648414559
 11
31.8712725778
 21
47.1034828888
  0
LINE
  5
23B
100
AcDbEntity
  8
0
100
AcDbLine
 62
7
  6
BYLAYER
 10
14.039883951
 20
41.8661280693
 11
20.739883951
 21
41.8661280693
  0
LINE
  5
23C
100
AcDbEntity
  8
0
100
AcDbLine
 62
7
  6
BYLAYER
 10
34.239883951
 20
41.8661280693
 11
40.939883951
 21
41.8661280693
  0
LINE
  5
23D
100
AcDbEntity
  8
0
100
AcDbLine
 62
7
  6
BYLAYER
 10
33.0223054075
 20
15.3661280693
 11
33.0223054075
 21
15.9661280693
  0
LINE
  5
23E
100
AcDbEntity
  8
0
100
AcDbLine
 62
7
  6
BYLAYER
 10
34.239883951
 20
41.8661280693
 11
34.239883951
 21
44.3661280693
  0
LINE
  5
23F
100
AcDbEntity
  8
0
100
AcDbLine
 62
7
  6
BYLAYER
 10
34.4109439522
 20
14.9661280697
 11
34.4109439522
 21
15.3661280693
  0
LINE
  5
240
100
AcDbEntity
  8
0
100
AcDbLine
 62
7
  6
BYLAYER
 10
34.5523653084
 20
8.6147577438
 11
34.5523653084
 21
15.3661280693
  0
LINE
  5
241
100
AcDbEntity
  8
0
100
AcDbLine
 62
7
  6
BYLAYER
 10
34.4109439522
 20
14.9661280697
 11
34.3488289433
 21
9.9395392029
  0
LINE
  5
242
100
AcDbEntity
  8
0
100
AcDbLine
 62
7
  6
BYLAYER
 10
25.8714937366
 20
45.2828265381
 11
28.0673658531
 21
45.4175323197
  0
LINE
  5
243
100
AcDbEntity
  8
0
100
AcDbLine
 62
7
  6
BYLAYER
 10
14.039883951
 20
44.3661280693
 11
40.939883951
 21
44.3661280693
  0
LINE
  5
244
100
AcDbEntity
  8
0
100
AcDbLine
 62
7
  6
BYLAYER
 10
35.1180507334
 20
15.3661280693
 11
35.1180507334
 21
14.9661280697
  0
LINE
  5
245
100
AcDbEntity
  8
0
100
AcDbLine
 62
7
  6
BYLAYER
 10
36.9722458608
 20
15.9661280693
 11
36.9722458608
 21
15.3661280693
  0
LINE
  5
246
100
AcDbEntity
  8
0
100
AcDbLine
 62
7
  6
BYLAYER
 10
35.0559356193
 20
9.9395306924
 11
35.1180507334
 21
14.9661280697
  0
LINE
  5
247
100
AcDbEntity
  8
0
100
AcDbLine
 62
7
  6
BYLAYER
 10
21.8160791192
 20
47.6967680597
 11
31.7973160128
 21
48.3090670669
  0
LINE
  5
248
100
AcDbEntity
  8
0
100
AcDbLine
 62
7
  6
BYLAYER
 10
39.1282811724
 20
15.9661280693
 11
39.1364855859
 21
15.3661280693
  0
LINE
  5
249
100
AcDbEntity
  8
0
100
AcDbLine
 62
7
  6
BYLAYER
 10
37.789883951
 20
15.3661280693
 11
37.789883951
 21
14.9661280696
  0
LINE
  5
24A
100
AcDbEntity
  8
0
100
AcDbLine
 62
7
  6
BYLAYER
 10
38.2705649253
 20
15.3661280693
 11
38.2705649253
 21
15.9661280693
  0
LINE
  5
24B
100
AcDbEntity
  8
0
100
AcDbLine
 62
7
  6
BYLAYER
 10
39.3312250971
 20
15.9661280693
 11
39.3312250971
 21
15.3661280693
  0
LINE
  5
24C
100
AcDbEntity
  8
0
100
AcDbLine
 62
7
  6
BYLAYER
 10
39.489883951
 20
15.3661280693
 11
39.489883951
 21
15.9661280693
  0
LINE
  5
24D
100
AcDbEntity
  8
0
100
AcDbLine
 62
7
  6
BYLAYER
 10
37.7021445159
 20
9.9395392029
 11
37.789883951
 21
14.9661280696
  0
LINE
  5
24E
100
AcDbEntity
  8
0
100
AcDbLine
 62
7
  6
BYLAYER
 10
40.2899817632
 20
15.9661280693
 11
40.2899846968
 21
22.4661280693
  0
LINE
  5
24F
100
AcDbEntity
  8
0
100
AcDbLine
 62
7
  6
BYLAYER
 10
40.939883951
 20
22.4661280693
 11
40.939883951
 21
44.3661280693
  0
LINE
  5
250
100
AcDbEntity
  8
0
100
AcDbLine
 62
7
  6
BYLAYER
 10
40.989883951
 20
15.9661280693
 11
40.989883951
 21
22.4661280693
  0
LINE
  5
251
100
AcDbEntity
  8
0
100
AcDbLine
 62
7
  6
BYLAYER
 10
37.6352333703
 20
9.6982654061
 11
37.702144516
 21
9.9395392029
  0
LINE
  5
252
100
AcDbEntity
  8
0
100
AcDbLine
 62
7
  6
BYLAYER
 10
37.0681961145
 20
8.7161280693
 11
37.6352333703
 21
9.6982654061
  0
ARC
  5
253
100
AcDbEntity
  8
0
100
AcDbCircle
 62
7
  6
BYLAYER
 10
41.8525094714
 20
47.715781896
 40
10.0
100
AcDbArc
 50
183.5104107064
 51
199.5980471417
  0
ARC
  5
254
100
AcDbEntity
  8
0
100
AcDbCircle
 62
7
  6
BYLAYER
 10
11.9087987907
 20
45.8788848744
 40
10.0
100
AcDbArc
 50
351.2474182544
 51
3.5104107064
  0
CIRCLE
  5
255
100
AcDbEntity
  8
0
100
AcDbCircle
 62
7
  6
BYLAYER
 10
25.9591364329
 20
61.8192203033
 40
9.5
  0
CIRCLE
  5
256
100
AcDbEntity
  8
0
100
AcDbCircle
 62
7
  6
BYLAYER
 10
25.9591364329
 20
61.8192203033
 40
5.0
  0
ARC
  5
257
100
AcDbEntity
  8
0
100
AcDbCircle
 62
7
  6
BYLAYER
 10
34.2051551762
 20
13.299979867
 40
4.6980694858
100
AcDbArc
 50
269.922640198
 51
274.2382999183
  0
CIRCLE
  5
258
100
AcDbEntity
  8
0
100
AcDbCircle
 62
7
  6
BYLAYER
 10
25.9591364329
 20
61.8192203033
 40
4.5
  0
ARC
  5
259
100
AcDbEntity
  8
0
100
AcDbCircle
 62
7
  6
BYLAYER
 10
18.3445844894
 20
8.9661280693
 40
0.5
100
AcDbArc
 50
210.0
 51
270.0
  0
ARC
  5
25A
100
AcDbEntity
  8
0
100
AcDbCircle
 62
7
  6
BYLAYER
 10
36.6351834126
 20
8.9661280693
 40
0.5
100
AcDbArc
 50
270.0
 51
330.0
  0
LINE
  5
25B
100
AcDbEntity
  8
0
100
AcDbLine
 62
7
  6
BYLAYER
 10
33.8999857816
 20
8.7161280693
 11
34.3014584322
 21
9.6982654061
  0
SPLINE
  5
25C
100
AcDbEntity
  8
0
100
AcDbSpline
 62
7
  6
BYLAYER
 70
0
 71
3
 72
13
 73
9
 74
0
 42
0.0000001
 43
0.0000001
 44
0.0000000001
 40
0.0
 40
0.0
 40
0.0
 40
0.0
 40
0.1054869723
 40
0.2141282166
 40
0.328136856
 40
0.4491581316
 40
0.7126468478
 40
1.0
 40
1.0
 40
1.0
 40
1.0
 10
21.112959043
 20
5.1161280693
 30
0.0
 10
21.0922669684
 20
5.1161280693
 30
0.0
 10
21.0500991862
 20
5.1213711273
 30
0.0
 10
20.9894085629
 20
5.1444014113
 30
0.0
 10
20.9327674633
 20
5.1818848289
 30
0.0
 10
20.8629725056
 20
5.2511266248
 30
0.0
 10
20.7958456059
 20
5.3672666042
 30
0.0
 10
20.7692573023
 20
5.4733764541
 30
0.0
 10
20.7622362161
 20
5.5293039805
 30
0.0
  0
LINE
  5
25D
100
AcDbEntity
  8
0
100
AcDbLine
 62
7
  6
BYLAYER
 10
20.3936949748
 20
8.4661280693
 11
20.7622362161
 21
5.5293039805
  0
LINE
  5
25E
100
AcDbEntity
  8
0
100
AcDbLine
 62
7
  6
BYLAYER
 10
34.2175316858
 20
5.5293039805
 11
34.5860729272
 21
8.4661280693
  0
SPLINE
  5
25F
100
AcDbEntity
  8
0
100
AcDbSpline
 62
7
  6
BYLAYER
 70
0
 71
3
 72
13
 73
9
 74
0
 42
0.0000001
 43
0.0000001
 44
0.0000000001
 40
0.0
 40
0.0
 40
0.0
 40
0.0
 40
0.2873512054
 40
0.5508418367
 40
0.6718641929
 40
0.7858732948
 40
0.8945137053
 40
1.0
 40
1.0
 40
1.0
 40
1.0
 10
34.2175316858
 20
5.5293039805
 30
0.0
 10
34.2105106472
 20
5.4733768324
 30
0.0
 10
34.1839226354
 20
5.3672668953
 30
0.0
 10
34.1167953915
 20
5.2511268819
 30
0.0
 10
34.0470000655
 20
5.1818844469
 30
0.0
 10
33.9903586558
 20
5.1444012861
 30
0.0
 10
33.9296683485
 20
5.1213707181
 30
0.0
 10
33.8875008009
 20
5.1161280693
 30
0.0
 10
33.866808859
 20
5.1161280693
 30
0.0
  0
SPLINE
  5
260
100
AcDbEntity
  8
0
100
AcDbSpline
 62
7
  6
BYLAYER
 70
0
 71
3
 72
9
 73
5
 74
0
 42
0.0000001
 43
0.0000001
 44
0.0000000001
 40
0.0
 40
0.0
 40
0.0
 40
0.0
 40
0.2558823341
 40
1.0
 40
1.0
 40
1.0
 40
1.0
 10
34.3488289433
 20
9.9395392029
 30
0.0
 10
34.3485689716
 20
9.9185014936
 30
0.0
 10
34.3438625775
 20
9.8364025273
 30
0.0
 10
34.3246076568
 20
9.754900289
 30
0.0
 10
34.3014584322
 20
9.6982654061
 30
0.0
  0
SPLINE
  5
261
100
AcDbEntity
  8
0
100
AcDbSpline
 62
7
  6
BYLAYER
 70
0
 71
3
 72
9
 73
5
 74
0
 42
0.0000001
 43
0.0000001
 44
0.0000000001
 40
0.0
 40
0.0
 40
0.0
 40
0.0
 40
0.2571257514
 40
1.0
 40
1.0
 40
1.0
 40
1.0
 10
33.8999857816
 20
8.7161280693
 30
0.0
 10
33.8962453057
 20
8.7069783039
 30
0.0
 10
33.8807914569
 20
8.6717764735
 30
0.0
 10
33.8616267891
 20
8.6381602452
 30
0.0
 10
33.8452585272
 20
8.6147577438
 30
0.0
  0
LINE
  5
262
100
AcDbEntity
  8
0
100
AcDbLine
 62
7
  6
BYLAYER
 10
22.1764497785
 20
5.5293039805
 11
21.8079085371
 21
8.4661280693
  0
SPLINE
  5
263
100
AcDbEntity
  8
0
100
AcDbSpline
 62
7
  6
BYLAYER
 70
0
 71
3
 72
13
 73
9
 74
0
 42
0.0000001
 43
0.0000001
 44
0.0000000001
 40
0.0
 40
0.0
 40
0.0
 40
0.0
 40
0.2874033106
 40
0.5507991206
 40
0.6717795137
 40
0.7857828752
 40
0.8944573436
 40
1.0
 40
1.0
 40
1.0
 40
1.0
 10
23.7143192482
 20
8.0529521582
 30
0.0
 10
23.70724745
 20
8.1089780812
 30
0.0
 10
23.680447776
 20
8.2152349715
 30
0.0
 10
23.6128816988
 20
8.3313686792
 30
0.0
 10
23.5427931638
 20
8.400505364
 30
0.0
 10
23.4859734371
 20
8.4379134333
 30
0.0
 10
23.4251356164
 20
8.460894333
 30
0.0
 10
23.3828814119
 20
8.4661280693
 30
0.0
 10
23.3621438506
 20
8.4661280693
 30
0.0
  0
SPLINE
  5
264
100
AcDbEntity
  8
0
100
AcDbSpline
 62
7
  6
BYLAYER
 70
0
 71
3
 72
13
 73
9
 74
0
 42
0.0000001
 43
0.0000001
 44
0.0000000001
 40
0.0
 40
0.0
 40
0.0
 40
0.0
 40
0.1055954589
 40
0.2142795942
 40
0.3282449667
 40
0.449165842
 40
0.7124981279
 40
1.0
 40
1.0
 40
1.0
 40
1.0
 10
24.38678508
 20
5.1161280693
 30
0.0
 10
24.3659968246
 20
5.1161280693
 30
0.0
 10
24.3236500101
 20
5.1213176431
 30
0.0
 10
24.2626267002
 20
5.144164661
 30
0.0
 10
24.2055819515
 20
5.1814379532
 30
0.0
 10
24.135154103
 20
5.2504612101
 30
0.0
 10
24.0671949229
 20
5.3666873001
 30
0.0
 10
24.0402606496
 20
5.4731516322
 30
0.0
 10
24.0331592254
 20
5.5293039805
 30
0.0
  0
SPLINE
  5
265
100
AcDbEntity
  8
0
100
AcDbSpline
 62
7
  6
BYLAYER
 70
0
 71
3
 72
13
 73
9
 74
0
 42
0.0000001
 43
0.0000001
 44
0.0000000001
 40
0.0
 40
0.0
 40
0.0
 40
0.0
 40
0.2873512054
 40
0.5508418367
 40
0.6718641929
 40
0.7858732948
 40
0.8945137053
 40
1.0
 40
1.0
 40
1.0
 40
1.0
 10
22.1764497785
 20
5.5293039805
 30
0.0
 10
22.1834708172
 20
5.4733768324
 30
0.0
 10
22.2100588289
 20
5.3672668953
 30
0.0
 10
22.2771860729
 20
5.2511268819
 30
0.0
 10
22.3469813988
 20
5.1818844469
 30
0.0
 10
22.4036228085
 20
5.1444012861
 30
0.0
 10
22.4643131158
 20
5.1213707181
 30
0.0
 10
22.5064806634
 20
5.1161280693
 30
0.0
 10
22.5271726053
 20
5.1161280693
 30
0.0
  0
SPLINE
  5
266
100
AcDbEntity
  8
0
100
AcDbSpline
 62
7
  6
BYLAYER
 70
0
 71
3
 72
13
 73
9
 74
0
 42
0.0000001
 43
0.0000001
 44
0.0000000001
 40
0.0
 40
0.0
 40
0.0
 40
0.0
 40
0.1054869723
 40
0.2141282166
 40
0.328136856
 40
0.4491581316
 40
0.7126468478
 40
1.0
 40
1.0
 40
1.0
 40
1.0
 10
32.4525952966
 20
5.1161280693
 30
0.0
 10
32.4732873712
 20
5.1161280693
 30
0.0
 10
32.5154551534
 20
5.1213711273
 30
0.0
 10
32.5761457767
 20
5.1444014113
 30
0.0
 10
32.6327868763
 20
5.1818848289
 30
0.0
 10
32.702581834
 20
5.2511266248
 30
0.0
 10
32.7697087337
 20
5.3672666042
 30
0.0
 10
32.7962970373
 20
5.4733764541
 30
0.0
 10
32.8033181235
 20
5.5293039805
 30
0.0
  0
SPLINE
  5
267
100
AcDbEntity
  8
0
100
AcDbSpline
 62
7
  6
BYLAYER
 70
0
 71
3
 72
13
 73
9
 74
0
 42
0.0000001
 43
0.0000001
 44
0.0000000001
 40
0.0
 40
0.0
 40
0.0
 40
0.0
 40
0.2875002892
 40
0.5508344458
 40
0.6717563247
 40
0.7857220342
 40
0.894405236
 40
1.0
 40
1.0
 40
1.0
 40
1.0
 10
30.9466086765
 20
5.5293039805
 30
0.0
 10
30.9395072914
 20
5.4731519409
 30
0.0
 10
30.9125732438
 20
5.3666874802
 30
0.0
 10
30.844613722
 20
5.2504612794
 30
0.0
 10
30.7741854325
 20
5.1814375264
 30
0.0
 10
30.7171404539
 20
5.1441644911
 30
0.0
 10
30.6561174968
 20
5.1213172098
 30
0.0
 10
30.6137709407
 20
5.1161280693
 30
0.0
 10
30.592982822
 20
5.1161280693
 30
0.0
  0
SPLINE
  5
268
100
AcDbEntity
  8
0
100
AcDbSpline
 62
7
  6
BYLAYER
 70
0
 71
3
 72
13
 73
9
 74
0
 42
0.0000001
 43
0.0000001
 44
0.0000000001
 40
0.0
 40
0.0
 40
0.0
 40
0.0
 40
0.1055432913
 40
0.2142184192
 40
0.3282210968
 40
0.4492002238
 40
0.7125938762
 40
1.0
 40
1.0
 40
1.0
 40
1.0
 10
31.6176240514
 20
8.4661280693
 30
0.0
 10
31.5968863639
 20
8.4661280693
 30
0.0
 10
31.5546319585
 20
8.4608939569
 30
0.0
 10
31.4937939071
 20
8.437913344
 30
0.0
 10
31.4369745659
 20
8.4005051074
 30
0.0
 10
31.3668864298
 20
8.3313692226
 30
0.0
 10
31.2993202471
 20
8.2152356678
 30
0.0
 10
31.2725205216
 20
8.1089786335
 30
0.0
 10
31.2654486537
 20
8.0529521581
 30
0.0
  0
LINE
  5
269
100
AcDbEntity
  8
0
100
AcDbLine
 62
7
  6
BYLAYER
 10
33.1718593648
 20
8.4661280693
 11
32.8033181235
 21
5.5293039805
  0
LINE
  5
26A
100
AcDbEntity
  8
0
100
AcDbLine
 62
7
  6
BYLAYER
 10
23.7143192482
 20
8.0529521582
 11
24.0331592254
 21
5.5293039805
  0
LINE
  5
26B
100
AcDbEntity
  8
0
100
AcDbLine
 62
7
  6
BYLAYER
 10
30.9466086765
 20
5.5293039805
 11
31.2654486537
 21
8.0529521581
  0
SPLINE
  5
26C
100
AcDbEntity
  8
0
100
AcDbSpline
 62
7
  6
BYLAYER
 70
0
 71
3
 72
10
 73
6
 74
0
 42
0.0000001
 43
0.0000001
 44
0.0000000001
 40
0.0
 40
0.0
 40
0.0
 40
0.0
 40
0.2501526865
 40
0.6251475882
 40
1.0
 40
1.0
 40
1.0
 40
1.0
 10
33.8452585272
 20
8.6147577438
 30
0.0
 10
33.8746814243
 20
8.6125408391
 30
0.0
 10
33.9482757771
 20
8.607854921
 30
0.0
 10
34.0661435488
 20
8.6029844811
 30
0.0
 10
34.1545968963
 20
8.6019105685
 30
0.0
 10
34.1988119178
 20
8.6019105685
 30
0.0
  0
SPLINE
  5
26D
100
AcDbEntity
  8
0
100
AcDbSpline
 62
7
  6
BYLAYER
 70
0
 71
3
 72
9
 73
5
 74
0
 42
0.0000001
 43
0.0000001
 44
0.0000000001
 40
0.0
 40
0.0
 40
0.0
 40
0.0
 40
0.2429913941
 40
1.0
 40
1.0
 40
1.0
 40
1.0
 10
34.5523653084
 20
8.6147577438
 30
0.0
 10
34.5577195387
 20
8.6224129477
 30
0.0
 10
34.5787977432
 20
8.6545810756
 30
0.0
 10
34.5960796805
 20
8.6891889066
 30
0.0
 10
34.6070925628
 20
8.7161280693
 30
0.0
  0
SPLINE
  5
26E
100
AcDbEntity
  8
0
100
AcDbSpline
 62
7
  6
BYLAYER
 70
0
 71
3
 72
9
 73
5
 74
0
 42
0.0000001
 43
0.0000001
 44
0.0000000001
 40
0.0
 40
0.0
 40
0.0
 40
0.0
 40
0.2432886601
 40
1.0
 40
1.0
 40
1.0
 40
1.0
 10
35.0085660256
 20
9.6982673931
 30
0.0
 10
35.0161352152
 20
9.7167855152
 30
0.0
 10
35.0432921511
 20
9.7944846378
 30
0.0
 10
35.0551667568
 20
9.8773119722
 30
0.0
 10
35.0559356193
 20
9.9395306924
 30
0.0
  0
LINE
  5
26F
100
AcDbEntity
  8
0
100
AcDbLine
 62
7
  6
BYLAYER
 10
35.0085660256
 20
9.6982673931
 11
34.6070925628
 21
8.7161280693
  0
ENDSEC
  0
SECTION
  2
OBJECTS
  0
DICTIONARY
  5
C
100
AcDbDictionary
280
0
281
1
  3
ACAD_GROUP
350
D
  3
ACAD_MLINESTYLE
350
17
  3
ACAD_LAYOUT
350
1A
  3
ACAD_PLOTSETTINGS
350
19
  3
ACAD_PLOTSTYLENAME
350
E
  0
DICTIONARY
  5
D
102
{ACAD_REACTORS
330
C
102
}
100
AcDbDictionary
280
0
281
1
  0
ACDBDICTIONARYWDFLT
  5
E
102
{ACAD_REACTORS
330
C
102
}
100
AcDbDictionary
281
1
  3
Normal
350
F
100
AcDbDictionaryWithDefault
340
F
  0
DICTIONARY
  5
17
102
{ACAD_REACTORS
330
C
102
}
100
AcDbDictionary
280
0
281
1
  3
Standard
350
18
  0
DICTIONARY
  5
19
102
{ACAD_REACTORS
330
C
102
}
100
AcDbDictionary
281
1
  0
DICTIONARY
  5
1A
102
{ACAD_REACTORS
330
C
102
}
100
AcDbDictionary
281
1
  3
Model
350
270
  3
Layout1
350
271
  0
ACDBPLACEHOLDER
  5
F
102
{ACAD_REACTORS
330
E
102
}
  0
MLINESTYLE
  5
18
102
{ACAD_REACTORS
330
17
102
}
100
AcDbMlineStyle
  2
STANDARD
 70
0
  3

 62
256
 51
90.0
 52
90.0
 71
2
 49
0.5
 62
256
  6
BYLAYER
 49
-0.5
 62
256
  6
BYLAYER
  0
LAYOUT
  5
270
102
{ACAD_REACTORS
330
1A
102
}
100
AcDbPlotSettings
  1

  2
none_device
  4

  6

 40
0.0
 41
0.0
 42
0.0
 43
0.0
 44
210.0
 45
297.0
 46
0.0
 47
0.0
 48
0.0
 49
0.0
140
0.0
141
0.0
142
1.0
143
1.0
 70
1024
 72
1
 73
0
 74
0
  7

 75
0
147
1.0
148
0.0
149
0.0
100
AcDbLayout
  1
Model
 70
0
 71
0
 10
0.0
 20
0.0
 11
210.0
 21
297.0
 12
0.0
 22
0.0
 32
0.0
 14
0.0
 24
0.0
 34
0.0
 15
0.0
 25
0.0
 35
0.0
146
0.0
 13
0.0
 23
0.0
 33
0.0
 16
1.0
 26
0.0
 36
0.0
 17
0.0
 27
1.0
 37
0.0
 76
0
330
210
345
0
346
0
  0
LAYOUT
  5
271
102
{ACAD_REACTORS
330
1A
102
}
100
AcDbPlotSettings
  1

  2
none_device
  4

  6

 40
0.0
 41
0.0
 42
0.0
 43
0.0
 44
210.0
 45
297.0
 46
0.0
 47
0.0
 48
0.0
 49
0.0
140
0.0
141
0.0
142
1.0
143
1.0
 70
0
 72
1
 73
0
 74
0
  7

 75
0
147
1.0
148
0.0
149
0.0
100
AcDbLayout
  1
Layout1
 70
0
 71
1
 10
0.0
 20
0.0
 11
210.0
 21
297.0
 12
0.0
 22
0.0
 32
0.0
 14
0.0
 24
0.0
 34
0.0
 15
0.0
 25
0.0
 35
0.0
146
0.0
 13
0.0
 23
0.0
 33
0.0
 16
1.0
 26
0.0
 36
0.0
 17
0.0
 27
1.0
 37
0.0
 76
0
330
211
345
0
346
0
  0
ENDSEC
  0
EOF
