999
DXF file: C:\Users\sesa63760\Dev\_Creo\CAD\MCADID0004531_3D-CAD\drw0001_5.dxf
999
Pro/ENGINEER 2019471 by Parametric Technology Corporation
  0
SECTION
  2
HEADER
  9
$ACADVER
  1
AC1024
  9
$DWGCODEPAGE
  3
ANSI_1252
  9
$EXTMAX
 10
103.4777947882
 20
146.3471669147
 30
0.0
  9
$EXTMIN
 10
0.0
 20
0.0
 30
0.0
  9
$LIMMIN
 10
0.0
 20
0.0
  9
$LIMMAX
 10
103.4777947882
 20
146.3471669147
  9
$VIEWCTR
 10
51.7388973941
 20
73.1735834574
  9
$VIEWSIZE
 40
146.3471669147
  9
$CLAYER
  8
0
  9
$LTSCALE
 40
9.5396671767
  9
$CELTYPE
  6
BYLAYER
  9
$DIMSCALE
 40
1.0
  9
$DIMASZ
 40
1.2318785094
  9
$DIMEXO
 40
1.0
  9
$DIMDLI
 40
6.5910427766
  9
$DIMEXE
 40
1.0
  9
$DIMCEN
 40
1.5610364471
  9
$DIMLFAC
 40
1.0
  9
$DIMBLK
  1
_FILLED
  9
$DIMALT
 70
0
  9
$DIMALTF
 40
0.0393700787
  9
$DIMTXT
 40
1.7246299131
  9
$DIMTOL
 70
1
  9
$DIMLIM
 70
0
  9
$DIMTFAC
 40
1.0
  9
$DIMTP
 40
0.01
  9
$DIMTM
 40
0.01
  9
$DIMGAP
 40
0.625
  9
$DIMDSEP
 70
46
  9
$AUNITS
 70
0
  9
$PDMODE
 70
3
  9
$PDSIZE
 40
0.3125
  9
$HANDSEED
  5
26B
  9
$TILEMODE
 70
1
  9
$MEASUREMENT
 70
1
  9
$INSUNITS
 70
4
  0
ENDSEC
  0
SECTION
  2
CLASSES
  0
CLASS
  1
ACDBDICTIONARYWDFLT
  2
AcDbDictionaryWithDefault
  3
AutoCAD 2000
 90
0
 91
1
280
0
281
0
  0
CLASS
  1
ACDBPLACEHOLDER
  2
AcDbPlaceHolder
  3
AutoCAD 2000
 90
0
 91
1
280
0
281
0
  0
CLASS
  1
LAYOUT
  2
AcDbLayout
  3
AutoCAD 2000
 90
0
 91
0
280
0
281
0
  0
ENDSEC
  0
SECTION
  2
TABLES
  0
TABLE
  2
VPORT
  5
8
100
AcDbSymbolTable
 70
2
  0
VPORT
  5
1F4
100
AcDbSymbolTableRecord
100
AcDbViewportTableRecord
  2
*ACTIVE
 70
0
 10
0.0
 20
0.0
 11
1.0
 21
1.0
 12
51.7388973941
 22
73.1735834574
 13
0.0
 23
0.0
 14
1.0
 24
1.0
 15
0.0
 25
0.0
 16
0.0
 26
0.0
 36
1.0
 17
0.0
 27
0.0
 37
0.0
 40
146.3471669147
 41
0.7070707071
 42
50.0
 43
0.0
 44
0.0
 50
0.0
 51
0.0
 71
0
 72
100
 73
1
 74
1
 75
0
 76
0
 77
0
 78
0
  0
ENDTAB
  0
TABLE
  2
LTYPE
  5
5
100
AcDbSymbolTable
 70
6
  0
LTYPE
  5
14
100
AcDbSymbolTableRecord
100
AcDbLinetypeTableRecord
  2
BYBLOCK
 70
0
  3

 72
65
 73
0
 40
0.0
  0
LTYPE
  5
15
100
AcDbSymbolTableRecord
100
AcDbLinetypeTableRecord
  2
BYLAYER
 70
0
  3

 72
65
 73
0
 40
0.0
  0
LTYPE
  5
16
100
AcDbSymbolTableRecord
100
AcDbLinetypeTableRecord
  2
CONTINUOUS
 70
64
  3
Solid line
 72
65
 73
0
 40
0.0
  0
LTYPE
  5
1F5
100
AcDbSymbolTableRecord
100
AcDbLinetypeTableRecord
  2
CENTER
 70
64
  3
____ _ ____ _ ____ _ ____ _ ____ _ ____ _ ____
 72
65
 73
4
 40
0.6
 49
0.375
 74
0
 49
-0.075
 74
0
 49
0.075
 74
0
 49
-0.075
 74
0
  0
LTYPE
  5
1F6
100
AcDbSymbolTableRecord
100
AcDbLinetypeTableRecord
  2
HIDDEN
 70
64
  3
- - - - - - - - - - - - - - - - - - - -
 72
65
 73
2
 40
0.2
 49
0.1
 74
0
 49
-0.1
 74
0
  0
LTYPE
  5
1F7
100
AcDbSymbolTableRecord
100
AcDbLinetypeTableRecord
  2
PHANTOM
 70
64
  3
_____ _ _ _____ _ _ _____ _ _ _____
 72
65
 73
6
 40
0.8
 49
0.45
 74
0
 49
-0.05
 74
0
 49
0.1
 74
0
 49
-0.05
 74
0
 49
0.1
 74
0
 49
-0.05
 74
0
  0
LTYPE
  5
1F8
100
AcDbSymbolTableRecord
100
AcDbLinetypeTableRecord
  2
DOT
 70
64
  3
. . . . . . . . . . . . . . . . . . . .
 72
65
 73
2
 40
0.2
 49
0.1
 74
0
 49
-0.1
 74
0
  0
LTYPE
  5
1F9
100
AcDbSymbolTableRecord
100
AcDbLinetypeTableRecord
  2
DASHED
 70
64
  3
- - - - - - - - - - - - - - - - - - - -
 72
65
 73
2
 40
0.2
 49
0.1
 74
0
 49
-0.1
 74
0
  0
ENDTAB
  0
TABLE
  2
LAYER
  5
2
100
AcDbSymbolTable
 70
36
  0
LAYER
  5
10
100
AcDbSymbolTableRecord
100
AcDbLayerTableRecord
  2
0
 70
0
 62
7
  6
CONTINUOUS
370
-3
390
F
  0
LAYER
  5
1FA
100
AcDbSymbolTableRecord
100
AcDbLayerTableRecord
  2
DEFAULT_1
 70
0
 62
7
  6
CENTER
370
-3
390
F
  0
LAYER
  5
1FB
100
AcDbSymbolTableRecord
100
AcDbLayerTableRecord
  2
DEFAULT_2
 70
0
 62
7
  6
HIDDEN
370
-3
390
F
  0
LAYER
  5
1FC
100
AcDbSymbolTableRecord
100
AcDbLayerTableRecord
  2
DEFAULT_3
 70
0
 62
7
  6
PHANTOM
370
-3
390
F
  0
LAYER
  5
1FD
100
AcDbSymbolTableRecord
100
AcDbLayerTableRecord
  2
00_COMPONENTS
 70
0
 62
7
  6
CONTINUOUS
370
-3
390
F
  0
LAYER
  5
1FE
100
AcDbSymbolTableRecord
100
AcDbLayerTableRecord
  2
01_1_DEFAULT_DATUMS
 70
0
 62
7
  6
CONTINUOUS
370
-3
390
F
  0
LAYER
  5
1FF
100
AcDbSymbolTableRecord
100
AcDbLayerTableRecord
  2
01_PLANES
 70
0
 62
7
  6
CONTINUOUS
370
-3
390
F
  0
LAYER
  5
200
100
AcDbSymbolTableRecord
100
AcDbLayerTableRecord
  2
02_COORD_SYS
 70
0
 62
7
  6
CONTINUOUS
370
-3
390
F
  0
LAYER
  5
201
100
AcDbSymbolTableRecord
100
AcDbLayerTableRecord
  2
03_AXES
 70
0
 62
7
  6
CONTINUOUS
370
-3
390
F
  0
LAYER
  5
202
100
AcDbSymbolTableRecord
100
AcDbLayerTableRecord
  2
04_POINTS
 70
0
 62
7
  6
CONTINUOUS
370
-3
390
F
  0
LAYER
  5
203
100
AcDbSymbolTableRecord
100
AcDbLayerTableRecord
  2
05_CURVES
 70
0
 62
7
  6
CONTINUOUS
370
-3
390
F
  0
LAYER
  5
204
100
AcDbSymbolTableRecord
100
AcDbLayerTableRecord
  2
06_SURFS
 70
0
 62
7
  6
CONTINUOUS
370
-3
390
F
  0
LAYER
  5
205
100
AcDbSymbolTableRecord
100
AcDbLayerTableRecord
  2
07_COSMETICS
 70
0
 62
7
  6
CONTINUOUS
370
-3
390
F
  0
LAYER
  5
206
100
AcDbSymbolTableRecord
100
AcDbLayerTableRecord
  2
10_NOTES
 70
0
 62
7
  6
CONTINUOUS
370
-3
390
F
  0
LAYER
  5
207
100
AcDbSymbolTableRecord
100
AcDbLayerTableRecord
  2
11_NOTES_PUB
 70
0
 62
7
  6
CONTINUOUS
370
-3
390
F
  0
LAYER
  5
208
100
AcDbSymbolTableRecord
100
AcDbLayerTableRecord
  2
13_REF_GTOL
 70
0
 62
7
  6
CONTINUOUS
370
-3
390
F
  0
LAYER
  5
209
100
AcDbSymbolTableRecord
100
AcDbLayerTableRecord
  2
16_MISC
 70
0
 62
7
  6
CONTINUOUS
370
-3
390
F
  0
LAYER
  5
20A
100
AcDbSymbolTableRecord
100
AcDbLayerTableRecord
  2
17_NO_PRINT
 70
0
 62
7
  6
CONTINUOUS
370
-3
390
F
  0
LAYER
  5
20B
100
AcDbSymbolTableRecord
100
AcDbLayerTableRecord
  2
18_DATUM_CAMS_JOINTS
 70
0
 62
7
  6
CONTINUOUS
370
-3
390
F
  0
LAYER
  5
20C
100
AcDbSymbolTableRecord
100
AcDbLayerTableRecord
  2
19_DATUM_FUNCTIONAL
 70
0
 62
7
  6
CONTINUOUS
370
-3
390
F
  0
LAYER
  5
20D
100
AcDbSymbolTableRecord
100
AcDbLayerTableRecord
  2
20_DATUM_KINEMATIC_SCHEME
 70
0
 62
7
  6
CONTINUOUS
370
-3
390
F
  0
ENDTAB
  0
TABLE
  2
STYLE
  5
3
100
AcDbSymbolTable
 70
1
  0
STYLE
  5
11
100
AcDbSymbolTableRecord
100
AcDbTextStyleTableRecord
  2
STANDARD
 70
0
 40
0.0
 41
1.0
 50
0.0
 71
0
 42
0.2
  3
ARIAL.TTF
  4

  0
STYLE
  5
20E
100
AcDbSymbolTableRecord
100
AcDbTextStyleTableRecord
  2
TEXTSTYLE_1
 70
0
 40
0.0
 41
0.8
 50
0.0
 71
0
 42
0.2
  3
gdt
  4

  0
ENDTAB
  0
TABLE
  2
VIEW
  5
6
100
AcDbSymbolTable
 70
0
  0
ENDTAB
  0
TABLE
  2
UCS
  5
7
100
AcDbSymbolTable
 70
0
  0
ENDTAB
  0
TABLE
  2
APPID
  5
9
100
AcDbSymbolTable
 70
1
  0
APPID
  5
20F
100
AcDbSymbolTableRecord
100
AcDbRegAppTableRecord
  2
ACAD
 70
0
  0
ENDTAB
  0
TABLE
  2
BLOCK_RECORD
  5
1
100
AcDbSymbolTable
 70
0
  0
BLOCK_RECORD
  5
210
100
AcDbSymbolTableRecord
100
AcDbBlockTableRecord
  2
*Model_Space
  0
BLOCK_RECORD
  5
211
100
AcDbSymbolTableRecord
100
AcDbBlockTableRecord
  2
*Paper_Space
  0
BLOCK_RECORD
  5
212
100
AcDbSymbolTableRecord
100
AcDbBlockTableRecord
  2
_FILLED
  0
ENDTAB
  0
TABLE
  2
DIMSTYLE
  5
A
100
AcDbSymbolTable
 70
1
100
AcDbDimStyleTable
 71
0
  0
DIMSTYLE
105
213
100
AcDbSymbolTableRecord
100
AcDbDimStyleTableRecord
  2
STANDARD
 70
0
  3

  4

 40
1.0
 41
1.2318785094
 42
1.0
 43
0.38
 44
1.0
 45
0.0
 46
0.0
 47
0.01
 48
0.01
140
1.7246299131
141
0.09
142
0.0
143
25.4
144
1.0
145
0.0
146
1.0
147
0.625
 71
1
 72
0
 73
0
 74
0
 75
0
 76
0
 77
1
 78
8
 79
2
170
0
171
1
172
0
173
0
174
0
175
0
176
0
177
0
178
0
270
2
179
2
271
2
272
2
273
2
274
2
275
0
280
0
281
0
282
0
283
1
284
8
285
0
286
0
287
3
288
0
340
11
278
46
341
212
342
212
343
212
344
212
  0
ENDTAB
  0
ENDSEC
  0
SECTION
  2
BLOCKS
  0
BLOCK
  5
20
100
AcDbEntity
  8
0
100
AcDbBlockBegin
  2
*Model_Space
 70
0
 10
0.0
 20
0.0
 30
0.0
  3
*Model_Space
  1

  0
ENDBLK
  5
21
100
AcDbEntity
  8
0
100
AcDbBlockEnd
  0
BLOCK
  5
1C
100
AcDbEntity
  8
0
100
AcDbBlockBegin
  2
*Paper_Space
 70
0
 10
0.0
 20
0.0
 30
0.0
  3
*Paper_Space
  1

  0
ENDBLK
  5
1D
100
AcDbEntity
  8
0
100
AcDbBlockEnd
  0
BLOCK
  5
214
100
AcDbEntity
  8
0
100
AcDbBlockBegin
  2
_FILLED
 70
64
 10
0.0
 20
0.0
  3
_FILLED
  1

  0
SOLID
  5
215
100
AcDbEntity
  8
0
  6
BYBLOCK
 62
0
100
AcDbTrace
 10
0.0
 20
0.0
 11
-1.0
 21
0.25
 12
-1.0
 22
-0.25
 13
-1.0
 23
-0.25
  0
ENDBLK
  5
216
100
AcDbEntity
  8
0
  6
BYBLOCK
 62
0
100
AcDbBlockEnd
  0
ENDSEC
  0
SECTION
  2
ENTITIES
  0
LINE
  5
217
100
AcDbEntity
  8
0
100
AcDbLine
 62
7
  6
BYLAYER
 10
13.6675577735
 20
101.0911347806
 11
12.3484940081
 21
99.0783452815
  0
LINE
  5
218
100
AcDbEntity
  8
0
100
AcDbLine
 62
7
  6
BYLAYER
 10
45.5528791983
 20
23.8521129196
 11
20.06464817
 21
23.8521129196
  0
LINE
  5
219
100
AcDbEntity
  8
0
100
AcDbLine
 62
7
  6
BYLAYER
 10
12.3415962194
 20
45.6438688947
 11
13.6614714893
 21
43.630267891
  0
LINE
  5
21A
100
AcDbEntity
  8
0
100
AcDbLine
 62
7
  6
BYLAYER
 10
16.6538945309
 20
43.8134097142
 11
15.3348307655
 21
45.8276746761
  0
LINE
  5
21B
100
AcDbEntity
  8
0
100
AcDbLine
 62
7
  6
BYLAYER
 10
15.3406219571
 20
98.7102726365
 11
16.6540051907
 21
100.7243531656
  0
LINE
  5
21C
100
AcDbEntity
  8
0
100
AcDbLine
 62
7
  6
BYLAYER
 10
20.06464817
 20
26.8526141202
 11
45.557584326
 21
26.8526141202
  0
LINE
  5
21D
100
AcDbEntity
  8
0
100
AcDbLine
 62
7
  6
BYLAYER
 10
12.0640985486
 20
46.789142539
 11
12.0640985486
 21
97.5626945379
  0
LINE
  5
21E
100
AcDbEntity
  8
0
100
AcDbLine
 62
7
  6
BYLAYER
 10
14.0589242878
 20
29.8519349505
 11
14.0589242878
 21
41.868104196
  0
LINE
  5
21F
100
AcDbEntity
  8
0
100
AcDbLine
 62
7
  6
BYLAYER
 10
15.0575175276
 20
97.1944190169
 11
15.0575175276
 21
46.9733001979
  0
LINE
  5
220
100
AcDbEntity
  8
0
100
AcDbLine
 62
7
  6
BYLAYER
 10
14.0648261391
 20
102.8531140427
 11
14.0660065198
 21
122.8523058429
  0
LINE
  5
221
100
AcDbEntity
  8
0
100
AcDbLine
 62
7
  6
BYLAYER
 10
17.0512424332
 20
41.9837343733
 11
17.0512424332
 21
29.9204425338
  0
LINE
  5
222
100
AcDbEntity
  8
0
100
AcDbLine
 62
7
  6
BYLAYER
 10
17.061116248
 20
122.8521290673
 11
17.0617862289
 21
103.0390808584
  0
LINE
  5
223
100
AcDbEntity
  8
0
100
AcDbLine
 62
7
  6
BYLAYER
 10
17.5562342169
 20
122.8521273504
 11
17.556360651
 21
119.8528065254
  0
LINE
  5
224
100
AcDbEntity
  8
0
100
AcDbLine
 62
7
  6
BYLAYER
 10
57.7951763848
 20
57.1831680087
 11
60.2311612185
 21
57.1831680087
  0
LINE
  5
225
100
AcDbEntity
  8
0
100
AcDbLine
 62
7
  6
BYLAYER
 10
90.1161582405
 20
59.9679394892
 11
90.6133430926
 21
59.9679394892
  0
LINE
  5
226
100
AcDbEntity
  8
0
100
AcDbLine
 62
7
  6
BYLAYER
 10
57.7951763848
 20
57.1831680087
 11
53.561116248
 21
57.3581129196
  0
LINE
  5
227
100
AcDbEntity
  8
0
100
AcDbLine
 62
7
  6
BYLAYER
 10
49.061116248
 20
61.4280745071
 11
50.5647149683
 21
61.4280745071
  0
LINE
  5
228
100
AcDbEntity
  8
0
100
AcDbLine
 62
7
  6
BYLAYER
 10
78.6794841332
 20
62.5538060963
 11
60.3665220664
 21
62.5538060963
  0
LINE
  5
229
100
AcDbEntity
  8
0
100
AcDbLine
 62
7
  6
BYLAYER
 10
48.5604462671
 20
116.3853786656
 11
48.5604462671
 21
103.0390808584
  0
LINE
  5
22A
100
AcDbEntity
  8
0
100
AcDbLine
 62
7
  6
BYLAYER
 10
48.561116248
 20
116.9402473725
 11
48.561116248
 21
122.0889275568
  0
LINE
  5
22B
100
AcDbEntity
  8
0
100
AcDbLine
 62
7
  6
BYLAYER
 10
48.5621905773
 20
122.0884277976
 11
48.5621905773
 21
122.8523058429
  0
LINE
  5
22C
100
AcDbEntity
  8
0
100
AcDbLine
 62
7
  6
BYLAYER
 10
48.5709900627
 20
29.9204425338
 11
48.5709900627
 21
41.9837343733
  0
LINE
  5
22D
100
AcDbEntity
  8
0
100
AcDbLine
 62
7
  6
BYLAYER
 10
49.061116248
 20
61.4280745071
 11
49.061116248
 21
80.2761513321
  0
LINE
  5
22E
100
AcDbEntity
  8
0
100
AcDbLine
 62
7
  6
BYLAYER
 10
50.5647149683
 20
46.9733001979
 11
50.5647149683
 21
97.1944190169
  0
LINE
  5
22F
100
AcDbEntity
  8
0
100
AcDbLine
 62
7
  6
BYLAYER
 10
51.5621905773
 20
122.8523058429
 11
51.5633709581
 21
102.8531140427
  0
LINE
  5
230
100
AcDbEntity
  8
0
100
AcDbLine
 62
7
  6
BYLAYER
 10
51.5692728094
 20
41.868104196
 11
51.5692728094
 21
29.8519349505
  0
LINE
  5
231
100
AcDbEntity
  8
0
100
AcDbLine
 62
7
  6
BYLAYER
 10
53.5640985486
 20
97.5626945379
 11
53.5640985486
 21
46.789142539
  0
LINE
  5
232
100
AcDbEntity
  8
0
100
AcDbLine
 62
7
  6
BYLAYER
 10
78.6794841332
 20
79.1504197428
 11
60.3665220664
 21
79.1504197428
  0
LINE
  5
233
100
AcDbEntity
  8
0
100
AcDbLine
 62
7
  6
BYLAYER
 10
50.5647149683
 20
80.2761513321
 11
49.061116248
 21
80.2761513321
  0
LINE
  5
234
100
AcDbEntity
  8
0
100
AcDbLine
 62
7
  6
BYLAYER
 10
90.6133430926
 20
81.7362863499
 11
90.1161582405
 21
81.7362863499
  0
LINE
  5
235
100
AcDbEntity
  8
0
100
AcDbLine
 62
7
  6
BYLAYER
 10
50.2874017304
 20
45.8276746761
 11
48.968337965
 21
43.8134097142
  0
LINE
  5
236
100
AcDbEntity
  8
0
100
AcDbLine
 62
7
  6
BYLAYER
 10
53.561116248
 20
84.3461129196
 11
57.7951763848
 21
84.5210578304
  0
LINE
  5
237
100
AcDbEntity
  8
0
100
AcDbLine
 62
7
  6
BYLAYER
 10
60.2311612185
 20
84.5210578304
 11
57.7951763848
 21
84.5210578304
  0
LINE
  5
238
100
AcDbEntity
  8
0
100
AcDbLine
 62
7
  6
BYLAYER
 10
48.9682273053
 20
100.7243531656
 11
50.2816105388
 21
98.7102726365
  0
LINE
  5
239
100
AcDbEntity
  8
0
100
AcDbLine
 62
7
  6
BYLAYER
 10
51.9667256078
 20
43.630267891
 11
53.2866008778
 21
45.6438688947
  0
LINE
  5
23A
100
AcDbEntity
  8
0
100
AcDbLine
 62
7
  6
BYLAYER
 10
53.2797030891
 20
99.0783452815
 11
51.9606393237
 21
101.0911347805
  0
LINE
  5
23B
100
AcDbEntity
  8
0
100
AcDbLine
 62
7
  6
BYLAYER
 10
90.6123183366
 20
81.7362863499
 11
90.9801194848
 21
81.4626851751
  0
LINE
  5
23C
100
AcDbEntity
  8
0
100
AcDbLine
 62
7
  6
BYLAYER
 10
90.6123183366
 20
59.9679394892
 11
90.9801194848
 21
60.241540664
  0
LINE
  5
23D
100
AcDbEntity
  8
0
100
AcDbLine
 62
7
  6
BYLAYER
 10
90.9801194848
 20
60.241540664
 11
90.9801194848
 21
81.4626851751
  0
LINE
  5
23E
100
AcDbEntity
  8
0
100
AcDbLine
 62
7
  6
BYLAYER
 10
94.281678474
 20
76.0135974564
 11
94.281678474
 21
65.6906283827
  0
LINE
  5
23F
100
AcDbEntity
  8
0
100
AcDbLine
 62
7
  6
BYLAYER
 10
14.0657704228
 20
118.8521129196
 11
17.061116248
 21
118.8521129196
  0
LINE
  5
240
100
AcDbEntity
  8
0
100
AcDbLine
 62
7
  6
BYLAYER
 10
48.561116248
 20
118.8521129196
 11
51.5624266744
 21
118.8521129196
  0
LINE
  5
241
100
AcDbEntity
  8
0
100
AcDbLine
 62
7
  6
BYLAYER
 10
17.556360651
 20
119.8528065254
 11
45.557584326
 21
119.8528065254
  0
LINE
  5
242
100
AcDbEntity
  8
0
100
AcDbLine
 62
7
  6
BYLAYER
 10
51.5621905773
 20
122.8523058429
 11
48.5621905773
 21
122.8523058429
  0
LINE
  5
243
100
AcDbEntity
  8
0
100
AcDbLine
 62
7
  6
BYLAYER
 10
45.5876575224
 20
122.8533089937
 11
17.5562342169
 21
122.8521273504
  0
LINE
  5
244
100
AcDbEntity
  8
0
100
AcDbLine
 62
7
  6
BYLAYER
 10
17.061116248
 20
122.8521290673
 11
14.0660065198
 21
122.8523058429
  0
ARC
  5
245
100
AcDbEntity
  8
0
100
AcDbCircle
 62
7
  6
BYLAYER
 10
45.5582140627
 20
29.8631798167
 40
6.0110692645
100
AcDbArc
 50
270.000199518
 51
359.892817114
  0
ARC
  5
246
100
AcDbEntity
  8
0
100
AcDbCircle
 62
7
  6
BYLAYER
 10
20.0699830344
 20
29.8631798167
 40
6.0110692645
100
AcDbArc
 50
180.107182886
 51
269.999800482
  0
ARC
  5
247
100
AcDbEntity
  8
0
100
AcDbCircle
 62
7
  6
BYLAYER
 10
9.1292735632
 20
41.6821347147
 40
4.9331572967
100
AcDbArc
 50
2.1604402865
 51
23.2601086293
  0
ARC
  5
248
100
AcDbEntity
  8
0
100
AcDbCircle
 62
7
  6
BYLAYER
 10
12.1679035337
 20
41.8812102482
 40
4.8844150115
100
AcDbArc
 50
1.2027297195
 51
23.3024404243
  0
ARC
  5
249
100
AcDbEntity
  8
0
100
AcDbCircle
 62
7
  6
BYLAYER
 10
18.6086114807
 20
47.2265113238
 40
3.56011013
100
AcDbArc
 50
184.0785785001
 51
203.136280847
  0
ARC
  5
24A
100
AcDbEntity
  8
0
100
AcDbCircle
 62
7
  6
BYLAYER
 10
47.0136210153
 20
47.2265113238
 40
3.56011013
100
AcDbArc
 50
336.863719153
 51
355.9214214999
  0
ARC
  5
24B
100
AcDbEntity
  8
0
100
AcDbCircle
 62
7
  6
BYLAYER
 10
15.6109331975
 20
47.0422785614
 40
3.5558562784
100
AcDbArc
 50
184.0822527278
 51
203.1580881343
  0
ARC
  5
24C
100
AcDbEntity
  8
0
100
AcDbCircle
 62
7
  6
BYLAYER
 10
45.5466099996
 20
29.8772822247
 40
3.0246880134
100
AcDbArc
 50
270.2078839067
 51
0.8176008465
  0
ARC
  5
24D
100
AcDbEntity
  8
0
100
AcDbCircle
 62
7
  6
BYLAYER
 10
20.0756224963
 20
29.8772822247
 40
3.0246880134
100
AcDbArc
 50
179.1823991534
 51
269.7921160933
  0
ARC
  5
24E
100
AcDbEntity
  8
0
100
AcDbCircle
 62
7
  6
BYLAYER
 10
45.0175259842
 20
114.4698891789
 40
8.4027839293
100
AcDbArc
 50
65.0570129599
 51
86.1094742845
  0
ARC
  5
24F
100
AcDbEntity
  8
0
100
AcDbCircle
 62
7
  6
BYLAYER
 10
11.7472764012
 20
102.7820447931
 40
5.3207219667
100
AcDbArc
 50
337.2487141464
 51
2.7689505232
  0
ARC
  5
250
100
AcDbEntity
  8
0
100
AcDbCircle
 62
7
  6
BYLAYER
 10
9.1340925734
 20
103.0390571662
 40
4.9342383749
100
AcDbArc
 50
336.7479513148
 51
357.840339566
  0
ARC
  5
251
100
AcDbEntity
  8
0
100
AcDbCircle
 62
7
  6
BYLAYER
 10
18.6275446356
 20
97.3120356964
 40
3.5719640585
100
AcDbArc
 50
156.9553934948
 51
181.8869612311
  0
ARC
  5
252
100
AcDbEntity
  8
0
100
AcDbCircle
 62
7
  6
BYLAYER
 10
46.9946878603
 20
97.3120356964
 40
3.5719640585
100
AcDbArc
 50
358.1130387689
 51
23.0446065052
  0
ARC
  5
253
100
AcDbEntity
  8
0
100
AcDbCircle
 62
7
  6
BYLAYER
 10
15.6187098645
 20
97.6802174298
 40
3.5565535617
100
AcDbArc
 50
156.8516542292
 51
181.8936286463
  0
ARC
  5
254
100
AcDbEntity
  8
0
100
AcDbCircle
 62
7
  6
BYLAYER
 10
45.3781481203
 20
116.662813019
 40
3.1950361379
100
AcDbArc
 50
355.0185661211
 51
86.7805217372
  0
ARC
  5
255
100
AcDbEntity
  8
0
100
AcDbCircle
 62
7
  6
BYLAYER
 10
72.9304079424
 20
23.7999398081
 40
60.4315336883
100
AcDbArc
 50
73.4779800254
 51
89.6956378917
  0
ARC
  5
256
100
AcDbEntity
  8
0
100
AcDbCircle
 62
7
  6
BYLAYER
 10
67.1822210777
 20
37.5616470209
 40
20.8163714187
100
AcDbArc
 50
73.0486728022
 51
109.5069780473
  0
ARC
  5
257
100
AcDbEntity
  8
0
100
AcDbCircle
 62
7
  6
BYLAYER
 10
88.1341510698
 20
65.6906283827
 40
6.1475274042
100
AcDbArc
 50
297.5773209514
 51
360.0
  0
ARC
  5
258
100
AcDbEntity
  8
0
100
AcDbCircle
 62
7
  6
BYLAYER
 10
56.4989235339
 20
41.6821347147
 40
4.9331572967
100
AcDbArc
 50
156.7398913707
 51
177.8395597134
  0
ARC
  5
259
100
AcDbEntity
  8
0
100
AcDbCircle
 62
7
  6
BYLAYER
 10
53.4543289623
 20
41.8812102482
 40
4.8844150115
100
AcDbArc
 50
156.6975595757
 51
178.7972702805
  0
ARC
  5
25A
100
AcDbEntity
  8
0
100
AcDbCircle
 62
7
  6
BYLAYER
 10
50.0172638997
 20
47.0422785614
 40
3.5558562784
100
AcDbArc
 50
336.8419118657
 51
355.9177472722
  0
ARC
  5
25B
100
AcDbEntity
  8
0
100
AcDbCircle
 62
7
  6
BYLAYER
 10
72.9304079424
 20
117.904286031
 40
60.4315336883
100
AcDbArc
 50
270.3043621083
 51
286.5220199746
  0
ARC
  5
25C
100
AcDbEntity
  8
0
100
AcDbCircle
 62
7
  6
BYLAYER
 10
67.1822210777
 20
104.1425788183
 40
20.8163714187
100
AcDbArc
 50
250.4930219566
 51
286.9513271978
  0
ARC
  5
25D
100
AcDbEntity
  8
0
100
AcDbCircle
 62
7
  6
BYLAYER
 10
88.1341510698
 20
76.0135974564
 40
6.1475274042
100
AcDbArc
 50
0.0
 51
62.4226790486
  0
ARC
  5
25E
100
AcDbEntity
  8
0
100
AcDbCircle
 62
7
  6
BYLAYER
 10
53.8749560947
 20
102.7820447931
 40
5.3207219667
100
AcDbArc
 50
177.2310494768
 51
202.7512858536
  0
ARC
  5
25F
100
AcDbEntity
  8
0
100
AcDbCircle
 62
7
  6
BYLAYER
 10
56.4941045237
 20
103.0390571662
 40
4.9342383749
100
AcDbArc
 50
182.159660434
 51
203.2520486852
  0
ARC
  5
260
100
AcDbEntity
  8
0
100
AcDbCircle
 62
7
  6
BYLAYER
 10
50.0094872326
 20
97.6802174298
 40
3.5565535617
100
AcDbArc
 50
358.1063713538
 51
23.1483457708
  0
SPLINE
  5
261
100
AcDbEntity
  8
0
100
AcDbSpline
 62
7
  6
BYLAYER
 70
0
 71
3
 72
23
 73
19
 74
0
 42
0.0000001
 43
0.0000001
 44
0.0000000001
 40
0.0
 40
0.0
 40
0.0
 40
0.0
 40
0.115395842
 40
0.2343906903
 40
0.3566066668
 40
0.4816162845
 40
0.6089562371
 40
0.6733474309
 40
0.7381355107
 40
0.8032559973
 40
0.835922203
 40
0.8686479971
 40
0.9014251883
 40
0.93424283
 40
0.9506728214
 40
0.9671105497
 40
0.9835545587
 40
1.0
 40
1.0
 40
1.0
 40
1.0
 10
78.6794841332
 20
62.5538060963
 30
0.0
 10
78.3165841132
 20
62.816024707
 30
0.0
 10
77.5895237735
 20
63.362641287
 30
0.0
 10
76.5092378461
 20
64.2273523005
 30
0.0
 10
75.4213892236
 20
65.1415804953
 30
0.0
 10
74.3251316969
 20
66.0956963647
 30
0.0
 10
73.406046266
 20
66.9114891084
 30
0.0
 10
72.6604361314
 20
67.5707504931
 30
0.0
 10
72.0921701972
 20
68.0661090288
 30
0.0
 10
71.6099047862
 20
68.4728076035
 30
0.0
 10
71.2137776835
 20
68.7883015953
 30
0.0
 10
70.9089376533
 20
69.0168165951
 30
0.0
 10
70.5933214332
 20
69.2313402683
 30
0.0
 10
70.3166055276
 20
69.3899005004
 30
0.0
 10
70.0835539461
 20
69.4936516709
 30
0.0
 10
69.9021395378
 20
69.555493295
 30
0.0
 10
69.7145983064
 20
69.5960547608
 30
0.0
 10
69.5868094415
 20
69.605551542
 30
0.0
 10
69.5230030998
 20
69.605551542
 30
0.0
  0
SPLINE
  5
262
100
AcDbEntity
  8
0
100
AcDbSpline
 62
7
  6
BYLAYER
 70
0
 71
3
 72
23
 73
19
 74
0
 42
0.0000001
 43
0.0000001
 44
0.0000000001
 40
0.0
 40
0.0
 40
0.0
 40
0.0
 40
0.1153958879
 40
0.2343907537
 40
0.3566067228
 40
0.4816163218
 40
0.6089562527
 40
0.6733474325
 40
0.7381354968
 40
0.8032559645
 40
0.8359221573
 40
0.8686479366
 40
0.9014251256
 40
0.9342427862
 40
0.9506728
 40
0.9671105314
 40
0.9835545345
 40
1.0
 40
1.0
 40
1.0
 40
1.0
 10
78.6794841332
 20
79.1504197428
 30
0.0
 10
78.3165839684
 20
78.8882010276
 30
0.0
 10
77.5895234375
 20
78.3415842898
 30
0.0
 10
76.5092373345
 20
77.476873144
 30
0.0
 10
75.4213887763
 20
76.5626449207
 30
0.0
 10
74.3251313703
 20
75.608529193
 30
0.0
 10
73.4060460866
 20
74.7927365991
 30
0.0
 10
72.6604361615
 20
74.1334752743
 30
0.0
 10
72.0921702533
 20
73.6381169934
 30
0.0
 10
71.6099050675
 20
73.2314184372
 30
0.0
 10
71.2137780841
 20
72.9159245799
 30
0.0
 10
70.9089381103
 20
72.6874097073
 30
0.0
 10
70.5933221328
 20
72.4728856596
 30
0.0
 10
70.3166060211
 20
72.3143254556
 30
0.0
 10
70.083554249
 20
72.2105742986
 30
0.0
 10
69.9021397782
 20
72.1487326234
 30
0.0
 10
69.7145984703
 20
72.1081711236
 30
0.0
 10
69.5868095353
 20
72.0986742972
 30
0.0
 10
69.5230030998
 20
72.0986742972
 30
0.0
  0
SPLINE
  5
263
100
AcDbEntity
  8
0
100
AcDbSpline
 62
7
  6
BYLAYER
 70
0
 71
3
 72
12
 73
8
 74
0
 42
0.0000001
 43
0.0000001
 44
0.0000000001
 40
0.0
 40
0.0
 40
0.0
 40
0.0
 40
0.3343546035
 40
0.6220324081
 40
0.8489018324
 40
0.9348132147
 40
1.0
 40
1.0
 40
1.0
 40
1.0
 10
60.3665220664
 20
62.5538060963
 30
0.0
 10
59.5410588609
 20
62.0788537112
 30
0.0
 10
58.0521737999
 20
61.1123881605
 30
0.0
 10
56.1302999332
 20
59.6431084587
 30
0.0
 10
54.8233346792
 20
58.5392114262
 30
0.0
 10
54.018416369
 20
57.8242590701
 30
0.0
 10
53.6999979996
 20
57.5347079528
 30
0.0
 10
53.5630633075
 20
57.4093152913
 30
0.0
  0
SPLINE
  5
264
100
AcDbEntity
  8
0
100
AcDbSpline
 62
7
  6
BYLAYER
 70
0
 71
3
 72
9
 73
5
 74
0
 42
0.0000001
 43
0.0000001
 44
0.0000000001
 40
0.0
 40
0.0
 40
0.0
 40
0.0
 40
0.4380705439
 40
1.0
 40
1.0
 40
1.0
 40
1.0
 10
84.2168031295
 20
58.5360077908
 30
0.0
 10
83.4596744515
 20
59.1893767597
 30
0.0
 10
81.688711597
 20
60.631735739
 30
0.0
 10
79.7913911178
 20
61.9140406036
 30
0.0
 10
78.6794841332
 20
62.5538060963
 30
0.0
  0
SPLINE
  5
265
100
AcDbEntity
  8
0
100
AcDbSpline
 62
7
  6
BYLAYER
 70
0
 71
3
 72
23
 73
19
 74
0
 42
0.0000001
 43
0.0000001
 44
0.0000000001
 40
0.0
 40
0.0
 40
0.0
 40
0.0
 40
0.1153958879
 40
0.2343907537
 40
0.3566067228
 40
0.4816163218
 40
0.6089562527
 40
0.6733474325
 40
0.7381354968
 40
0.8032559645
 40
0.8359221573
 40
0.8686479366
 40
0.9014251256
 40
0.9342427862
 40
0.9506728
 40
0.9671105314
 40
0.9835545345
 40
1.0
 40
1.0
 40
1.0
 40
1.0
 10
60.3665220664
 20
62.5538060963
 30
0.0
 10
60.7294222313
 20
62.8160248116
 30
0.0
 10
61.4564827621
 20
63.3626415493
 30
0.0
 10
62.5367688652
 20
64.2273526952
 30
0.0
 10
63.6246174234
 20
65.1415809185
 30
0.0
 10
64.7208748294
 20
66.0956966462
 30
0.0
 10
65.6399601131
 20
66.9114892401
 30
0.0
 10
66.3855700381
 20
67.5707505649
 30
0.0
 10
66.9538359463
 20
68.0661088457
 30
0.0
 10
67.4361011321
 20
68.4728074019
 30
0.0
 10
67.8322281155
 20
68.7883012592
 30
0.0
 10
68.1370680893
 20
69.0168161318
 30
0.0
 10
68.4526840668
 20
69.2313401795
 30
0.0
 10
68.7294001785
 20
69.3899003835
 30
0.0
 10
68.9624519506
 20
69.4936515406
 30
0.0
 10
69.1438664215
 20
69.5554932158
 30
0.0
 10
69.3314077294
 20
69.5960547156
 30
0.0
 10
69.4591966643
 20
69.605551542
 30
0.0
 10
69.5230030998
 20
69.605551542
 30
0.0
  0
SPLINE
  5
266
100
AcDbEntity
  8
0
100
AcDbSpline
 62
7
  6
BYLAYER
 70
0
 71
3
 72
23
 73
19
 74
0
 42
0.0000001
 43
0.0000001
 44
0.0000000001
 40
0.0
 40
0.0
 40
0.0
 40
0.0
 40
0.115395842
 40
0.2343906903
 40
0.3566066668
 40
0.4816162845
 40
0.6089562371
 40
0.6733474309
 40
0.7381355107
 40
0.8032559973
 40
0.835922203
 40
0.8686479971
 40
0.9014251883
 40
0.93424283
 40
0.9506728214
 40
0.9671105497
 40
0.9835545587
 40
1.0
 40
1.0
 40
1.0
 40
1.0
 10
60.3665220664
 20
79.1504197428
 30
0.0
 10
60.7294220865
 20
78.8882011322
 30
0.0
 10
61.4564824262
 20
78.3415845522
 30
0.0
 10
62.5367683535
 20
77.4768735386
 30
0.0
 10
63.6246169761
 20
76.5626453438
 30
0.0
 10
64.7208745028
 20
75.6085294745
 30
0.0
 10
65.6399599337
 20
74.7927367308
 30
0.0
 10
66.3855700683
 20
74.1334753461
 30
0.0
 10
66.9538360025
 20
73.6381168104
 30
0.0
 10
67.4361014134
 20
73.2314182357
 30
0.0
 10
67.8322285162
 20
72.9159242439
 30
0.0
 10
68.1370685464
 20
72.687409244
 30
0.0
 10
68.4526847664
 20
72.4728855708
 30
0.0
 10
68.729400672
 20
72.3143253388
 30
0.0
 10
68.9624522536
 20
72.2105741682
 30
0.0
 10
69.1438666619
 20
72.1487325441
 30
0.0
 10
69.3314078932
 20
72.1081710784
 30
0.0
 10
69.4591967582
 20
72.0986742972
 30
0.0
 10
69.5230030998
 20
72.0986742972
 30
0.0
  0
SPLINE
  5
267
100
AcDbEntity
  8
0
100
AcDbSpline
 62
7
  6
BYLAYER
 70
0
 71
3
 72
9
 73
5
 74
0
 42
0.0000001
 43
0.0000001
 44
0.0000000001
 40
0.0
 40
0.0
 40
0.0
 40
0.0
 40
0.37811362
 40
1.0
 40
1.0
 40
1.0
 40
1.0
 10
53.5630652845
 20
84.2949087594
 30
0.0
 10
54.3569478387
 20
83.5679593744
 30
0.0
 10
56.504233373
 20
81.6988881963
 30
0.0
 10
58.8319878304
 20
80.0333551549
 30
0.0
 10
60.3665220664
 20
79.1504197428
 30
0.0
  0
SPLINE
  5
268
100
AcDbEntity
  8
0
100
AcDbSpline
 62
7
  6
BYLAYER
 70
0
 71
3
 72
9
 73
5
 74
0
 42
0.0000001
 43
0.0000001
 44
0.0000000001
 40
0.0
 40
0.0
 40
0.0
 40
0.0
 40
0.5619322505
 40
1.0
 40
1.0
 40
1.0
 40
1.0
 10
78.6794841332
 20
79.1504197428
 30
0.0
 10
79.7913964264
 20
79.79018829
 30
0.0
 10
81.6887387867
 20
81.0724598982
 30
0.0
 10
83.4596863874
 20
82.5148399667
 30
0.0
 10
84.2167976544
 20
83.1682190433
 30
0.0
  0
ENDSEC
  0
SECTION
  2
OBJECTS
  0
DICTIONARY
  5
C
100
AcDbDictionary
280
0
281
1
  3
ACAD_GROUP
350
D
  3
ACAD_MLINESTYLE
350
17
  3
ACAD_LAYOUT
350
1A
  3
ACAD_PLOTSETTINGS
350
19
  3
ACAD_PLOTSTYLENAME
350
E
  0
DICTIONARY
  5
D
102
{ACAD_REACTORS
330
C
102
}
100
AcDbDictionary
280
0
281
1
  0
ACDBDICTIONARYWDFLT
  5
E
102
{ACAD_REACTORS
330
C
102
}
100
AcDbDictionary
281
1
  3
Normal
350
F
100
AcDbDictionaryWithDefault
340
F
  0
DICTIONARY
  5
17
102
{ACAD_REACTORS
330
C
102
}
100
AcDbDictionary
280
0
281
1
  3
Standard
350
18
  0
DICTIONARY
  5
19
102
{ACAD_REACTORS
330
C
102
}
100
AcDbDictionary
281
1
  0
DICTIONARY
  5
1A
102
{ACAD_REACTORS
330
C
102
}
100
AcDbDictionary
281
1
  3
Model
350
269
  3
Layout1
350
26A
  0
ACDBPLACEHOLDER
  5
F
102
{ACAD_REACTORS
330
E
102
}
  0
MLINESTYLE
  5
18
102
{ACAD_REACTORS
330
17
102
}
100
AcDbMlineStyle
  2
STANDARD
 70
0
  3

 62
256
 51
90.0
 52
90.0
 71
2
 49
0.5
 62
256
  6
BYLAYER
 49
-0.5
 62
256
  6
BYLAYER
  0
LAYOUT
  5
269
102
{ACAD_REACTORS
330
1A
102
}
100
AcDbPlotSettings
  1

  2
none_device
  4

  6

 40
0.0
 41
0.0
 42
0.0
 43
0.0
 44
210.0
 45
297.0
 46
0.0
 47
0.0
 48
0.0
 49
0.0
140
0.0
141
0.0
142
1.0
143
1.0
 70
1024
 72
1
 73
0
 74
0
  7

 75
0
147
1.0
148
0.0
149
0.0
100
AcDbLayout
  1
Model
 70
0
 71
0
 10
0.0
 20
0.0
 11
210.0
 21
297.0
 12
0.0
 22
0.0
 32
0.0
 14
0.0
 24
0.0
 34
0.0
 15
0.0
 25
0.0
 35
0.0
146
0.0
 13
0.0
 23
0.0
 33
0.0
 16
1.0
 26
0.0
 36
0.0
 17
0.0
 27
1.0
 37
0.0
 76
0
330
210
345
0
346
0
  0
LAYOUT
  5
26A
102
{ACAD_REACTORS
330
1A
102
}
100
AcDbPlotSettings
  1

  2
none_device
  4

  6

 40
0.0
 41
0.0
 42
0.0
 43
0.0
 44
210.0
 45
297.0
 46
0.0
 47
0.0
 48
0.0
 49
0.0
140
0.0
141
0.0
142
1.0
143
1.0
 70
0
 72
1
 73
0
 74
0
  7

 75
0
147
1.0
148
0.0
149
0.0
100
AcDbLayout
  1
Layout1
 70
0
 71
1
 10
0.0
 20
0.0
 11
210.0
 21
297.0
 12
0.0
 22
0.0
 32
0.0
 14
0.0
 24
0.0
 34
0.0
 15
0.0
 25
0.0
 35
0.0
146
0.0
 13
0.0
 23
0.0
 33
0.0
 16
1.0
 26
0.0
 36
0.0
 17
0.0
 27
1.0
 37
0.0
 76
0
330
211
345
0
346
0
  0
ENDSEC
  0
EOF
