999
DXF file: C:\Users\sesa63760\Dev\_Creo\CAD\MCADID0004832_3D-CAD\drw0001_5.dxf
999
Pro/ENGINEER 2019471 by Parametric Technology Corporation
  0
SECTION
  2
HEADER
  9
$ACADVER
  1
AC1024
  9
$DWGCODEPAGE
  3
ANSI_1252
  9
$EXTMAX
 10
31.0233823324
 20
43.8759264416
 30
0.0
  9
$EXTMIN
 10
0.0
 20
0.0
 30
0.0
  9
$LIMMIN
 10
0.0
 20
0.0
  9
$LIMMAX
 10
31.0233823324
 20
43.8759264416
  9
$VIEWCTR
 10
15.5116911662
 20
21.9379632208
  9
$VIEWSIZE
 40
43.8759264416
  9
$CLAYER
  8
0
  9
$LTSCALE
 40
2.8600603903
  9
$CELTYPE
  6
BYLAYER
  9
$DIMSCALE
 40
1.0
  9
$DIMASZ
 40
0.3693259801
  9
$DIMEXO
 40
1.0
  9
$DIMDLI
 40
1.9760417242
  9
$DIMEXE
 40
1.0
  9
$DIMCEN
 40
0.468009882
  9
$DIMLFAC
 40
1.0
  9
$DIMBLK
  1
_FILLED
  9
$DIMALT
 70
0
  9
$DIMALTF
 40
0.0393700787
  9
$DIMTXT
 40
0.5170563722
  9
$DIMTOL
 70
1
  9
$DIMLIM
 70
0
  9
$DIMTFAC
 40
1.0
  9
$DIMTP
 40
0.01
  9
$DIMTM
 40
0.01
  9
$DIMGAP
 40
0.625
  9
$DIMDSEP
 70
46
  9
$AUNITS
 70
0
  9
$PDMODE
 70
3
  9
$PDSIZE
 40
0.3125
  9
$HANDSEED
  5
269
  9
$TILEMODE
 70
1
  9
$MEASUREMENT
 70
1
  9
$INSUNITS
 70
4
  0
ENDSEC
  0
SECTION
  2
CLASSES
  0
CLASS
  1
ACDBDICTIONARYWDFLT
  2
AcDbDictionaryWithDefault
  3
AutoCAD 2000
 90
0
 91
1
280
0
281
0
  0
CLASS
  1
ACDBPLACEHOLDER
  2
AcDbPlaceHolder
  3
AutoCAD 2000
 90
0
 91
1
280
0
281
0
  0
CLASS
  1
LAYOUT
  2
AcDbLayout
  3
AutoCAD 2000
 90
0
 91
0
280
0
281
0
  0
ENDSEC
  0
SECTION
  2
TABLES
  0
TABLE
  2
VPORT
  5
8
100
AcDbSymbolTable
 70
2
  0
VPORT
  5
1F4
100
AcDbSymbolTableRecord
100
AcDbViewportTableRecord
  2
*ACTIVE
 70
0
 10
0.0
 20
0.0
 11
1.0
 21
1.0
 12
15.5116911662
 22
21.9379632208
 13
0.0
 23
0.0
 14
1.0
 24
1.0
 15
0.0
 25
0.0
 16
0.0
 26
0.0
 36
1.0
 17
0.0
 27
0.0
 37
0.0
 40
43.8759264416
 41
0.7070707071
 42
50.0
 43
0.0
 44
0.0
 50
0.0
 51
0.0
 71
0
 72
100
 73
1
 74
1
 75
0
 76
0
 77
0
 78
0
  0
ENDTAB
  0
TABLE
  2
LTYPE
  5
5
100
AcDbSymbolTable
 70
6
  0
LTYPE
  5
14
100
AcDbSymbolTableRecord
100
AcDbLinetypeTableRecord
  2
BYBLOCK
 70
0
  3

 72
65
 73
0
 40
0.0
  0
LTYPE
  5
15
100
AcDbSymbolTableRecord
100
AcDbLinetypeTableRecord
  2
BYLAYER
 70
0
  3

 72
65
 73
0
 40
0.0
  0
LTYPE
  5
16
100
AcDbSymbolTableRecord
100
AcDbLinetypeTableRecord
  2
CONTINUOUS
 70
64
  3
Solid line
 72
65
 73
0
 40
0.0
  0
LTYPE
  5
1F5
100
AcDbSymbolTableRecord
100
AcDbLinetypeTableRecord
  2
CENTER
 70
64
  3
____ _ ____ _ ____ _ ____ _ ____ _ ____ _ ____
 72
65
 73
4
 40
0.6
 49
0.375
 74
0
 49
-0.075
 74
0
 49
0.075
 74
0
 49
-0.075
 74
0
  0
LTYPE
  5
1F6
100
AcDbSymbolTableRecord
100
AcDbLinetypeTableRecord
  2
HIDDEN
 70
64
  3
- - - - - - - - - - - - - - - - - - - -
 72
65
 73
2
 40
0.2
 49
0.1
 74
0
 49
-0.1
 74
0
  0
LTYPE
  5
1F7
100
AcDbSymbolTableRecord
100
AcDbLinetypeTableRecord
  2
PHANTOM
 70
64
  3
_____ _ _ _____ _ _ _____ _ _ _____
 72
65
 73
6
 40
0.8
 49
0.45
 74
0
 49
-0.05
 74
0
 49
0.1
 74
0
 49
-0.05
 74
0
 49
0.1
 74
0
 49
-0.05
 74
0
  0
LTYPE
  5
1F8
100
AcDbSymbolTableRecord
100
AcDbLinetypeTableRecord
  2
DOT
 70
64
  3
. . . . . . . . . . . . . . . . . . . .
 72
65
 73
2
 40
0.2
 49
0.1
 74
0
 49
-0.1
 74
0
  0
LTYPE
  5
1F9
100
AcDbSymbolTableRecord
100
AcDbLinetypeTableRecord
  2
DASHED
 70
64
  3
- - - - - - - - - - - - - - - - - - - -
 72
65
 73
2
 40
0.2
 49
0.1
 74
0
 49
-0.1
 74
0
  0
ENDTAB
  0
TABLE
  2
LAYER
  5
2
100
AcDbSymbolTable
 70
36
  0
LAYER
  5
10
100
AcDbSymbolTableRecord
100
AcDbLayerTableRecord
  2
0
 70
0
 62
7
  6
CONTINUOUS
370
-3
390
F
  0
LAYER
  5
1FA
100
AcDbSymbolTableRecord
100
AcDbLayerTableRecord
  2
DEFAULT_1
 70
0
 62
7
  6
CENTER
370
-3
390
F
  0
LAYER
  5
1FB
100
AcDbSymbolTableRecord
100
AcDbLayerTableRecord
  2
DEFAULT_2
 70
0
 62
7
  6
HIDDEN
370
-3
390
F
  0
LAYER
  5
1FC
100
AcDbSymbolTableRecord
100
AcDbLayerTableRecord
  2
DEFAULT_3
 70
0
 62
7
  6
PHANTOM
370
-3
390
F
  0
LAYER
  5
1FD
100
AcDbSymbolTableRecord
100
AcDbLayerTableRecord
  2
00_COMPONENTS
 70
0
 62
7
  6
CONTINUOUS
370
-3
390
F
  0
LAYER
  5
1FE
100
AcDbSymbolTableRecord
100
AcDbLayerTableRecord
  2
01_1_DEFAULT_DATUMS
 70
0
 62
7
  6
CONTINUOUS
370
-3
390
F
  0
LAYER
  5
1FF
100
AcDbSymbolTableRecord
100
AcDbLayerTableRecord
  2
01_PLANES
 70
0
 62
7
  6
CONTINUOUS
370
-3
390
F
  0
LAYER
  5
200
100
AcDbSymbolTableRecord
100
AcDbLayerTableRecord
  2
02_COORD_SYS
 70
0
 62
7
  6
CONTINUOUS
370
-3
390
F
  0
LAYER
  5
201
100
AcDbSymbolTableRecord
100
AcDbLayerTableRecord
  2
03_AXES
 70
0
 62
7
  6
CONTINUOUS
370
-3
390
F
  0
LAYER
  5
202
100
AcDbSymbolTableRecord
100
AcDbLayerTableRecord
  2
04_POINTS
 70
0
 62
7
  6
CONTINUOUS
370
-3
390
F
  0
LAYER
  5
203
100
AcDbSymbolTableRecord
100
AcDbLayerTableRecord
  2
05_CURVES
 70
0
 62
7
  6
CONTINUOUS
370
-3
390
F
  0
LAYER
  5
204
100
AcDbSymbolTableRecord
100
AcDbLayerTableRecord
  2
06_SURFS
 70
0
 62
7
  6
CONTINUOUS
370
-3
390
F
  0
LAYER
  5
205
100
AcDbSymbolTableRecord
100
AcDbLayerTableRecord
  2
07_COSMETICS
 70
0
 62
7
  6
CONTINUOUS
370
-3
390
F
  0
LAYER
  5
206
100
AcDbSymbolTableRecord
100
AcDbLayerTableRecord
  2
10_NOTES
 70
0
 62
7
  6
CONTINUOUS
370
-3
390
F
  0
LAYER
  5
207
100
AcDbSymbolTableRecord
100
AcDbLayerTableRecord
  2
11_NOTES_PUB
 70
0
 62
7
  6
CONTINUOUS
370
-3
390
F
  0
LAYER
  5
208
100
AcDbSymbolTableRecord
100
AcDbLayerTableRecord
  2
13_REF_GTOL
 70
0
 62
7
  6
CONTINUOUS
370
-3
390
F
  0
LAYER
  5
209
100
AcDbSymbolTableRecord
100
AcDbLayerTableRecord
  2
16_MISC
 70
0
 62
7
  6
CONTINUOUS
370
-3
390
F
  0
LAYER
  5
20A
100
AcDbSymbolTableRecord
100
AcDbLayerTableRecord
  2
17_NO_PRINT
 70
0
 62
7
  6
CONTINUOUS
370
-3
390
F
  0
LAYER
  5
20B
100
AcDbSymbolTableRecord
100
AcDbLayerTableRecord
  2
18_DATUM_CAMS_JOINTS
 70
0
 62
7
  6
CONTINUOUS
370
-3
390
F
  0
LAYER
  5
20C
100
AcDbSymbolTableRecord
100
AcDbLayerTableRecord
  2
19_DATUM_FUNCTIONAL
 70
0
 62
7
  6
CONTINUOUS
370
-3
390
F
  0
LAYER
  5
20D
100
AcDbSymbolTableRecord
100
AcDbLayerTableRecord
  2
20_DATUM_KINEMATIC_SCHEME
 70
0
 62
7
  6
CONTINUOUS
370
-3
390
F
  0
ENDTAB
  0
TABLE
  2
STYLE
  5
3
100
AcDbSymbolTable
 70
1
  0
STYLE
  5
11
100
AcDbSymbolTableRecord
100
AcDbTextStyleTableRecord
  2
STANDARD
 70
0
 40
0.0
 41
1.0
 50
0.0
 71
0
 42
0.2
  3
ARIAL.TTF
  4

  0
STYLE
  5
20E
100
AcDbSymbolTableRecord
100
AcDbTextStyleTableRecord
  2
TEXTSTYLE_1
 70
0
 40
0.0
 41
0.8
 50
0.0
 71
0
 42
0.2
  3
gdt
  4

  0
ENDTAB
  0
TABLE
  2
VIEW
  5
6
100
AcDbSymbolTable
 70
0
  0
ENDTAB
  0
TABLE
  2
UCS
  5
7
100
AcDbSymbolTable
 70
0
  0
ENDTAB
  0
TABLE
  2
APPID
  5
9
100
AcDbSymbolTable
 70
1
  0
APPID
  5
20F
100
AcDbSymbolTableRecord
100
AcDbRegAppTableRecord
  2
ACAD
 70
0
  0
ENDTAB
  0
TABLE
  2
BLOCK_RECORD
  5
1
100
AcDbSymbolTable
 70
0
  0
BLOCK_RECORD
  5
210
100
AcDbSymbolTableRecord
100
AcDbBlockTableRecord
  2
*Model_Space
  0
BLOCK_RECORD
  5
211
100
AcDbSymbolTableRecord
100
AcDbBlockTableRecord
  2
*Paper_Space
  0
BLOCK_RECORD
  5
212
100
AcDbSymbolTableRecord
100
AcDbBlockTableRecord
  2
_FILLED
  0
ENDTAB
  0
TABLE
  2
DIMSTYLE
  5
A
100
AcDbSymbolTable
 70
1
100
AcDbDimStyleTable
 71
0
  0
DIMSTYLE
105
213
100
AcDbSymbolTableRecord
100
AcDbDimStyleTableRecord
  2
STANDARD
 70
0
  3

  4

 40
1.0
 41
0.3693259801
 42
1.0
 43
0.38
 44
1.0
 45
0.0
 46
0.0
 47
0.01
 48
0.01
140
0.5170563722
141
0.09
142
0.0
143
25.4
144
1.0
145
0.0
146
1.0
147
0.625
 71
1
 72
0
 73
0
 74
0
 75
0
 76
0
 77
1
 78
8
 79
2
170
0
171
1
172
0
173
0
174
0
175
0
176
0
177
0
178
0
270
2
179
2
271
2
272
2
273
2
274
2
275
0
280
0
281
0
282
0
283
1
284
8
285
0
286
0
287
3
288
0
340
11
278
46
341
212
342
212
343
212
344
212
  0
ENDTAB
  0
ENDSEC
  0
SECTION
  2
BLOCKS
  0
BLOCK
  5
20
100
AcDbEntity
  8
0
100
AcDbBlockBegin
  2
*Model_Space
 70
0
 10
0.0
 20
0.0
 30
0.0
  3
*Model_Space
  1

  0
ENDBLK
  5
21
100
AcDbEntity
  8
0
100
AcDbBlockEnd
  0
BLOCK
  5
1C
100
AcDbEntity
  8
0
100
AcDbBlockBegin
  2
*Paper_Space
 70
0
 10
0.0
 20
0.0
 30
0.0
  3
*Paper_Space
  1

  0
ENDBLK
  5
1D
100
AcDbEntity
  8
0
100
AcDbBlockEnd
  0
BLOCK
  5
214
100
AcDbEntity
  8
0
100
AcDbBlockBegin
  2
_FILLED
 70
64
 10
0.0
 20
0.0
  3
_FILLED
  1

  0
SOLID
  5
215
100
AcDbEntity
  8
0
  6
BYBLOCK
 62
0
100
AcDbTrace
 10
0.0
 20
0.0
 11
-1.0
 21
0.25
 12
-1.0
 22
-0.25
 13
-1.0
 23
-0.25
  0
ENDBLK
  5
216
100
AcDbEntity
  8
0
  6
BYBLOCK
 62
0
100
AcDbBlockEnd
  0
ENDSEC
  0
SECTION
  2
ENTITIES
  0
LINE
  5
217
100
AcDbEntity
  8
0
100
AcDbLine
 62
7
  6
BYLAYER
 10
3.616320656
 20
20.5937421748
 11
3.616320656
 21
23.3895916755
  0
LINE
  5
218
100
AcDbEntity
  8
0
100
AcDbLine
 62
7
  6
BYLAYER
 10
3.966320656
 20
20.3916669251
 11
3.966320656
 21
23.5916669251
  0
LINE
  5
219
100
AcDbEntity
  8
0
100
AcDbLine
 62
7
  6
BYLAYER
 10
4.616320656
 20
23.5916669251
 11
4.616320656
 21
20.3916669251
  0
LINE
  5
21A
100
AcDbEntity
  8
0
100
AcDbLine
 62
7
  6
BYLAYER
 10
5.3091409791
 20
19.9916669251
 11
5.3091409791
 21
23.9916669251
  0
LINE
  5
21B
100
AcDbEntity
  8
0
100
AcDbLine
 62
7
  6
BYLAYER
 10
13.816320656
 20
13.9916669251
 11
11.816320656
 21
13.9916669251
  0
LINE
  5
21C
100
AcDbEntity
  8
0
100
AcDbLine
 62
7
  6
BYLAYER
 10
21.666320656
 20
13.9916669251
 11
26.9360788513
 21
13.9916669251
  0
LINE
  5
21D
100
AcDbEntity
  8
0
100
AcDbLine
 62
7
  6
BYLAYER
 10
11.816320656
 20
14.0398674031
 11
13.816320656
 21
14.0398674031
  0
LINE
  5
21E
100
AcDbEntity
  8
0
100
AcDbLine
 62
7
  6
BYLAYER
 10
3.616320656
 20
23.3895943309
 11
3.966320656
 21
23.5916669251
  0
LINE
  5
21F
100
AcDbEntity
  8
0
100
AcDbLine
 62
7
  6
BYLAYER
 10
4.616320656
 20
23.5916669251
 11
5.3091409791
 21
23.9916669251
  0
LINE
  5
220
100
AcDbEntity
  8
0
100
AcDbLine
 62
7
  6
BYLAYER
 10
3.616320656
 20
20.5937395194
 11
3.966320656
 21
20.3916669251
  0
LINE
  5
221
100
AcDbEntity
  8
0
100
AcDbLine
 62
7
  6
BYLAYER
 10
4.616320656
 20
20.3916669251
 11
5.3091409791
 21
19.9916669251
  0
LINE
  5
222
100
AcDbEntity
  8
0
100
AcDbLine
 62
7
  6
BYLAYER
 10
20.2115571795
 20
16.3586422706
 11
14.1050115252
 21
15.4814893189
  0
LINE
  5
223
100
AcDbEntity
  8
0
100
AcDbLine
 62
7
  6
BYLAYER
 10
13.2597750017
 20
15.6156488145
 11
19.366320656
 21
16.3586422706
  0
LINE
  5
224
100
AcDbEntity
  8
0
100
AcDbLine
 62
7
  6
BYLAYER
 10
12.2078420415
 20
15.4400213495
 11
13.8946249331
 21
15.4400213495
  0
LINE
  5
225
100
AcDbEntity
  8
0
100
AcDbLine
 62
7
  6
BYLAYER
 10
14.4112221674
 20
15.4916669251
 11
14.2882180206
 21
15.5078053619
  0
LINE
  5
226
100
AcDbEntity
  8
0
100
AcDbLine
 62
7
  6
BYLAYER
 10
19.366320656
 20
16.4382831302
 11
19.0776297869
 21
16.4234384554
  0
LINE
  5
227
100
AcDbEntity
  8
0
100
AcDbLine
 62
7
  6
BYLAYER
 10
20.2115571795
 20
16.3586422706
 11
19.366320656
 21
16.3586422706
  0
LINE
  5
228
100
AcDbEntity
  8
0
100
AcDbLine
 62
7
  6
BYLAYER
 10
21.366320656
 20
16.4382831302
 11
19.3663206561
 21
16.4382831302
  0
LINE
  5
229
100
AcDbEntity
  8
0
100
AcDbLine
 62
7
  6
BYLAYER
 10
27.804778983
 20
16.9916669251
 11
27.866320656
 21
16.9916669251
  0
LINE
  5
22A
100
AcDbEntity
  8
0
100
AcDbLine
 62
7
  6
BYLAYER
 10
11.816320656
 20
13.9916669251
 11
11.816320656
 21
29.9916669251
  0
LINE
  5
22B
100
AcDbEntity
  8
0
100
AcDbLine
 62
7
  6
BYLAYER
 10
19.366320656
 20
17.518779694
 11
21.366320656
 21
17.518779694
  0
LINE
  5
22C
100
AcDbEntity
  8
0
100
AcDbLine
 62
7
  6
BYLAYER
 10
13.2597750017
 20
15.6156488145
 11
13.2597750017
 21
28.3676850358
  0
LINE
  5
22D
100
AcDbEntity
  8
0
100
AcDbLine
 62
7
  6
BYLAYER
 10
13.816320656
 20
29.9916669251
 11
13.816320656
 21
28.5823559021
  0
LINE
  5
22E
100
AcDbEntity
  8
0
100
AcDbLine
 62
7
  6
BYLAYER
 10
13.816320656
 20
15.4009779482
 11
13.816320656
 21
13.9916669251
  0
LINE
  5
22F
100
AcDbEntity
  8
0
100
AcDbLine
 62
7
  6
BYLAYER
 10
17.866320656
 20
19.9416669251
 11
19.366320656
 21
19.9416669251
  0
LINE
  5
230
100
AcDbEntity
  8
0
100
AcDbLine
 62
7
  6
BYLAYER
 10
5.3091409791
 20
19.9916669251
 11
11.816320656
 21
19.9916669251
  0
LINE
  5
231
100
AcDbEntity
  8
0
100
AcDbLine
 62
7
  6
BYLAYER
 10
14.4112221674
 20
15.4916669251
 11
14.4112221674
 21
15.5254738535
  0
LINE
  5
232
100
AcDbEntity
  8
0
100
AcDbLine
 62
7
  6
BYLAYER
 10
14.4112221674
 20
28.4578599968
 11
14.4112221674
 21
28.4916669251
  0
LINE
  5
233
100
AcDbEntity
  8
0
100
AcDbLine
 62
7
  6
BYLAYER
 10
3.966320656
 20
20.3916669251
 11
4.616320656
 21
20.3916669251
  0
LINE
  5
234
100
AcDbEntity
  8
0
100
AcDbLine
 62
7
  6
BYLAYER
 10
14.4157429153
 20
15.5261232202
 11
14.4112221674
 21
15.4916669251
  0
LINE
  5
235
100
AcDbEntity
  8
0
100
AcDbLine
 62
7
  6
BYLAYER
 10
14.4157429153
 20
28.4572106301
 11
14.4112221674
 21
28.4916669251
  0
LINE
  5
236
100
AcDbEntity
  8
0
100
AcDbLine
 62
7
  6
BYLAYER
 10
21.666320656
 20
26.4916669251
 11
21.366320656
 21
26.1916669251
  0
LINE
  5
237
100
AcDbEntity
  8
0
100
AcDbLine
 62
7
  6
BYLAYER
 10
21.666320656
 20
17.4916669251
 11
21.366320656
 21
17.7916669251
  0
LINE
  5
238
100
AcDbEntity
  8
0
100
AcDbLine
 62
7
  6
BYLAYER
 10
17.866320656
 20
19.9416669251
 11
17.866320656
 21
24.0416669251
  0
LINE
  5
239
100
AcDbEntity
  8
0
100
AcDbLine
 62
7
  6
BYLAYER
 10
3.966320656
 20
23.5916669251
 11
4.616320656
 21
23.5916669251
  0
LINE
  5
23A
100
AcDbEntity
  8
0
100
AcDbLine
 62
7
  6
BYLAYER
 10
5.3091409791
 20
23.9916669251
 11
11.816320656
 21
23.9916669251
  0
LINE
  5
23B
100
AcDbEntity
  8
0
100
AcDbLine
 62
7
  6
BYLAYER
 10
17.866320656
 20
24.0416669251
 11
19.366320656
 21
24.0416669251
  0
LINE
  5
23C
100
AcDbEntity
  8
0
100
AcDbLine
 62
7
  6
BYLAYER
 10
19.0776297869
 20
27.5598953949
 11
19.0776297869
 21
24.0416669251
  0
LINE
  5
23D
100
AcDbEntity
  8
0
100
AcDbLine
 62
7
  6
BYLAYER
 10
19.0776297869
 20
19.9416669251
 11
19.0776297869
 21
16.4234384554
  0
LINE
  5
23E
100
AcDbEntity
  8
0
100
AcDbLine
 62
7
  6
BYLAYER
 10
19.366320656
 20
27.6246915797
 11
19.366320656
 21
27.5450507201
  0
LINE
  5
23F
100
AcDbEntity
  8
0
100
AcDbLine
 62
7
  6
BYLAYER
 10
19.366320656
 20
16.4382831302
 11
19.366320656
 21
16.3586422706
  0
LINE
  5
240
100
AcDbEntity
  8
0
100
AcDbLine
 62
7
  6
BYLAYER
 10
19.366320656
 20
16.4734086232
 11
19.366320656
 21
27.5099252271
  0
LINE
  5
241
100
AcDbEntity
  8
0
100
AcDbLine
 62
7
  6
BYLAYER
 10
21.366320656
 20
26.4645541563
 11
19.366320656
 21
26.4645541563
  0
LINE
  5
242
100
AcDbEntity
  8
0
100
AcDbLine
 62
7
  6
BYLAYER
 10
27.804778983
 20
26.9916669251
 11
27.866320656
 21
26.9916669251
  0
LINE
  5
243
100
AcDbEntity
  8
0
100
AcDbLine
 62
7
  6
BYLAYER
 10
21.366320656
 20
27.5450507201
 11
21.366320656
 21
16.4382831302
  0
LINE
  5
244
100
AcDbEntity
  8
0
100
AcDbLine
 62
7
  6
BYLAYER
 10
21.666320656
 20
13.9917343673
 11
21.666320656
 21
29.991599483
  0
LINE
  5
245
100
AcDbEntity
  8
0
100
AcDbLine
 62
7
  6
BYLAYER
 10
19.3663206561
 20
27.5450507201
 11
21.366320656
 21
27.5450507201
  0
LINE
  5
246
100
AcDbEntity
  8
0
100
AcDbLine
 62
7
  6
BYLAYER
 10
20.2115571795
 20
27.6246915797
 11
19.366320656
 21
27.6246915797
  0
LINE
  5
247
100
AcDbEntity
  8
0
100
AcDbLine
 62
7
  6
BYLAYER
 10
19.3663206561
 20
27.5450507201
 11
19.0776297869
 21
27.5598953949
  0
LINE
  5
248
100
AcDbEntity
  8
0
100
AcDbLine
 62
7
  6
BYLAYER
 10
19.366320656
 20
27.6246915797
 11
13.2597750017
 21
28.3676850358
  0
LINE
  5
249
100
AcDbEntity
  8
0
100
AcDbLine
 62
7
  6
BYLAYER
 10
14.4112221674
 20
28.4916669251
 11
14.2882180206
 21
28.4755284883
  0
LINE
  5
24A
100
AcDbEntity
  8
0
100
AcDbLine
 62
7
  6
BYLAYER
 10
12.2078420415
 20
28.5433125007
 11
13.8946249331
 21
28.5433125007
  0
LINE
  5
24B
100
AcDbEntity
  8
0
100
AcDbLine
 62
7
  6
BYLAYER
 10
14.1050115252
 20
28.5018445314
 11
20.2115571795
 21
27.6246915797
  0
LINE
  5
24C
100
AcDbEntity
  8
0
100
AcDbLine
 62
7
  6
BYLAYER
 10
13.816320656
 20
29.9434664471
 11
11.816320656
 21
29.9434664471
  0
LINE
  5
24D
100
AcDbEntity
  8
0
100
AcDbLine
 62
7
  6
BYLAYER
 10
13.816320656
 20
29.9916669251
 11
11.816320656
 21
29.9916669251
  0
LINE
  5
24E
100
AcDbEntity
  8
0
100
AcDbLine
 62
7
  6
BYLAYER
 10
21.666320656
 20
29.9916669251
 11
26.9360788514
 21
29.9916669251
  0
LINE
  5
24F
100
AcDbEntity
  8
0
100
AcDbLine
 62
7
  6
BYLAYER
 10
27.2261723113
 20
29.7681246627
 11
27.2261542509
 21
29.7679259123
  0
LINE
  5
250
100
AcDbEntity
  8
0
100
AcDbLine
 62
7
  6
BYLAYER
 10
26.9360788514
 20
29.9916669251
 11
26.9360788511
 21
13.9916669251
  0
LINE
  5
251
100
AcDbEntity
  8
0
100
AcDbLine
 62
7
  6
BYLAYER
 10
27.2261542509
 20
29.7679259123
 11
27.2261637775
 21
14.2151768233
  0
LINE
  5
252
100
AcDbEntity
  8
0
100
AcDbLine
 62
7
  6
BYLAYER
 10
27.804778983
 20
16.8916669251
 11
27.804778983
 21
27.0916669251
  0
LINE
  5
253
100
AcDbEntity
  8
0
100
AcDbLine
 62
7
  6
BYLAYER
 10
27.866320656
 20
26.9916669251
 11
28.266320656
 21
22.9916669251
  0
LINE
  5
254
100
AcDbEntity
  8
0
100
AcDbLine
 62
7
  6
BYLAYER
 10
27.866320656
 20
26.9916669251
 11
27.866320656
 21
16.9916669251
  0
LINE
  5
255
100
AcDbEntity
  8
0
100
AcDbLine
 62
7
  6
BYLAYER
 10
28.266320656
 20
22.9916272494
 11
28.266320656
 21
20.9917066009
  0
LINE
  5
256
100
AcDbEntity
  8
0
100
AcDbLine
 62
7
  6
BYLAYER
 10
27.866320656
 20
16.9916669251
 11
28.266320656
 21
20.9916669251
  0
ARC
  5
257
100
AcDbEntity
  8
0
100
AcDbCircle
 62
7
  6
BYLAYER
 10
-2.2658046495
 20
21.9916669251
 40
30.5
100
AcDbArc
 50
345.2283768465
 51
350.3741769911
  0
ARC
  5
258
100
AcDbEntity
  8
0
100
AcDbCircle
 62
7
  6
BYLAYER
 10
-2.2658046495
 20
21.9916669251
 40
30.5
100
AcDbArc
 50
9.6258230089
 51
14.7716230844
  0
ARC
  5
259
100
AcDbEntity
  8
0
100
AcDbCircle
 62
7
  6
BYLAYER
 10
26.9360788514
 20
29.6916669251
 40
0.3
100
AcDbArc
 50
14.7716230844
 51
90.0
  0
ARC
  5
25A
100
AcDbEntity
  8
0
100
AcDbCircle
 62
7
  6
BYLAYER
 10
26.9360788514
 20
14.2916669251
 40
0.3
100
AcDbArc
 50
270.0
 51
345.2283769156
  0
SPLINE
  5
25B
100
AcDbEntity
  8
0
100
AcDbSpline
 62
7
  6
BYLAYER
 70
0
 71
3
 72
25
 73
21
 74
0
 42
0.0000001
 43
0.0000001
 44
0.0000000001
 40
0.0
 40
0.0
 40
0.0
 40
0.0
 40
0.0024008173
 40
0.0041290567
 40
0.0063076104
 40
0.0121277869
 40
0.0199860681
 40
0.0299205843
 40
0.0419450428
 40
0.0560624959
 40
0.0722622827
 40
0.1108256658
 40
0.157457607
 40
0.2119627928
 40
0.2740683202
 40
0.3434427231
 40
0.4197506432
 40
0.591658405
 40
0.7864986345
 40
1.0
 40
1.0
 40
1.0
 40
1.0
 10
21.366320656
 20
16.4382831302
 30
0.0
 10
21.366320656
 20
16.4373543669
 30
0.0
 10
21.3653126097
 20
16.4358505471
 30
0.0
 10
21.3633732593
 20
16.4344242315
 30
0.0
 10
21.3600568734
 20
16.4325935072
 30
0.0
 10
21.3542869047
 20
16.430473457
 30
0.0
 10
21.3454747625
 20
16.4280456031
 30
0.0
 10
21.3341956483
 20
16.4256099881
 30
0.0
 10
21.3204553795
 20
16.4231538076
 30
0.0
 10
21.3042600426
 20
16.420691511
 30
0.0
 10
21.2778426898
 20
16.4171942955
 30
0.0
 10
21.2388453905
 20
16.4129338988
 30
0.0
 10
21.1850228786
 20
16.4080347624
 30
0.0
 10
21.1220621014
 20
16.4031198394
 30
0.0
 10
21.0502815974
 20
16.3981899595
 30
0.0
 10
20.9700496917
 20
16.3932492688
 30
0.0
 10
20.8473807967
 20
16.3863788834
 30
0.0
 10
20.6761892537
 20
16.3779443013
 30
0.0
 10
20.4519315961
 20
16.3681424954
 30
0.0
 10
20.294088944
 20
16.361838667
 30
0.0
 10
20.2115571795
 20
16.3586422706
 30
0.0
  0
SPLINE
  5
25C
100
AcDbEntity
  8
0
100
AcDbSpline
 62
7
  6
BYLAYER
 70
0
 71
3
 72
25
 73
21
 74
0
 42
0.0000001
 43
0.0000001
 44
0.0000000001
 40
0.0
 40
0.0
 40
0.0
 40
0.0
 40
0.2135013629
 40
0.4083415862
 40
0.580249347
 40
0.6565572676
 40
0.7259316718
 40
0.7880372006
 40
0.8425423869
 40
0.8891743295
 40
0.9277377143
 40
0.9439375018
 40
0.9580549552
 40
0.9700794141
 40
0.9800139307
 40
0.9878722124
 40
0.9936923893
 40
0.9958709431
 40
0.9975991826
 40
1.0
 40
1.0
 40
1.0
 40
1.0
 10
20.2115571795
 20
27.6246915797
 30
0.0
 10
20.2940889429
 20
27.6214951833
 30
0.0
 10
20.4519315917
 20
27.6151913551
 30
0.0
 10
20.6761892454
 20
27.6053895494
 30
0.0
 10
20.8473807858
 20
27.5969549675
 30
0.0
 10
20.9700496811
 20
27.590084582
 30
0.0
 10
21.0502815881
 20
27.5851438914
 30
0.0
 10
21.1220620934
 20
27.5802140115
 30
0.0
 10
21.1850228718
 20
27.5752990885
 30
0.0
 10
21.2388453851
 20
27.5703999521
 30
0.0
 10
21.2778426858
 20
27.5661395553
 30
0.0
 10
21.3042600397
 20
27.5626423397
 30
0.0
 10
21.320455377
 20
27.5601800429
 30
0.0
 10
21.3341956463
 20
27.5577238624
 30
0.0
 10
21.345474761
 20
27.5552882473
 30
0.0
 10
21.3542869037
 20
27.5528603933
 30
0.0
 10
21.3600568728
 20
27.5507403431
 30
0.0
 10
21.363373259
 20
27.5489096188
 30
0.0
 10
21.3653126095
 20
27.5474833033
 30
0.0
 10
21.366320656
 20
27.5459794834
 30
0.0
 10
21.366320656
 20
27.5450507201
 30
0.0
  0
SPLINE
  5
25D
100
AcDbEntity
  8
0
100
AcDbSpline
 62
7
  6
BYLAYER
 70
0
 71
3
 72
10
 73
6
 74
0
 42
0.0000001
 43
0.0000001
 44
0.0000000001
 40
0.0
 40
0.0
 40
0.0
 40
0.0
 40
0.5597951141
 40
0.7970910058
 40
1.0
 40
1.0
 40
1.0
 40
1.0
 10
14.1050115252
 20
15.4814830382
 30
0.0
 10
14.0653806739
 20
15.475790406
 30
0.0
 10
14.0090681621
 20
15.4666662552
 30
0.0
 10
13.9390962745
 20
15.4518106219
 30
0.0
 10
13.9085657526
 20
15.4440528842
 30
0.0
 10
13.8946250813
 20
15.4400194572
 30
0.0
  0
SPLINE
  5
25E
100
AcDbEntity
  8
0
100
AcDbSpline
 62
7
  6
BYLAYER
 70
0
 71
3
 72
10
 73
6
 74
0
 42
0.0000001
 43
0.0000001
 44
0.0000000001
 40
0.0
 40
0.0
 40
0.0
 40
0.0
 40
0.2029094368
 40
0.4402053663
 40
1.0
 40
1.0
 40
1.0
 40
1.0
 10
13.8946246629
 20
28.5433092526
 30
0.0
 10
13.908565413
 20
28.539275793
 30
0.0
 10
13.9390956792
 20
28.5315165121
 30
0.0
 10
14.0090677371
 20
28.5166601785
 30
0.0
 10
14.0653805626
 20
28.5075368839
 30
0.0
 10
14.1050115252
 20
28.5018442376
 30
0.0
  0
SPLINE
  5
25F
100
AcDbEntity
  8
0
100
AcDbSpline
 62
7
  6
BYLAYER
 70
0
 71
3
 72
14
 73
10
 74
0
 42
0.0000001
 43
0.0000001
 44
0.0000000001
 40
0.0
 40
0.0
 40
0.0
 40
0.0
 40
0.1150151991
 40
0.2023481386
 40
0.3133086875
 40
0.4486962941
 40
0.6086436155
 40
0.7926857707
 40
1.0
 40
1.0
 40
1.0
 40
1.0
 10
13.816320656
 20
28.582352263
 30
0.0
 10
13.816320656
 20
28.5789003185
 30
0.0
 10
13.8205862988
 20
28.5733926385
 30
0.0
 10
13.8280774089
 20
28.5680431499
 30
0.0
 10
13.8369276203
 20
28.5631679393
 30
0.0
 10
13.8480753566
 20
28.5582633369
 30
0.0
 10
13.8615732109
 20
28.5532409878
 30
0.0
 10
13.8773231499
 20
28.5481659563
 30
0.0
 10
13.8886201919
 20
28.5449405035
 30
0.0
 10
13.8946246629
 20
28.5433092526
 30
0.0
  0
SPLINE
  5
260
100
AcDbEntity
  8
0
100
AcDbSpline
 62
7
  6
BYLAYER
 70
0
 71
3
 72
14
 73
10
 74
0
 42
0.0000001
 43
0.0000001
 44
0.0000000001
 40
0.0
 40
0.0
 40
0.0
 40
0.0
 40
0.2073145186
 40
0.3913559213
 40
0.5513026358
 40
0.686690683
 40
0.7976522353
 40
0.8849856728
 40
1.0
 40
1.0
 40
1.0
 40
1.0
 10
13.8946250813
 20
15.4400194572
 30
0.0
 10
13.8886206042
 20
15.4383882087
 30
0.0
 10
13.8773235258
 20
15.4351629745
 30
0.0
 10
13.8615734258
 20
15.4300885839
 30
0.0
 10
13.8480754352
 20
15.4250666871
 30
0.0
 10
13.8369276647
 20
15.4201620989
 30
0.0
 10
13.8280774689
 20
15.4152867392
 30
0.0
 10
13.8205863796
 20
15.4099372333
 30
0.0
 10
13.816320656
 20
15.4044296191
 30
0.0
 10
13.816320656
 20
15.4009777027
 30
0.0
  0
SPLINE
  5
261
100
AcDbEntity
  8
0
100
AcDbSpline
 62
7
  6
BYLAYER
 70
0
 71
3
 72
12
 73
8
 74
0
 42
0.0000001
 43
0.0000001
 44
0.0000000001
 40
0.0
 40
0.0
 40
0.0
 40
0.0
 40
0.2929055884
 40
0.5605307635
 40
0.7976622359
 40
0.9034500781
 40
1.0
 40
1.0
 40
1.0
 40
1.0
 10
13.2597750017
 20
28.3676850358
 30
0.0
 10
13.1563540628
 20
28.3802684315
 30
0.0
 10
12.9586222075
 20
28.4059234098
 30
0.0
 10
12.6780538796
 20
28.4482404666
 30
0.0
 10
12.4642294585
 20
28.4864461902
 30
0.0
 10
12.3112313592
 20
28.518525909
 30
0.0
 10
12.2411518349
 20
28.5349565989
 30
0.0
 10
12.2078420415
 20
28.5433125007
 30
0.0
  0
SPLINE
  5
262
100
AcDbEntity
  8
0
100
AcDbSpline
 62
7
  6
BYLAYER
 70
0
 71
3
 72
12
 73
8
 74
0
 42
0.0000001
 43
0.0000001
 44
0.0000000001
 40
0.0
 40
0.0
 40
0.0
 40
0.0
 40
0.0965491519
 40
0.202335628
 40
0.4394672286
 40
0.7070944831
 40
1.0
 40
1.0
 40
1.0
 40
1.0
 10
12.2078420415
 20
15.4400213495
 30
0.0
 10
12.2411515688
 20
15.4483771846
 30
0.0
 10
12.311230313
 20
15.4648078604
 30
0.0
 10
12.4642276579
 20
15.4968877107
 30
0.0
 10
12.6780525519
 20
15.5350925198
 30
0.0
 10
12.9586216213
 20
15.5774096093
 30
0.0
 10
13.1563540893
 20
15.603065422
 30
0.0
 10
13.2597750017
 20
15.6156488145
 30
0.0
  0
SPLINE
  5
263
100
AcDbEntity
  8
0
100
AcDbSpline
 62
7
  6
BYLAYER
 70
0
 71
3
 72
16
 73
12
 74
0
 42
0.0000001
 43
0.0000001
 44
0.0000000001
 40
0.0
 40
0.0
 40
0.0
 40
0.0
 40
0.1084576832
 40
0.1484745296
 40
0.1944875484
 40
0.2466998587
 40
0.305218618
 40
0.4413363368
 40
0.602924725
 40
0.7894472603
 40
1.0
 40
1.0
 40
1.0
 40
1.0
 10
11.816320656
 20
15.2643938846
 30
0.0
 10
11.816320656
 20
15.2803144391
 30
0.0
 10
11.8335493915
 20
15.2996468646
 30
0.0
 10
11.8560874038
 20
15.316216639
 30
0.0
 10
11.8734650569
 20
15.3269684327
 30
0.0
 10
11.8937600261
 20
15.3377505146
 30
0.0
 10
11.9265914422
 20
15.3531477764
 30
0.0
 10
11.9752611865
 20
15.3723651658
 30
0.0
 10
12.0426888485
 20
15.3949294491
 30
0.0
 10
12.1214269398
 20
15.4179051532
 30
0.0
 10
12.1778451893
 20
15.4325755508
 30
0.0
 10
12.2078420415
 20
15.4400213495
 30
0.0
  0
SPLINE
  5
264
100
AcDbEntity
  8
0
100
AcDbSpline
 62
7
  6
BYLAYER
 70
0
 71
3
 72
16
 73
12
 74
0
 42
0.0000001
 43
0.0000001
 44
0.0000000001
 40
0.0
 40
0.0
 40
0.0
 40
0.0
 40
0.2105522471
 40
0.3970736829
 40
0.5586606915
 40
0.6947787089
 40
0.7532980322
 40
0.8055109374
 40
0.8515244251
 40
0.8915416015
 40
1.0
 40
1.0
 40
1.0
 40
1.0
 10
12.2078420415
 20
28.5433125007
 30
0.0
 10
12.1778452453
 20
28.5507582856
 30
0.0
 10
12.1214271992
 20
28.5654286453
 30
0.0
 10
12.0426894889
 20
28.5884042391
 30
0.0
 10
11.9752621036
 20
28.6109684363
 30
0.0
 10
11.9265923184
 20
28.6301855694
 30
0.0
 10
11.8937605892
 20
28.6455827067
 30
0.0
 10
11.8734653283
 20
28.656364775
 30
0.0
 10
11.8560874619
 20
28.6671166329
 30
0.0
 10
11.8335492842
 20
28.6836866032
 30
0.0
 10
11.816320656
 20
28.7030192986
 30
0.0
 10
11.816320656
 20
28.7189399657
 30
0.0
  0
ELLIPSE
  5
265
100
AcDbEntity
  8
0
100
AcDbEllipse
 62
7
  6
BYLAYER
 10
18.866320656
 20
16.4734086232
 30
0.0
 11
0.5
 21
0.0
 31
0.0
 40
0.1102719595
 41
-1.1344640138
 42
-0.0
  0
ELLIPSE
  5
266
100
AcDbEntity
  8
0
100
AcDbEllipse
 62
7
  6
BYLAYER
 10
18.866320656
 20
27.5099252271
 30
0.0
 11
0.5
 21
0.0
 31
0.0
 40
0.1102719595
 41
0.0
 42
1.1344640138
  0
ENDSEC
  0
SECTION
  2
OBJECTS
  0
DICTIONARY
  5
C
100
AcDbDictionary
280
0
281
1
  3
ACAD_GROUP
350
D
  3
ACAD_MLINESTYLE
350
17
  3
ACAD_LAYOUT
350
1A
  3
ACAD_PLOTSETTINGS
350
19
  3
ACAD_PLOTSTYLENAME
350
E
  0
DICTIONARY
  5
D
102
{ACAD_REACTORS
330
C
102
}
100
AcDbDictionary
280
0
281
1
  0
ACDBDICTIONARYWDFLT
  5
E
102
{ACAD_REACTORS
330
C
102
}
100
AcDbDictionary
281
1
  3
Normal
350
F
100
AcDbDictionaryWithDefault
340
F
  0
DICTIONARY
  5
17
102
{ACAD_REACTORS
330
C
102
}
100
AcDbDictionary
280
0
281
1
  3
Standard
350
18
  0
DICTIONARY
  5
19
102
{ACAD_REACTORS
330
C
102
}
100
AcDbDictionary
281
1
  0
DICTIONARY
  5
1A
102
{ACAD_REACTORS
330
C
102
}
100
AcDbDictionary
281
1
  3
Model
350
267
  3
Layout1
350
268
  0
ACDBPLACEHOLDER
  5
F
102
{ACAD_REACTORS
330
E
102
}
  0
MLINESTYLE
  5
18
102
{ACAD_REACTORS
330
17
102
}
100
AcDbMlineStyle
  2
STANDARD
 70
0
  3

 62
256
 51
90.0
 52
90.0
 71
2
 49
0.5
 62
256
  6
BYLAYER
 49
-0.5
 62
256
  6
BYLAYER
  0
LAYOUT
  5
267
102
{ACAD_REACTORS
330
1A
102
}
100
AcDbPlotSettings
  1

  2
none_device
  4

  6

 40
0.0
 41
0.0
 42
0.0
 43
0.0
 44
210.0
 45
297.0
 46
0.0
 47
0.0
 48
0.0
 49
0.0
140
0.0
141
0.0
142
1.0
143
1.0
 70
1024
 72
1
 73
0
 74
0
  7

 75
0
147
1.0
148
0.0
149
0.0
100
AcDbLayout
  1
Model
 70
0
 71
0
 10
0.0
 20
0.0
 11
210.0
 21
297.0
 12
0.0
 22
0.0
 32
0.0
 14
0.0
 24
0.0
 34
0.0
 15
0.0
 25
0.0
 35
0.0
146
0.0
 13
0.0
 23
0.0
 33
0.0
 16
1.0
 26
0.0
 36
0.0
 17
0.0
 27
1.0
 37
0.0
 76
0
330
210
345
0
346
0
  0
LAYOUT
  5
268
102
{ACAD_REACTORS
330
1A
102
}
100
AcDbPlotSettings
  1

  2
none_device
  4

  6

 40
0.0
 41
0.0
 42
0.0
 43
0.0
 44
210.0
 45
297.0
 46
0.0
 47
0.0
 48
0.0
 49
0.0
140
0.0
141
0.0
142
1.0
143
1.0
 70
0
 72
1
 73
0
 74
0
  7

 75
0
147
1.0
148
0.0
149
0.0
100
AcDbLayout
  1
Layout1
 70
0
 71
1
 10
0.0
 20
0.0
 11
210.0
 21
297.0
 12
0.0
 22
0.0
 32
0.0
 14
0.0
 24
0.0
 34
0.0
 15
0.0
 25
0.0
 35
0.0
146
0.0
 13
0.0
 23
0.0
 33
0.0
 16
1.0
 26
0.0
 36
0.0
 17
0.0
 27
1.0
 37
0.0
 76
0
330
211
345
0
346
0
  0
ENDSEC
  0
EOF
