999
DXF file: C:\Users\sesa63760\Dev\_Creo\CAD\MCADID0004831_3D-CAD\drw0001_6.dxf
999
Pro/ENGINEER 2019471 by Parametric Technology Corporation
  0
SECTION
  2
HEADER
  9
$ACADVER
  1
AC1024
  9
$DWGCODEPAGE
  3
ANSI_1252
  9
$EXTMAX
 10
26.6085253517
 20
37.6320572831
 30
0.0
  9
$EXTMIN
 10
0.0
 20
0.0
 30
0.0
  9
$LIMMIN
 10
0.0
 20
0.0
  9
$LIMMAX
 10
26.6085253517
 20
37.6320572831
  9
$VIEWCTR
 10
13.3042626759
 20
18.8160286416
  9
$VIEWSIZE
 40
37.6320572831
  9
$CLAYER
  8
0
  9
$LTSCALE
 40
2.4530526229
  9
$CELTYPE
  6
BYLAYER
  9
$DIMSCALE
 40
1.0
  9
$DIMASZ
 40
0.3167681589
  9
$DIMEXO
 40
1.0
  9
$DIMDLI
 40
1.6948363576
  9
$DIMEXE
 40
1.0
  9
$DIMCEN
 40
0.401408611
  9
$DIMLFAC
 40
1.0
  9
$DIMBLK
  1
_FILLED
  9
$DIMALT
 70
0
  9
$DIMALTF
 40
0.0393700787
  9
$DIMTXT
 40
0.4434754225
  9
$DIMTOL
 70
1
  9
$DIMLIM
 70
0
  9
$DIMTFAC
 40
1.0
  9
$DIMTP
 40
0.01
  9
$DIMTM
 40
0.01
  9
$DIMGAP
 40
0.625
  9
$DIMDSEP
 70
46
  9
$AUNITS
 70
0
  9
$PDMODE
 70
3
  9
$PDSIZE
 40
0.3125
  9
$HANDSEED
  5
266
  9
$TILEMODE
 70
1
  9
$MEASUREMENT
 70
1
  9
$INSUNITS
 70
4
  0
ENDSEC
  0
SECTION
  2
CLASSES
  0
CLASS
  1
ACDBDICTIONARYWDFLT
  2
AcDbDictionaryWithDefault
  3
AutoCAD 2000
 90
0
 91
1
280
0
281
0
  0
CLASS
  1
ACDBPLACEHOLDER
  2
AcDbPlaceHolder
  3
AutoCAD 2000
 90
0
 91
1
280
0
281
0
  0
CLASS
  1
LAYOUT
  2
AcDbLayout
  3
AutoCAD 2000
 90
0
 91
0
280
0
281
0
  0
ENDSEC
  0
SECTION
  2
TABLES
  0
TABLE
  2
VPORT
  5
8
100
AcDbSymbolTable
 70
2
  0
VPORT
  5
1F4
100
AcDbSymbolTableRecord
100
AcDbViewportTableRecord
  2
*ACTIVE
 70
0
 10
0.0
 20
0.0
 11
1.0
 21
1.0
 12
13.3042626759
 22
18.8160286416
 13
0.0
 23
0.0
 14
1.0
 24
1.0
 15
0.0
 25
0.0
 16
0.0
 26
0.0
 36
1.0
 17
0.0
 27
0.0
 37
0.0
 40
37.6320572831
 41
0.7070707071
 42
50.0
 43
0.0
 44
0.0
 50
0.0
 51
0.0
 71
0
 72
100
 73
1
 74
1
 75
0
 76
0
 77
0
 78
0
  0
ENDTAB
  0
TABLE
  2
LTYPE
  5
5
100
AcDbSymbolTable
 70
6
  0
LTYPE
  5
14
100
AcDbSymbolTableRecord
100
AcDbLinetypeTableRecord
  2
BYBLOCK
 70
0
  3

 72
65
 73
0
 40
0.0
  0
LTYPE
  5
15
100
AcDbSymbolTableRecord
100
AcDbLinetypeTableRecord
  2
BYLAYER
 70
0
  3

 72
65
 73
0
 40
0.0
  0
LTYPE
  5
16
100
AcDbSymbolTableRecord
100
AcDbLinetypeTableRecord
  2
CONTINUOUS
 70
64
  3
Solid line
 72
65
 73
0
 40
0.0
  0
LTYPE
  5
1F5
100
AcDbSymbolTableRecord
100
AcDbLinetypeTableRecord
  2
CENTER
 70
64
  3
____ _ ____ _ ____ _ ____ _ ____ _ ____ _ ____
 72
65
 73
4
 40
0.6
 49
0.375
 74
0
 49
-0.075
 74
0
 49
0.075
 74
0
 49
-0.075
 74
0
  0
LTYPE
  5
1F6
100
AcDbSymbolTableRecord
100
AcDbLinetypeTableRecord
  2
HIDDEN
 70
64
  3
- - - - - - - - - - - - - - - - - - - -
 72
65
 73
2
 40
0.2
 49
0.1
 74
0
 49
-0.1
 74
0
  0
LTYPE
  5
1F7
100
AcDbSymbolTableRecord
100
AcDbLinetypeTableRecord
  2
PHANTOM
 70
64
  3
_____ _ _ _____ _ _ _____ _ _ _____
 72
65
 73
6
 40
0.8
 49
0.45
 74
0
 49
-0.05
 74
0
 49
0.1
 74
0
 49
-0.05
 74
0
 49
0.1
 74
0
 49
-0.05
 74
0
  0
LTYPE
  5
1F8
100
AcDbSymbolTableRecord
100
AcDbLinetypeTableRecord
  2
DOT
 70
64
  3
. . . . . . . . . . . . . . . . . . . .
 72
65
 73
2
 40
0.2
 49
0.1
 74
0
 49
-0.1
 74
0
  0
LTYPE
  5
1F9
100
AcDbSymbolTableRecord
100
AcDbLinetypeTableRecord
  2
DASHED
 70
64
  3
- - - - - - - - - - - - - - - - - - - -
 72
65
 73
2
 40
0.2
 49
0.1
 74
0
 49
-0.1
 74
0
  0
ENDTAB
  0
TABLE
  2
LAYER
  5
2
100
AcDbSymbolTable
 70
36
  0
LAYER
  5
10
100
AcDbSymbolTableRecord
100
AcDbLayerTableRecord
  2
0
 70
0
 62
7
  6
CONTINUOUS
370
-3
390
F
  0
LAYER
  5
1FA
100
AcDbSymbolTableRecord
100
AcDbLayerTableRecord
  2
DEFAULT_1
 70
0
 62
7
  6
CENTER
370
-3
390
F
  0
LAYER
  5
1FB
100
AcDbSymbolTableRecord
100
AcDbLayerTableRecord
  2
DEFAULT_2
 70
0
 62
7
  6
HIDDEN
370
-3
390
F
  0
LAYER
  5
1FC
100
AcDbSymbolTableRecord
100
AcDbLayerTableRecord
  2
DEFAULT_3
 70
0
 62
7
  6
PHANTOM
370
-3
390
F
  0
LAYER
  5
1FD
100
AcDbSymbolTableRecord
100
AcDbLayerTableRecord
  2
00_COMPONENTS
 70
0
 62
7
  6
CONTINUOUS
370
-3
390
F
  0
LAYER
  5
1FE
100
AcDbSymbolTableRecord
100
AcDbLayerTableRecord
  2
01_1_DEFAULT_DATUMS
 70
0
 62
7
  6
CONTINUOUS
370
-3
390
F
  0
LAYER
  5
1FF
100
AcDbSymbolTableRecord
100
AcDbLayerTableRecord
  2
01_PLANES
 70
0
 62
7
  6
CONTINUOUS
370
-3
390
F
  0
LAYER
  5
200
100
AcDbSymbolTableRecord
100
AcDbLayerTableRecord
  2
02_COORD_SYS
 70
0
 62
7
  6
CONTINUOUS
370
-3
390
F
  0
LAYER
  5
201
100
AcDbSymbolTableRecord
100
AcDbLayerTableRecord
  2
03_AXES
 70
0
 62
7
  6
CONTINUOUS
370
-3
390
F
  0
LAYER
  5
202
100
AcDbSymbolTableRecord
100
AcDbLayerTableRecord
  2
04_POINTS
 70
0
 62
7
  6
CONTINUOUS
370
-3
390
F
  0
LAYER
  5
203
100
AcDbSymbolTableRecord
100
AcDbLayerTableRecord
  2
05_CURVES
 70
0
 62
7
  6
CONTINUOUS
370
-3
390
F
  0
LAYER
  5
204
100
AcDbSymbolTableRecord
100
AcDbLayerTableRecord
  2
06_SURFS
 70
0
 62
7
  6
CONTINUOUS
370
-3
390
F
  0
LAYER
  5
205
100
AcDbSymbolTableRecord
100
AcDbLayerTableRecord
  2
07_COSMETICS
 70
0
 62
7
  6
CONTINUOUS
370
-3
390
F
  0
LAYER
  5
206
100
AcDbSymbolTableRecord
100
AcDbLayerTableRecord
  2
10_NOTES
 70
0
 62
7
  6
CONTINUOUS
370
-3
390
F
  0
LAYER
  5
207
100
AcDbSymbolTableRecord
100
AcDbLayerTableRecord
  2
11_NOTES_PUB
 70
0
 62
7
  6
CONTINUOUS
370
-3
390
F
  0
LAYER
  5
208
100
AcDbSymbolTableRecord
100
AcDbLayerTableRecord
  2
13_REF_GTOL
 70
0
 62
7
  6
CONTINUOUS
370
-3
390
F
  0
LAYER
  5
209
100
AcDbSymbolTableRecord
100
AcDbLayerTableRecord
  2
16_MISC
 70
0
 62
7
  6
CONTINUOUS
370
-3
390
F
  0
LAYER
  5
20A
100
AcDbSymbolTableRecord
100
AcDbLayerTableRecord
  2
17_NO_PRINT
 70
0
 62
7
  6
CONTINUOUS
370
-3
390
F
  0
LAYER
  5
20B
100
AcDbSymbolTableRecord
100
AcDbLayerTableRecord
  2
18_DATUM_CAMS_JOINTS
 70
0
 62
7
  6
CONTINUOUS
370
-3
390
F
  0
LAYER
  5
20C
100
AcDbSymbolTableRecord
100
AcDbLayerTableRecord
  2
19_DATUM_FUNCTIONAL
 70
0
 62
7
  6
CONTINUOUS
370
-3
390
F
  0
LAYER
  5
20D
100
AcDbSymbolTableRecord
100
AcDbLayerTableRecord
  2
20_DATUM_KINEMATIC_SCHEME
 70
0
 62
7
  6
CONTINUOUS
370
-3
390
F
  0
ENDTAB
  0
TABLE
  2
STYLE
  5
3
100
AcDbSymbolTable
 70
1
  0
STYLE
  5
11
100
AcDbSymbolTableRecord
100
AcDbTextStyleTableRecord
  2
STANDARD
 70
0
 40
0.0
 41
1.0
 50
0.0
 71
0
 42
0.2
  3
ARIAL.TTF
  4

  0
STYLE
  5
20E
100
AcDbSymbolTableRecord
100
AcDbTextStyleTableRecord
  2
TEXTSTYLE_1
 70
0
 40
0.0
 41
0.8
 50
0.0
 71
0
 42
0.2
  3
gdt
  4

  0
ENDTAB
  0
TABLE
  2
VIEW
  5
6
100
AcDbSymbolTable
 70
0
  0
ENDTAB
  0
TABLE
  2
UCS
  5
7
100
AcDbSymbolTable
 70
0
  0
ENDTAB
  0
TABLE
  2
APPID
  5
9
100
AcDbSymbolTable
 70
1
  0
APPID
  5
20F
100
AcDbSymbolTableRecord
100
AcDbRegAppTableRecord
  2
ACAD
 70
0
  0
ENDTAB
  0
TABLE
  2
BLOCK_RECORD
  5
1
100
AcDbSymbolTable
 70
0
  0
BLOCK_RECORD
  5
210
100
AcDbSymbolTableRecord
100
AcDbBlockTableRecord
  2
*Model_Space
  0
BLOCK_RECORD
  5
211
100
AcDbSymbolTableRecord
100
AcDbBlockTableRecord
  2
*Paper_Space
  0
BLOCK_RECORD
  5
212
100
AcDbSymbolTableRecord
100
AcDbBlockTableRecord
  2
_FILLED
  0
ENDTAB
  0
TABLE
  2
DIMSTYLE
  5
A
100
AcDbSymbolTable
 70
1
100
AcDbDimStyleTable
 71
0
  0
DIMSTYLE
105
213
100
AcDbSymbolTableRecord
100
AcDbDimStyleTableRecord
  2
STANDARD
 70
0
  3

  4

 40
1.0
 41
0.3167681589
 42
1.0
 43
0.38
 44
1.0
 45
0.0
 46
0.0
 47
0.01
 48
0.01
140
0.4434754225
141
0.09
142
0.0
143
25.4
144
1.0
145
0.0
146
1.0
147
0.625
 71
1
 72
0
 73
0
 74
0
 75
0
 76
0
 77
1
 78
8
 79
2
170
0
171
1
172
0
173
0
174
0
175
0
176
0
177
0
178
0
270
2
179
2
271
2
272
2
273
2
274
2
275
0
280
0
281
0
282
0
283
1
284
8
285
0
286
0
287
3
288
0
340
11
278
46
341
212
342
212
343
212
344
212
  0
ENDTAB
  0
ENDSEC
  0
SECTION
  2
BLOCKS
  0
BLOCK
  5
20
100
AcDbEntity
  8
0
100
AcDbBlockBegin
  2
*Model_Space
 70
0
 10
0.0
 20
0.0
 30
0.0
  3
*Model_Space
  1

  0
ENDBLK
  5
21
100
AcDbEntity
  8
0
100
AcDbBlockEnd
  0
BLOCK
  5
1C
100
AcDbEntity
  8
0
100
AcDbBlockBegin
  2
*Paper_Space
 70
0
 10
0.0
 20
0.0
 30
0.0
  3
*Paper_Space
  1

  0
ENDBLK
  5
1D
100
AcDbEntity
  8
0
100
AcDbBlockEnd
  0
BLOCK
  5
214
100
AcDbEntity
  8
0
100
AcDbBlockBegin
  2
_FILLED
 70
64
 10
0.0
 20
0.0
  3
_FILLED
  1

  0
SOLID
  5
215
100
AcDbEntity
  8
0
  6
BYBLOCK
 62
0
100
AcDbTrace
 10
0.0
 20
0.0
 11
-1.0
 21
0.25
 12
-1.0
 22
-0.25
 13
-1.0
 23
-0.25
  0
ENDBLK
  5
216
100
AcDbEntity
  8
0
  6
BYBLOCK
 62
0
100
AcDbBlockEnd
  0
ENDSEC
  0
SECTION
  2
ENTITIES
  0
LINE
  5
217
100
AcDbEntity
  8
0
100
AcDbLine
 62
7
  6
BYLAYER
 10
3.2495691331
 20
14.6910286416
 11
3.0095690449
 21
17.8160321358
  0
LINE
  5
218
100
AcDbEntity
  8
0
100
AcDbLine
 62
7
  6
BYLAYER
 10
3.0095691332
 20
17.8160672579
 11
3.0095691332
 21
19.8159900252
  0
LINE
  5
219
100
AcDbEntity
  8
0
100
AcDbLine
 62
7
  6
BYLAYER
 10
3.2495691332
 20
14.6910286416
 11
3.2495691332
 21
22.9410286416
  0
LINE
  5
21A
100
AcDbEntity
  8
0
100
AcDbLine
 62
7
  6
BYLAYER
 10
3.2495691331
 20
22.9410286416
 11
3.0095690449
 21
19.8160251473
  0
LINE
  5
21B
100
AcDbEntity
  8
0
100
AcDbLine
 62
7
  6
BYLAYER
 10
3.3003391501
 20
23.0660286416
 11
3.3003391501
 21
14.5660286416
  0
LINE
  5
21C
100
AcDbEntity
  8
0
100
AcDbLine
 62
7
  6
BYLAYER
 10
4.1095691332
 20
9.2910286416
 11
4.1095691332
 21
28.3410286416
  0
LINE
  5
21D
100
AcDbEntity
  8
0
100
AcDbLine
 62
7
  6
BYLAYER
 10
9.6095691332
 20
9.2910286416
 11
4.1095691332
 21
9.2910286416
  0
LINE
  5
21E
100
AcDbEntity
  8
0
100
AcDbLine
 62
7
  6
BYLAYER
 10
13.8595691332
 20
10.8160286416
 11
15.8595691332
 21
10.8160286416
  0
LINE
  5
21F
100
AcDbEntity
  8
0
100
AcDbLine
 62
7
  6
BYLAYER
 10
13.2646676218
 20
12.3160286416
 11
13.8595691332
 21
12.3940811357
  0
LINE
  5
220
100
AcDbEntity
  8
0
100
AcDbLine
 62
7
  6
BYLAYER
 10
10.3335476259
 20
13.1822872752
 11
13.2377907947
 21
12.5208787911
  0
LINE
  5
221
100
AcDbEntity
  8
0
100
AcDbLine
 62
7
  6
BYLAYER
 10
9.8595691332
 20
14.0660286416
 11
9.6095691332
 21
14.0660286416
  0
LINE
  5
222
100
AcDbEntity
  8
0
100
AcDbLine
 62
7
  6
BYLAYER
 10
9.6095691332
 20
28.3409487041
 11
9.6095691332
 21
9.2911085791
  0
LINE
  5
223
100
AcDbEntity
  8
0
100
AcDbLine
 62
7
  6
BYLAYER
 10
9.8595691332
 20
23.5659490812
 11
9.8595691332
 21
20.1611840497
  0
LINE
  5
224
100
AcDbEntity
  8
0
100
AcDbLine
 62
7
  6
BYLAYER
 10
9.8595691332
 20
19.3055244931
 11
9.8595691332
 21
18.8160286416
  0
LINE
  5
225
100
AcDbEntity
  8
0
100
AcDbLine
 62
7
  6
BYLAYER
 10
9.8595691332
 20
17.470873503
 11
9.8595691332
 21
14.0661082019
  0
LINE
  5
226
100
AcDbEntity
  8
0
100
AcDbLine
 62
7
  6
BYLAYER
 10
3.3003391501
 20
14.6910286416
 11
3.2495691332
 21
14.6910286416
  0
LINE
  5
227
100
AcDbEntity
  8
0
100
AcDbLine
 62
7
  6
BYLAYER
 10
12.6595691332
 20
14.8160286416
 11
10.9360937502
 21
14.8160286416
  0
LINE
  5
228
100
AcDbEntity
  8
0
100
AcDbLine
 62
7
  6
BYLAYER
 10
10.9360937502
 20
14.8160286433
 11
10.7595691332
 21
15.0530510974
  0
LINE
  5
229
100
AcDbEntity
  8
0
100
AcDbLine
 62
7
  6
BYLAYER
 10
9.9095691332
 20
24.3969245444
 11
9.9095691332
 21
20.815632312
  0
LINE
  5
22A
100
AcDbEntity
  8
0
100
AcDbLine
 62
7
  6
BYLAYER
 10
9.9095691332
 20
19.3055244931
 11
9.9095691332
 21
18.3265327901
  0
LINE
  5
22B
100
AcDbEntity
  8
0
100
AcDbLine
 62
7
  6
BYLAYER
 10
9.9095691332
 20
16.8164249886
 11
9.9095691332
 21
13.2351327388
  0
LINE
  5
22C
100
AcDbEntity
  8
0
100
AcDbLine
 62
7
  6
BYLAYER
 10
9.9307064424
 20
19.3055244931
 11
9.9307064424
 21
18.3265327901
  0
LINE
  5
22D
100
AcDbEntity
  8
0
100
AcDbLine
 62
7
  6
BYLAYER
 10
10.3335476259
 20
13.1822872752
 11
10.3335476259
 21
15.8356536698
  0
LINE
  5
22E
100
AcDbEntity
  8
0
100
AcDbLine
 62
7
  6
BYLAYER
 10
10.3335476259
 20
21.7964036724
 11
10.3335476259
 21
24.449770008
  0
LINE
  5
22F
100
AcDbEntity
  8
0
100
AcDbLine
 62
7
  6
BYLAYER
 10
10.7595691332
 20
22.5789955041
 11
10.7595691332
 21
22.5308637658
  0
LINE
  5
230
100
AcDbEntity
  8
0
100
AcDbLine
 62
7
  6
BYLAYER
 10
10.7595691332
 20
15.1011935174
 11
10.7595691332
 21
15.0530617992
  0
LINE
  5
231
100
AcDbEntity
  8
0
100
AcDbLine
 62
7
  6
BYLAYER
 10
9.9095691332
 20
15.8410286416
 11
9.8595691332
 21
15.8410286416
  0
LINE
  5
232
100
AcDbEntity
  8
0
100
AcDbLine
 62
7
  6
BYLAYER
 10
10.9360937502
 20
14.8160286433
 11
10.9360937502
 21
22.8160286416
  0
LINE
  5
233
100
AcDbEntity
  8
0
100
AcDbLine
 62
7
  6
BYLAYER
 10
22.3667488101
 20
16.8160286416
 11
15.8595691332
 21
16.8160286416
  0
LINE
  5
234
100
AcDbEntity
  8
0
100
AcDbLine
 62
7
  6
BYLAYER
 10
12.6595691332
 20
22.8159756685
 11
12.6595691332
 21
14.8160816146
  0
LINE
  5
235
100
AcDbEntity
  8
0
100
AcDbLine
 62
7
  6
BYLAYER
 10
12.6595691332
 20
20.7040811357
 11
13.2646676218
 21
25.3160286416
  0
LINE
  5
236
100
AcDbEntity
  8
0
100
AcDbLine
 62
7
  6
BYLAYER
 10
23.7095691332
 20
17.2160286416
 11
23.0595691332
 21
17.2160286416
  0
LINE
  5
237
100
AcDbEntity
  8
0
100
AcDbLine
 62
7
  6
BYLAYER
 10
12.6595691332
 20
16.9279761475
 11
13.2646676218
 21
12.3160286416
  0
LINE
  5
238
100
AcDbEntity
  8
0
100
AcDbLine
 62
7
  6
BYLAYER
 10
13.2646676218
 20
12.3160286416
 11
13.2646676218
 21
25.3160286416
  0
LINE
  5
239
100
AcDbEntity
  8
0
100
AcDbLine
 62
7
  6
BYLAYER
 10
9.9307064424
 20
18.3265327901
 11
9.634219045
 21
18.3265327901
  0
LINE
  5
23A
100
AcDbEntity
  8
0
100
AcDbLine
 62
7
  6
BYLAYER
 10
13.8595691332
 20
10.8160286416
 11
13.8595691332
 21
26.8160286416
  0
LINE
  5
23B
100
AcDbEntity
  8
0
100
AcDbLine
 62
7
  6
BYLAYER
 10
9.634219045
 20
19.3055244931
 11
9.9307064424
 21
19.3055244931
  0
LINE
  5
23C
100
AcDbEntity
  8
0
100
AcDbLine
 62
7
  6
BYLAYER
 10
23.7095691332
 20
20.4160286416
 11
23.0595691332
 21
20.4160286416
  0
LINE
  5
23D
100
AcDbEntity
  8
0
100
AcDbLine
 62
7
  6
BYLAYER
 10
22.3667488101
 20
20.8160286416
 11
15.8595691332
 21
20.8160286416
  0
LINE
  5
23E
100
AcDbEntity
  8
0
100
AcDbLine
 62
7
  6
BYLAYER
 10
15.8595691332
 20
26.8160286416
 11
15.8595691332
 21
10.8160286416
  0
LINE
  5
23F
100
AcDbEntity
  8
0
100
AcDbLine
 62
7
  6
BYLAYER
 10
9.9095691332
 20
21.7910286416
 11
9.8595691332
 21
21.7910286416
  0
LINE
  5
240
100
AcDbEntity
  8
0
100
AcDbLine
 62
7
  6
BYLAYER
 10
12.6595691332
 20
22.8160286416
 11
10.9360937502
 21
22.8160286416
  0
LINE
  5
241
100
AcDbEntity
  8
0
100
AcDbLine
 62
7
  6
BYLAYER
 10
3.3003391501
 20
22.9410286416
 11
3.2495691332
 21
22.9410286416
  0
LINE
  5
242
100
AcDbEntity
  8
0
100
AcDbLine
 62
7
  6
BYLAYER
 10
9.8595691332
 20
23.5660286416
 11
9.6095691332
 21
23.5660286416
  0
LINE
  5
243
100
AcDbEntity
  8
0
100
AcDbLine
 62
7
  6
BYLAYER
 10
23.0595691332
 20
17.2160286416
 11
22.3667488101
 21
16.8160286416
  0
LINE
  5
244
100
AcDbEntity
  8
0
100
AcDbLine
 62
7
  6
BYLAYER
 10
24.0595691332
 20
17.4181012358
 11
23.7095691332
 21
17.2160286416
  0
LINE
  5
245
100
AcDbEntity
  8
0
100
AcDbLine
 62
7
  6
BYLAYER
 10
13.2377907947
 20
25.1111784921
 11
10.3335476259
 21
24.449770008
  0
LINE
  5
246
100
AcDbEntity
  8
0
100
AcDbLine
 62
7
  6
BYLAYER
 10
13.2646676218
 20
25.3160286416
 11
13.8595691332
 21
25.2379761475
  0
LINE
  5
247
100
AcDbEntity
  8
0
100
AcDbLine
 62
7
  6
BYLAYER
 10
23.0595691332
 20
20.4160286416
 11
22.3667488101
 21
20.8160286416
  0
LINE
  5
248
100
AcDbEntity
  8
0
100
AcDbLine
 62
7
  6
BYLAYER
 10
24.0595691332
 20
20.2139560474
 11
23.7095691332
 21
20.4160286416
  0
LINE
  5
249
100
AcDbEntity
  8
0
100
AcDbLine
 62
7
  6
BYLAYER
 10
13.8595691332
 20
26.8160286416
 11
15.8595691332
 21
26.8160286416
  0
LINE
  5
24A
100
AcDbEntity
  8
0
100
AcDbLine
 62
7
  6
BYLAYER
 10
22.3667488101
 20
20.8160286416
 11
22.3667488101
 21
16.8160286416
  0
LINE
  5
24B
100
AcDbEntity
  8
0
100
AcDbLine
 62
7
  6
BYLAYER
 10
23.0595691332
 20
17.2160286416
 11
23.0595691332
 21
20.4160286416
  0
LINE
  5
24C
100
AcDbEntity
  8
0
100
AcDbLine
 62
7
  6
BYLAYER
 10
9.6095691332
 20
28.3410286416
 11
4.1095691332
 21
28.3410286416
  0
LINE
  5
24D
100
AcDbEntity
  8
0
100
AcDbLine
 62
7
  6
BYLAYER
 10
23.7095691332
 20
20.4160286416
 11
23.7095691332
 21
17.2160286416
  0
LINE
  5
24E
100
AcDbEntity
  8
0
100
AcDbLine
 62
7
  6
BYLAYER
 10
24.0595691332
 20
20.213953392
 11
24.0595691332
 21
17.4181038912
  0
ARC
  5
24F
100
AcDbEntity
  8
0
100
AcDbCircle
 62
7
  6
BYLAYER
 10
48.6014152962
 20
18.8160286416
 40
45.5
100
AcDbArc
 50
185.3596165233
 51
192.0837160059
  0
ARC
  5
250
100
AcDbEntity
  8
0
100
AcDbCircle
 62
7
  6
BYLAYER
 10
48.6014152962
 20
18.8160286416
 40
45.5
100
AcDbArc
 50
167.9162839941
 51
174.6403834767
  0
ARC
  5
251
100
AcDbEntity
  8
0
100
AcDbCircle
 62
7
  6
BYLAYER
 10
29.0096317094
 20
5.6412887812
 40
22.9861031742
100
AcDbArc
 50
147.2800449405
 51
147.4246242373
  0
ARC
  5
252
100
AcDbEntity
  8
0
100
AcDbCircle
 62
7
  6
BYLAYER
 10
29.0090098656
 20
31.9903670848
 40
22.9853630298
100
AcDbArc
 50
212.5753677599
 51
212.7200391569
  0
ARC
  5
253
100
AcDbEntity
  8
0
100
AcDbCircle
 62
7
  6
BYLAYER
 10
16.0595691332
 20
18.8160286416
 40
6.5
100
AcDbArc
 50
142.0201275562
 51
144.625409554
  0
ARC
  5
254
100
AcDbEntity
  8
0
100
AcDbCircle
 62
7
  6
BYLAYER
 10
16.0750999509
 20
18.8157971458
 40
6.4848413835
100
AcDbArc
 50
187.0737750318
 51
214.9466515967
  0
ARC
  5
255
100
AcDbEntity
  8
0
100
AcDbCircle
 62
7
  6
BYLAYER
 10
16.0750969058
 20
18.816261643
 40
6.4848380094
100
AcDbArc
 50
145.0533438963
 51
172.9262365641
  0
SPLINE
  5
256
100
AcDbEntity
  8
0
100
AcDbSpline
 62
7
  6
BYLAYER
 70
0
 71
3
 72
21
 73
17
 74
0
 42
0.0000001
 43
0.0000001
 44
0.0000000001
 40
0.0
 40
0.0
 40
0.0
 40
0.0
 40
0.00864906
 40
0.0149509226
 40
0.0229262114
 40
0.0326902206
 40
0.0443025355
 40
0.0731850222
 40
0.1097097703
 40
0.1539125176
 40
0.205761207
 40
0.2651853092
 40
0.4064304038
 40
0.5769088826
 40
0.7753178257
 40
1.0
 40
1.0
 40
1.0
 40
1.0
 10
9.9095691332
 20
13.2351327388
 30
0.0
 10
9.9095691332
 20
13.2338922695
 30
0.0
 10
9.9109652225
 20
13.2318887573
 30
0.0
 10
9.9136027277
 20
13.2300095049
 30
0.0
 10
9.9166619007
 20
13.2283630432
 30
0.0
 10
9.9205445217
 20
13.2267421097
 30
0.0
 10
9.9273634673
 20
13.2243863964
 30
0.0
 10
9.9380498788
 20
13.22155068
 30
0.0
 10
9.9534361013
 20
13.2183092404
 30
0.0
 10
9.9721733616
 20
13.2150561547
 30
0.0
 10
9.9942329537
 20
13.2117892974
 30
0.0
 10
10.0301532563
 20
13.2071524587
 30
0.0
 10
10.0830886014
 20
13.2014997784
 30
0.0
 10
10.1559658094
 20
13.195001846
 30
0.0
 10
10.2408485243
 20
13.1884803022
 30
0.0
 10
10.3013904188
 20
13.1843681842
 30
0.0
 10
10.3335476259
 20
13.1822872752
 30
0.0
  0
SPLINE
  5
257
100
AcDbEntity
  8
0
100
AcDbSpline
 62
7
  6
BYLAYER
 70
0
 71
3
 72
21
 73
17
 74
0
 42
0.0000001
 43
0.0000001
 44
0.0000000001
 40
0.0
 40
0.0
 40
0.0
 40
0.0
 40
0.2246821743
 40
0.4230911174
 40
0.5935695962
 40
0.7348146908
 40
0.794238793
 40
0.8460874824
 40
0.8902902297
 40
0.9268149778
 40
0.9556974645
 40
0.9673097794
 40
0.9770737886
 40
0.9850490774
 40
0.99135094
 40
1.0
 40
1.0
 40
1.0
 40
1.0
 10
10.3335476259
 20
24.449770008
 30
0.0
 10
10.3013904188
 20
24.4476890989
 30
0.0
 10
10.2408485243
 20
24.443576981
 30
0.0
 10
10.1559658094
 20
24.4370554371
 30
0.0
 10
10.0830886014
 20
24.4305575047
 30
0.0
 10
10.0301532563
 20
24.4249048244
 30
0.0
 10
9.9942329537
 20
24.4202679858
 30
0.0
 10
9.9721733616
 20
24.4170011284
 30
0.0
 10
9.9534361013
 20
24.4137480427
 30
0.0
 10
9.9380498788
 20
24.4105066031
 30
0.0
 10
9.9273634673
 20
24.4076708868
 30
0.0
 10
9.9205445217
 20
24.4053151735
 30
0.0
 10
9.9166619007
 20
24.4036942399
 30
0.0
 10
9.9136027277
 20
24.4020477782
 30
0.0
 10
9.9109652225
 20
24.4001685259
 30
0.0
 10
9.9095691332
 20
24.3981650136
 30
0.0
 10
9.9095691332
 20
24.3969245444
 30
0.0
  0
SPLINE
  5
258
100
AcDbEntity
  8
0
100
AcDbSpline
 62
7
  6
BYLAYER
 70
0
 71
3
 72
9
 73
5
 74
0
 42
0.0000001
 43
0.0000001
 44
0.0000000001
 40
0.0
 40
0.0
 40
0.0
 40
0.0
 40
0.27199804
 40
1.0
 40
1.0
 40
1.0
 40
1.0
 10
13.8114755542
 20
12.3874625981
 30
0.0
 10
13.8133963376
 20
12.3868009645
 30
0.0
 10
13.8204345616
 20
12.3843027317
 30
0.0
 10
13.8273815006
 20
12.3815325099
 30
0.0
 10
13.8323284114
 20
12.3792756082
 30
0.0
  0
SPLINE
  5
259
100
AcDbEntity
  8
0
100
AcDbSpline
 62
7
  6
BYLAYER
 70
0
 71
3
 72
9
 73
5
 74
0
 42
0.0000001
 43
0.0000001
 44
0.0000000001
 40
0.0
 40
0.0
 40
0.0
 40
0.0
 40
0.2280018524
 40
1.0
 40
1.0
 40
1.0
 40
1.0
 10
13.832328442
 20
25.2527810303
 30
0.0
 10
13.8307790793
 20
25.2520741727
 30
0.0
 10
13.8239343372
 20
25.2490820885
 30
0.0
 10
13.8169273828
 20
25.2464717786
 30
0.0
 10
13.8114755661
 20
25.2445938095
 30
0.0
  0
SPLINE
  5
25A
100
AcDbEntity
  8
0
100
AcDbSpline
 62
7
  6
BYLAYER
 70
0
 71
3
 72
11
 73
7
 74
0
 42
0.0000001
 43
0.0000001
 44
0.0000000001
 40
0.0
 40
0.0
 40
0.0
 40
0.0
 40
0.1879042247
 40
0.4067009885
 40
0.674235089
 40
1.0
 40
1.0
 40
1.0
 40
1.0
 10
13.8595691332
 20
25.2756415563
 30
0.0
 10
13.8595691332
 20
25.2743816865
 30
0.0
 10
13.8589461986
 20
25.2716409272
 30
0.0
 10
13.8564505289
 20
25.2678028568
 30
0.0
 10
13.8525079604
 20
25.2640051461
 30
0.0
 10
13.8492475555
 20
25.2617053166
 30
0.0
 10
13.84740506
 20
25.2605323024
 30
0.0
  0
SPLINE
  5
25B
100
AcDbEntity
  8
0
100
AcDbSpline
 62
7
  6
BYLAYER
 70
0
 71
3
 72
9
 73
5
 74
0
 42
0.0000001
 43
0.0000001
 44
0.0000000001
 40
0.0
 40
0.0
 40
0.0
 40
0.0
 40
0.2212633705
 40
1.0
 40
1.0
 40
1.0
 40
1.0
 10
13.84740506
 20
25.2605323024
 30
0.0
 10
13.8463496933
 20
25.2598604092
 30
0.0
 10
13.8414932449
 20
25.2569598711
 30
0.0
 10
13.8363710403
 20
25.2545262639
 30
0.0
 10
13.832328442
 20
25.2527810303
 30
0.0
  0
SPLINE
  5
25C
100
AcDbEntity
  8
0
100
AcDbSpline
 62
7
  6
BYLAYER
 70
0
 71
3
 72
10
 73
6
 74
0
 42
0.0000001
 43
0.0000001
 44
0.0000000001
 40
0.0
 40
0.0
 40
0.0
 40
0.0
 40
0.5866203213
 40
0.8136096276
 40
1.0
 40
1.0
 40
1.0
 40
1.0
 10
13.8323284114
 20
12.3792756082
 30
0.0
 10
13.8375148478
 20
12.3770365684
 30
0.0
 10
13.8446173009
 20
12.3736100457
 30
0.0
 10
13.8525052555
 20
12.3680552592
 30
0.0
 10
13.8553941094
 20
12.3652721629
 30
0.0
 10
13.856519554
 20
12.3638739034
 30
0.0
  0
SPLINE
  5
25D
100
AcDbEntity
  8
0
100
AcDbSpline
 62
7
  6
BYLAYER
 70
0
 71
3
 72
9
 73
5
 74
0
 42
0.0000001
 43
0.0000001
 44
0.0000000001
 40
0.0
 40
0.0
 40
0.0
 40
0.0
 40
0.5379595113
 40
1.0
 40
1.0
 40
1.0
 40
1.0
 10
13.856519554
 20
12.3638739034
 30
0.0
 10
13.8574389765
 20
12.362731607
 30
0.0
 10
13.8589481494
 20
12.3604130914
 30
0.0
 10
13.8595691332
 20
12.3576746629
 30
0.0
 10
13.8595691332
 20
12.3564152512
 30
0.0
  0
SPLINE
  5
25E
100
AcDbEntity
  8
0
100
AcDbSpline
 62
7
  6
BYLAYER
 70
0
 71
3
 72
11
 73
7
 74
0
 42
0.0000001
 43
0.0000001
 44
0.0000000001
 40
0.0
 40
0.0
 40
0.0
 40
0.0
 40
0.2455832034
 40
0.4937351837
 40
0.7450475549
 40
1.0
 40
1.0
 40
1.0
 40
1.0
 10
9.6243035519
 20
18.2657479947
 30
0.0
 10
9.643432116
 20
18.1611969406
 30
0.0
 10
9.6906592168
 20
17.9525055722
 30
0.0
 10
9.7872406558
 20
17.64450848
 30
0.0
 10
9.9095107062
 20
17.341409763
 30
0.0
 10
10.0070434434
 20
17.144930375
 30
0.0
 10
10.0597397051
 20
17.0479853316
 30
0.0
  0
SPLINE
  5
25F
100
AcDbEntity
  8
0
100
AcDbSpline
 62
7
  6
BYLAYER
 70
0
 71
3
 72
16
 73
12
 74
0
 42
0.0000001
 43
0.0000001
 44
0.0000000001
 40
0.0
 40
0.0
 40
0.0
 40
0.0
 40
0.0921100076
 40
0.1305897112
 40
0.1760611786
 40
0.2286293388
 40
0.288262667
 40
0.4283468391
 40
0.5953046071
 40
0.7868814552
 40
1.0
 40
1.0
 40
1.0
 40
1.0
 10
9.634219045
 20
18.3265327901
 30
0.0
 10
9.6322825383
 20
18.3265327901
 30
0.0
 10
9.6303412731
 20
18.323447787
 30
0.0
 10
9.629080821
 20
18.3201326681
 30
0.0
 10
9.6282497717
 20
18.3173457719
 30
0.0
 10
9.6275103036
 20
18.3141247738
 30
0.0
 10
9.6265577976
 20
18.3089006778
 30
0.0
 10
9.6256120567
 20
18.3012471533
 30
0.0
 10
9.6248356423
 20
18.2907895029
 30
0.0
 10
9.6243809586
 20
18.2787780151
 30
0.0
 10
9.6242973062
 20
18.2702690684
 30
0.0
 10
9.6243035525
 20
18.2657885011
 30
0.0
  0
SPLINE
  5
260
100
AcDbEntity
  8
0
100
AcDbSpline
 62
7
  6
BYLAYER
 70
0
 71
3
 72
16
 73
12
 74
0
 42
0.0000001
 43
0.0000001
 44
0.0000000001
 40
0.0
 40
0.0
 40
0.0
 40
0.0
 40
0.2131180209
 40
0.4046935405
 40
0.5716504172
 40
0.711737141
 40
0.7713724434
 40
0.82394246
 40
0.8694151032
 40
0.9078945618
 40
1.0
 40
1.0
 40
1.0
 40
1.0
 10
9.6243035567
 20
19.3662687875
 30
0.0
 10
9.6242972536
 20
19.3617882328
 30
0.0
 10
9.6243808403
 20
19.3532793267
 30
0.0
 10
9.6248355421
 20
19.3412679002
 30
0.0
 10
9.6256120955
 20
19.3308102556
 30
0.0
 10
9.6265579533
 20
19.3231566724
 30
0.0
 10
9.6275105109
 20
19.3179324518
 30
0.0
 10
9.628249991
 20
19.3147113505
 30
0.0
 10
9.6290810134
 20
19.3119243871
 30
0.0
 10
9.6303413554
 20
19.3086092996
 30
0.0
 10
9.632282635
 20
19.3055244931
 30
0.0
 10
9.634219045
 20
19.3055244931
 30
0.0
  0
SPLINE
  5
261
100
AcDbEntity
  8
0
100
AcDbSpline
 62
7
  6
BYLAYER
 70
0
 71
3
 72
11
 73
7
 74
0
 42
0.0000001
 43
0.0000001
 44
0.0000000001
 40
0.0
 40
0.0
 40
0.0
 40
0.0
 40
0.2549704709
 40
0.5063037533
 40
0.7544429404
 40
1.0
 40
1.0
 40
1.0
 40
1.0
 10
10.059709372
 20
20.5840676316
 30
0.0
 10
10.0070127112
 20
20.4871198933
 30
0.0
 10
9.9094925527
 20
20.2906266088
 30
0.0
 10
9.7872415163
 20
19.9875254506
 30
0.0
 10
9.6906593501
 20
19.6795535194
 30
0.0
 10
9.6434278006
 20
19.4708905925
 30
0.0
 10
9.6243021242
 20
19.366355646
 30
0.0
  0
SPLINE
  5
262
100
AcDbEntity
  8
0
100
AcDbSpline
 62
7
  6
BYLAYER
 70
0
 71
3
 72
11
 73
7
 74
0
 42
0.0000001
 43
0.0000001
 44
0.0000000001
 40
0.0
 40
0.0
 40
0.0
 40
0.0
 40
0.2570271819
 40
0.508803698
 40
0.7561353454
 40
1.0
 40
1.0
 40
1.0
 40
1.0
 10
10.0597397051
 20
17.0479853316
 30
0.0
 10
10.0105359558
 20
17.1244357254
 30
0.0
 10
9.9189419339
 20
17.2796185357
 30
0.0
 10
9.8020409657
 20
17.5205116662
 30
0.0
 10
9.7076285165
 20
17.7661070254
 30
0.0
 10
9.6596395471
 20
17.9333741252
 30
0.0
 10
9.6396044117
 20
18.0172750267
 30
0.0
  0
SPLINE
  5
263
100
AcDbEntity
  8
0
100
AcDbSpline
 62
7
  6
BYLAYER
 70
0
 71
3
 72
11
 73
7
 74
0
 42
0.0000001
 43
0.0000001
 44
0.0000000001
 40
0.0
 40
0.0
 40
0.0
 40
0.0
 40
0.2438349719
 40
0.4911506273
 40
0.7429502846
 40
1.0
 40
1.0
 40
1.0
 40
1.0
 10
9.6396141543
 20
19.6148559631
 30
0.0
 10
9.6596462748
 20
19.6987390887
 30
0.0
 10
9.7076358464
 20
19.8659736901
 30
0.0
 10
9.8020454648
 20
20.1115365132
 30
0.0
 10
9.9189272459
 20
20.3524240618
 30
0.0
 10
10.010507399
 20
20.5076160065
 30
0.0
 10
10.059709372
 20
20.5840676316
 30
0.0
  0
ENDSEC
  0
SECTION
  2
OBJECTS
  0
DICTIONARY
  5
C
100
AcDbDictionary
280
0
281
1
  3
ACAD_GROUP
350
D
  3
ACAD_MLINESTYLE
350
17
  3
ACAD_LAYOUT
350
1A
  3
ACAD_PLOTSETTINGS
350
19
  3
ACAD_PLOTSTYLENAME
350
E
  0
DICTIONARY
  5
D
102
{ACAD_REACTORS
330
C
102
}
100
AcDbDictionary
280
0
281
1
  0
ACDBDICTIONARYWDFLT
  5
E
102
{ACAD_REACTORS
330
C
102
}
100
AcDbDictionary
281
1
  3
Normal
350
F
100
AcDbDictionaryWithDefault
340
F
  0
DICTIONARY
  5
17
102
{ACAD_REACTORS
330
C
102
}
100
AcDbDictionary
280
0
281
1
  3
Standard
350
18
  0
DICTIONARY
  5
19
102
{ACAD_REACTORS
330
C
102
}
100
AcDbDictionary
281
1
  0
DICTIONARY
  5
1A
102
{ACAD_REACTORS
330
C
102
}
100
AcDbDictionary
281
1
  3
Model
350
264
  3
Layout1
350
265
  0
ACDBPLACEHOLDER
  5
F
102
{ACAD_REACTORS
330
E
102
}
  0
MLINESTYLE
  5
18
102
{ACAD_REACTORS
330
17
102
}
100
AcDbMlineStyle
  2
STANDARD
 70
0
  3

 62
256
 51
90.0
 52
90.0
 71
2
 49
0.5
 62
256
  6
BYLAYER
 49
-0.5
 62
256
  6
BYLAYER
  0
LAYOUT
  5
264
102
{ACAD_REACTORS
330
1A
102
}
100
AcDbPlotSettings
  1

  2
none_device
  4

  6

 40
0.0
 41
0.0
 42
0.0
 43
0.0
 44
210.0
 45
297.0
 46
0.0
 47
0.0
 48
0.0
 49
0.0
140
0.0
141
0.0
142
1.0
143
1.0
 70
1024
 72
1
 73
0
 74
0
  7

 75
0
147
1.0
148
0.0
149
0.0
100
AcDbLayout
  1
Model
 70
0
 71
0
 10
0.0
 20
0.0
 11
210.0
 21
297.0
 12
0.0
 22
0.0
 32
0.0
 14
0.0
 24
0.0
 34
0.0
 15
0.0
 25
0.0
 35
0.0
146
0.0
 13
0.0
 23
0.0
 33
0.0
 16
1.0
 26
0.0
 36
0.0
 17
0.0
 27
1.0
 37
0.0
 76
0
330
210
345
0
346
0
  0
LAYOUT
  5
265
102
{ACAD_REACTORS
330
1A
102
}
100
AcDbPlotSettings
  1

  2
none_device
  4

  6

 40
0.0
 41
0.0
 42
0.0
 43
0.0
 44
210.0
 45
297.0
 46
0.0
 47
0.0
 48
0.0
 49
0.0
140
0.0
141
0.0
142
1.0
143
1.0
 70
0
 72
1
 73
0
 74
0
  7

 75
0
147
1.0
148
0.0
149
0.0
100
AcDbLayout
  1
Layout1
 70
0
 71
1
 10
0.0
 20
0.0
 11
210.0
 21
297.0
 12
0.0
 22
0.0
 32
0.0
 14
0.0
 24
0.0
 34
0.0
 15
0.0
 25
0.0
 35
0.0
146
0.0
 13
0.0
 23
0.0
 33
0.0
 16
1.0
 26
0.0
 36
0.0
 17
0.0
 27
1.0
 37
0.0
 76
0
330
211
345
0
346
0
  0
ENDSEC
  0
EOF
