999
DXF file: C:\Users\sesa63760\Dev\_Creo\CAD\MCADID0004832_3D-CAD\drw0001_6.dxf
999
Pro/ENGINEER 2019471 by Parametric Technology Corporation
  0
SECTION
  2
HEADER
  9
$ACADVER
  1
AC1024
  9
$DWGCODEPAGE
  3
ANSI_1252
  9
$EXTMAX
 10
31.1591520582
 20
44.0679436251
 30
0.0
  9
$EXTMIN
 10
0.0
 20
0.0
 30
0.0
  9
$LIMMIN
 10
0.0
 20
0.0
  9
$LIMMAX
 10
31.1591520582
 20
44.0679436251
  9
$VIEWCTR
 10
15.5795760291
 20
22.0339718126
  9
$VIEWSIZE
 40
44.0679436251
  9
$CLAYER
  8
0
  9
$LTSCALE
 40
2.8725770659
  9
$CELTYPE
  6
BYLAYER
  9
$DIMSCALE
 40
1.0
  9
$DIMASZ
 40
0.3709422864
  9
$DIMEXO
 40
1.0
  9
$DIMDLI
 40
1.9846896092
  9
$DIMEXE
 40
1.0
  9
$DIMCEN
 40
0.4700580653
  9
$DIMLFAC
 40
1.0
  9
$DIMBLK
  1
_FILLED
  9
$DIMALT
 70
0
  9
$DIMALTF
 40
0.0393700787
  9
$DIMTXT
 40
0.519319201
  9
$DIMTOL
 70
1
  9
$DIMLIM
 70
0
  9
$DIMTFAC
 40
1.0
  9
$DIMTP
 40
0.01
  9
$DIMTM
 40
0.01
  9
$DIMGAP
 40
0.625
  9
$DIMDSEP
 70
46
  9
$AUNITS
 70
0
  9
$PDMODE
 70
3
  9
$PDSIZE
 40
0.3125
  9
$HANDSEED
  5
263
  9
$TILEMODE
 70
1
  9
$MEASUREMENT
 70
1
  9
$INSUNITS
 70
4
  0
ENDSEC
  0
SECTION
  2
CLASSES
  0
CLASS
  1
ACDBDICTIONARYWDFLT
  2
AcDbDictionaryWithDefault
  3
AutoCAD 2000
 90
0
 91
1
280
0
281
0
  0
CLASS
  1
ACDBPLACEHOLDER
  2
AcDbPlaceHolder
  3
AutoCAD 2000
 90
0
 91
1
280
0
281
0
  0
CLASS
  1
LAYOUT
  2
AcDbLayout
  3
AutoCAD 2000
 90
0
 91
0
280
0
281
0
  0
ENDSEC
  0
SECTION
  2
TABLES
  0
TABLE
  2
VPORT
  5
8
100
AcDbSymbolTable
 70
2
  0
VPORT
  5
1F4
100
AcDbSymbolTableRecord
100
AcDbViewportTableRecord
  2
*ACTIVE
 70
0
 10
0.0
 20
0.0
 11
1.0
 21
1.0
 12
15.5795760291
 22
22.0339718126
 13
0.0
 23
0.0
 14
1.0
 24
1.0
 15
0.0
 25
0.0
 16
0.0
 26
0.0
 36
1.0
 17
0.0
 27
0.0
 37
0.0
 40
44.0679436251
 41
0.7070707071
 42
50.0
 43
0.0
 44
0.0
 50
0.0
 51
0.0
 71
0
 72
100
 73
1
 74
1
 75
0
 76
0
 77
0
 78
0
  0
ENDTAB
  0
TABLE
  2
LTYPE
  5
5
100
AcDbSymbolTable
 70
6
  0
LTYPE
  5
14
100
AcDbSymbolTableRecord
100
AcDbLinetypeTableRecord
  2
BYBLOCK
 70
0
  3

 72
65
 73
0
 40
0.0
  0
LTYPE
  5
15
100
AcDbSymbolTableRecord
100
AcDbLinetypeTableRecord
  2
BYLAYER
 70
0
  3

 72
65
 73
0
 40
0.0
  0
LTYPE
  5
16
100
AcDbSymbolTableRecord
100
AcDbLinetypeTableRecord
  2
CONTINUOUS
 70
64
  3
Solid line
 72
65
 73
0
 40
0.0
  0
LTYPE
  5
1F5
100
AcDbSymbolTableRecord
100
AcDbLinetypeTableRecord
  2
CENTER
 70
64
  3
____ _ ____ _ ____ _ ____ _ ____ _ ____ _ ____
 72
65
 73
4
 40
0.6
 49
0.375
 74
0
 49
-0.075
 74
0
 49
0.075
 74
0
 49
-0.075
 74
0
  0
LTYPE
  5
1F6
100
AcDbSymbolTableRecord
100
AcDbLinetypeTableRecord
  2
HIDDEN
 70
64
  3
- - - - - - - - - - - - - - - - - - - -
 72
65
 73
2
 40
0.2
 49
0.1
 74
0
 49
-0.1
 74
0
  0
LTYPE
  5
1F7
100
AcDbSymbolTableRecord
100
AcDbLinetypeTableRecord
  2
PHANTOM
 70
64
  3
_____ _ _ _____ _ _ _____ _ _ _____
 72
65
 73
6
 40
0.8
 49
0.45
 74
0
 49
-0.05
 74
0
 49
0.1
 74
0
 49
-0.05
 74
0
 49
0.1
 74
0
 49
-0.05
 74
0
  0
LTYPE
  5
1F8
100
AcDbSymbolTableRecord
100
AcDbLinetypeTableRecord
  2
DOT
 70
64
  3
. . . . . . . . . . . . . . . . . . . .
 72
65
 73
2
 40
0.2
 49
0.1
 74
0
 49
-0.1
 74
0
  0
LTYPE
  5
1F9
100
AcDbSymbolTableRecord
100
AcDbLinetypeTableRecord
  2
DASHED
 70
64
  3
- - - - - - - - - - - - - - - - - - - -
 72
65
 73
2
 40
0.2
 49
0.1
 74
0
 49
-0.1
 74
0
  0
ENDTAB
  0
TABLE
  2
LAYER
  5
2
100
AcDbSymbolTable
 70
36
  0
LAYER
  5
10
100
AcDbSymbolTableRecord
100
AcDbLayerTableRecord
  2
0
 70
0
 62
7
  6
CONTINUOUS
370
-3
390
F
  0
LAYER
  5
1FA
100
AcDbSymbolTableRecord
100
AcDbLayerTableRecord
  2
DEFAULT_1
 70
0
 62
7
  6
CENTER
370
-3
390
F
  0
LAYER
  5
1FB
100
AcDbSymbolTableRecord
100
AcDbLayerTableRecord
  2
DEFAULT_2
 70
0
 62
7
  6
HIDDEN
370
-3
390
F
  0
LAYER
  5
1FC
100
AcDbSymbolTableRecord
100
AcDbLayerTableRecord
  2
DEFAULT_3
 70
0
 62
7
  6
PHANTOM
370
-3
390
F
  0
LAYER
  5
1FD
100
AcDbSymbolTableRecord
100
AcDbLayerTableRecord
  2
00_COMPONENTS
 70
0
 62
7
  6
CONTINUOUS
370
-3
390
F
  0
LAYER
  5
1FE
100
AcDbSymbolTableRecord
100
AcDbLayerTableRecord
  2
01_1_DEFAULT_DATUMS
 70
0
 62
7
  6
CONTINUOUS
370
-3
390
F
  0
LAYER
  5
1FF
100
AcDbSymbolTableRecord
100
AcDbLayerTableRecord
  2
01_PLANES
 70
0
 62
7
  6
CONTINUOUS
370
-3
390
F
  0
LAYER
  5
200
100
AcDbSymbolTableRecord
100
AcDbLayerTableRecord
  2
02_COORD_SYS
 70
0
 62
7
  6
CONTINUOUS
370
-3
390
F
  0
LAYER
  5
201
100
AcDbSymbolTableRecord
100
AcDbLayerTableRecord
  2
03_AXES
 70
0
 62
7
  6
CONTINUOUS
370
-3
390
F
  0
LAYER
  5
202
100
AcDbSymbolTableRecord
100
AcDbLayerTableRecord
  2
04_POINTS
 70
0
 62
7
  6
CONTINUOUS
370
-3
390
F
  0
LAYER
  5
203
100
AcDbSymbolTableRecord
100
AcDbLayerTableRecord
  2
05_CURVES
 70
0
 62
7
  6
CONTINUOUS
370
-3
390
F
  0
LAYER
  5
204
100
AcDbSymbolTableRecord
100
AcDbLayerTableRecord
  2
06_SURFS
 70
0
 62
7
  6
CONTINUOUS
370
-3
390
F
  0
LAYER
  5
205
100
AcDbSymbolTableRecord
100
AcDbLayerTableRecord
  2
07_COSMETICS
 70
0
 62
7
  6
CONTINUOUS
370
-3
390
F
  0
LAYER
  5
206
100
AcDbSymbolTableRecord
100
AcDbLayerTableRecord
  2
10_NOTES
 70
0
 62
7
  6
CONTINUOUS
370
-3
390
F
  0
LAYER
  5
207
100
AcDbSymbolTableRecord
100
AcDbLayerTableRecord
  2
11_NOTES_PUB
 70
0
 62
7
  6
CONTINUOUS
370
-3
390
F
  0
LAYER
  5
208
100
AcDbSymbolTableRecord
100
AcDbLayerTableRecord
  2
13_REF_GTOL
 70
0
 62
7
  6
CONTINUOUS
370
-3
390
F
  0
LAYER
  5
209
100
AcDbSymbolTableRecord
100
AcDbLayerTableRecord
  2
16_MISC
 70
0
 62
7
  6
CONTINUOUS
370
-3
390
F
  0
LAYER
  5
20A
100
AcDbSymbolTableRecord
100
AcDbLayerTableRecord
  2
17_NO_PRINT
 70
0
 62
7
  6
CONTINUOUS
370
-3
390
F
  0
LAYER
  5
20B
100
AcDbSymbolTableRecord
100
AcDbLayerTableRecord
  2
18_DATUM_CAMS_JOINTS
 70
0
 62
7
  6
CONTINUOUS
370
-3
390
F
  0
LAYER
  5
20C
100
AcDbSymbolTableRecord
100
AcDbLayerTableRecord
  2
19_DATUM_FUNCTIONAL
 70
0
 62
7
  6
CONTINUOUS
370
-3
390
F
  0
LAYER
  5
20D
100
AcDbSymbolTableRecord
100
AcDbLayerTableRecord
  2
20_DATUM_KINEMATIC_SCHEME
 70
0
 62
7
  6
CONTINUOUS
370
-3
390
F
  0
ENDTAB
  0
TABLE
  2
STYLE
  5
3
100
AcDbSymbolTable
 70
1
  0
STYLE
  5
11
100
AcDbSymbolTableRecord
100
AcDbTextStyleTableRecord
  2
STANDARD
 70
0
 40
0.0
 41
1.0
 50
0.0
 71
0
 42
0.2
  3
ARIAL.TTF
  4

  0
STYLE
  5
20E
100
AcDbSymbolTableRecord
100
AcDbTextStyleTableRecord
  2
TEXTSTYLE_1
 70
0
 40
0.0
 41
0.8
 50
0.0
 71
0
 42
0.2
  3
gdt
  4

  0
ENDTAB
  0
TABLE
  2
VIEW
  5
6
100
AcDbSymbolTable
 70
0
  0
ENDTAB
  0
TABLE
  2
UCS
  5
7
100
AcDbSymbolTable
 70
0
  0
ENDTAB
  0
TABLE
  2
APPID
  5
9
100
AcDbSymbolTable
 70
1
  0
APPID
  5
20F
100
AcDbSymbolTableRecord
100
AcDbRegAppTableRecord
  2
ACAD
 70
0
  0
ENDTAB
  0
TABLE
  2
BLOCK_RECORD
  5
1
100
AcDbSymbolTable
 70
0
  0
BLOCK_RECORD
  5
210
100
AcDbSymbolTableRecord
100
AcDbBlockTableRecord
  2
*Model_Space
  0
BLOCK_RECORD
  5
211
100
AcDbSymbolTableRecord
100
AcDbBlockTableRecord
  2
*Paper_Space
  0
BLOCK_RECORD
  5
212
100
AcDbSymbolTableRecord
100
AcDbBlockTableRecord
  2
_FILLED
  0
ENDTAB
  0
TABLE
  2
DIMSTYLE
  5
A
100
AcDbSymbolTable
 70
1
100
AcDbDimStyleTable
 71
0
  0
DIMSTYLE
105
213
100
AcDbSymbolTableRecord
100
AcDbDimStyleTableRecord
  2
STANDARD
 70
0
  3

  4

 40
1.0
 41
0.3709422864
 42
1.0
 43
0.38
 44
1.0
 45
0.0
 46
0.0
 47
0.01
 48
0.01
140
0.519319201
141
0.09
142
0.0
143
25.4
144
1.0
145
0.0
146
1.0
147
0.625
 71
1
 72
0
 73
0
 74
0
 75
0
 76
0
 77
1
 78
8
 79
2
170
0
171
1
172
0
173
0
174
0
175
0
176
0
177
0
178
0
270
2
179
2
271
2
272
2
273
2
274
2
275
0
280
0
281
0
282
0
283
1
284
8
285
0
286
0
287
3
288
0
340
11
278
46
341
212
342
212
343
212
344
212
  0
ENDTAB
  0
ENDSEC
  0
SECTION
  2
BLOCKS
  0
BLOCK
  5
20
100
AcDbEntity
  8
0
100
AcDbBlockBegin
  2
*Model_Space
 70
0
 10
0.0
 20
0.0
 30
0.0
  3
*Model_Space
  1

  0
ENDBLK
  5
21
100
AcDbEntity
  8
0
100
AcDbBlockEnd
  0
BLOCK
  5
1C
100
AcDbEntity
  8
0
100
AcDbBlockBegin
  2
*Paper_Space
 70
0
 10
0.0
 20
0.0
 30
0.0
  3
*Paper_Space
  1

  0
ENDBLK
  5
1D
100
AcDbEntity
  8
0
100
AcDbBlockEnd
  0
BLOCK
  5
214
100
AcDbEntity
  8
0
100
AcDbBlockBegin
  2
_FILLED
 70
64
 10
0.0
 20
0.0
  3
_FILLED
  1

  0
SOLID
  5
215
100
AcDbEntity
  8
0
  6
BYBLOCK
 62
0
100
AcDbTrace
 10
0.0
 20
0.0
 11
-1.0
 21
0.25
 12
-1.0
 22
-0.25
 13
-1.0
 23
-0.25
  0
ENDBLK
  5
216
100
AcDbEntity
  8
0
  6
BYBLOCK
 62
0
100
AcDbBlockEnd
  0
ENDSEC
  0
SECTION
  2
ENTITIES
  0
LINE
  5
217
100
AcDbEntity
  8
0
100
AcDbLine
 62
7
  6
BYLAYER
 10
3.9242698314
 20
17.0339718126
 11
3.5242698314
 21
21.0339718126
  0
LINE
  5
218
100
AcDbEntity
  8
0
100
AcDbLine
 62
7
  6
BYLAYER
 10
3.5242698314
 20
21.0340114883
 11
3.5242698314
 21
23.0339321368
  0
LINE
  5
219
100
AcDbEntity
  8
0
100
AcDbLine
 62
7
  6
BYLAYER
 10
3.9242698314
 20
17.0339718126
 11
3.9242698314
 21
27.0339718126
  0
LINE
  5
21A
100
AcDbEntity
  8
0
100
AcDbLine
 62
7
  6
BYLAYER
 10
3.9858115044
 20
27.1339718126
 11
3.9858115044
 21
16.9339718126
  0
LINE
  5
21B
100
AcDbEntity
  8
0
100
AcDbLine
 62
7
  6
BYLAYER
 10
3.9242698314
 20
27.0339718126
 11
3.5242698314
 21
23.0339718126
  0
LINE
  5
21C
100
AcDbEntity
  8
0
100
AcDbLine
 62
7
  6
BYLAYER
 10
4.5644267072
 20
29.8104619039
 11
4.5644267006
 21
14.2577489899
  0
LINE
  5
21D
100
AcDbEntity
  8
0
100
AcDbLine
 62
7
  6
BYLAYER
 10
4.8545116365
 20
14.0342467371
 11
4.854511636
 21
30.0339718126
  0
LINE
  5
21E
100
AcDbEntity
  8
0
100
AcDbLine
 62
7
  6
BYLAYER
 10
10.1242698314
 20
14.0339718126
 11
4.8545116361
 21
14.0339718126
  0
LINE
  5
21F
100
AcDbEntity
  8
0
100
AcDbLine
 62
7
  6
BYLAYER
 10
17.9742698314
 20
14.0339718126
 11
19.9742698314
 21
14.0339718126
  0
LINE
  5
220
100
AcDbEntity
  8
0
100
AcDbLine
 62
7
  6
BYLAYER
 10
17.3793683201
 20
15.5339718126
 11
17.9742698314
 21
15.6120243067
  0
LINE
  5
221
100
AcDbEntity
  8
0
100
AcDbLine
 62
7
  6
BYLAYER
 10
11.5790333079
 20
16.400947158
 11
17.3748475722
 21
15.5684281076
  0
LINE
  5
222
100
AcDbEntity
  8
0
100
AcDbLine
 62
7
  6
BYLAYER
 10
17.5023724668
 20
15.5501102494
 11
17.6855789623
 21
15.5237942063
  0
LINE
  5
223
100
AcDbEntity
  8
0
100
AcDbLine
 62
7
  6
BYLAYER
 10
10.1242698314
 20
30.0339043704
 11
10.1242698314
 21
14.0340392547
  0
LINE
  5
224
100
AcDbEntity
  8
0
100
AcDbLine
 62
7
  6
BYLAYER
 10
10.4242698314
 20
27.5873556075
 11
10.4242698314
 21
16.4805880176
  0
LINE
  5
225
100
AcDbEntity
  8
0
100
AcDbLine
 62
7
  6
BYLAYER
 10
3.9858115044
 20
17.0339718126
 11
3.9242698314
 21
17.0339718126
  0
LINE
  5
226
100
AcDbEntity
  8
0
100
AcDbLine
 62
7
  6
BYLAYER
 10
11.5790333079
 20
16.400947158
 11
11.5790333079
 21
27.6669964671
  0
LINE
  5
227
100
AcDbEntity
  8
0
100
AcDbLine
 62
7
  6
BYLAYER
 10
16.7742698314
 20
18.0339718126
 11
15.0507944484
 21
18.0339718126
  0
LINE
  5
228
100
AcDbEntity
  8
0
100
AcDbLine
 62
7
  6
BYLAYER
 10
15.0507944484
 20
18.0339718143
 11
14.8742698314
 21
18.2709942684
  0
LINE
  5
229
100
AcDbEntity
  8
0
100
AcDbLine
 62
7
  6
BYLAYER
 10
26.4814495084
 20
20.0339718126
 11
19.9742698314
 21
20.0339718126
  0
LINE
  5
22A
100
AcDbEntity
  8
0
100
AcDbLine
 62
7
  6
BYLAYER
 10
14.0454071406
 20
22.5234676641
 11
14.0454071406
 21
21.5444759611
  0
LINE
  5
22B
100
AcDbEntity
  8
0
100
AcDbLine
 62
7
  6
BYLAYER
 10
14.8742698314
 20
25.7969386751
 11
14.8742698314
 21
25.7488069368
  0
LINE
  5
22C
100
AcDbEntity
  8
0
100
AcDbLine
 62
7
  6
BYLAYER
 10
14.8742698314
 20
18.3191366884
 11
14.8742698314
 21
18.2710049702
  0
LINE
  5
22D
100
AcDbEntity
  8
0
100
AcDbLine
 62
7
  6
BYLAYER
 10
10.1242698314
 20
17.5339718126
 11
10.4242698314
 21
17.8339718126
  0
LINE
  5
22E
100
AcDbEntity
  8
0
100
AcDbLine
 62
7
  6
BYLAYER
 10
27.8242698314
 20
20.4339718126
 11
27.1742698314
 21
20.4339718126
  0
LINE
  5
22F
100
AcDbEntity
  8
0
100
AcDbLine
 62
7
  6
BYLAYER
 10
10.1242698314
 20
26.5339718126
 11
10.4242698314
 21
26.2339718126
  0
LINE
  5
230
100
AcDbEntity
  8
0
100
AcDbLine
 62
7
  6
BYLAYER
 10
15.0507944484
 20
18.0339718143
 11
15.0507944484
 21
26.0339718126
  0
LINE
  5
231
100
AcDbEntity
  8
0
100
AcDbLine
 62
7
  6
BYLAYER
 10
14.0454071406
 20
21.5444759611
 11
13.7489197432
 21
21.5444759611
  0
LINE
  5
232
100
AcDbEntity
  8
0
100
AcDbLine
 62
7
  6
BYLAYER
 10
16.7742698314
 20
26.0339188396
 11
16.7742698314
 21
18.0340247856
  0
LINE
  5
233
100
AcDbEntity
  8
0
100
AcDbLine
 62
7
  6
BYLAYER
 10
16.7742698314
 20
23.9220243067
 11
17.3793683201
 21
28.5339718126
  0
LINE
  5
234
100
AcDbEntity
  8
0
100
AcDbLine
 62
7
  6
BYLAYER
 10
13.7489197432
 20
22.5234676641
 11
14.0454071406
 21
22.5234676641
  0
LINE
  5
235
100
AcDbEntity
  8
0
100
AcDbLine
 62
7
  6
BYLAYER
 10
16.7742698314
 20
20.1459193185
 11
17.3793683201
 21
15.5339718126
  0
LINE
  5
236
100
AcDbEntity
  8
0
100
AcDbLine
 62
7
  6
BYLAYER
 10
17.3793683201
 20
15.5339718126
 11
17.3793683201
 21
28.5339718126
  0
LINE
  5
237
100
AcDbEntity
  8
0
100
AcDbLine
 62
7
  6
BYLAYER
 10
17.6855789623
 20
28.5441494188
 11
17.6855789623
 21
28.4937962476
  0
LINE
  5
238
100
AcDbEntity
  8
0
100
AcDbLine
 62
7
  6
BYLAYER
 10
17.6855789623
 20
15.5741473776
 11
17.6855789623
 21
15.5237942063
  0
LINE
  5
239
100
AcDbEntity
  8
0
100
AcDbLine
 62
7
  6
BYLAYER
 10
27.8242698314
 20
23.6339718126
 11
27.1742698314
 21
23.6339718126
  0
LINE
  5
23A
100
AcDbEntity
  8
0
100
AcDbLine
 62
7
  6
BYLAYER
 10
26.4814495084
 20
24.0339718126
 11
19.9742698314
 21
24.0339718126
  0
LINE
  5
23B
100
AcDbEntity
  8
0
100
AcDbLine
 62
7
  6
BYLAYER
 10
17.9742698314
 20
14.0339718126
 11
17.9742698314
 21
30.0339718126
  0
LINE
  5
23C
100
AcDbEntity
  8
0
100
AcDbLine
 62
7
  6
BYLAYER
 10
16.7742698314
 20
26.0339718126
 11
15.0507944484
 21
26.0339718126
  0
LINE
  5
23D
100
AcDbEntity
  8
0
100
AcDbLine
 62
7
  6
BYLAYER
 10
19.9742698314
 20
30.0339718126
 11
19.9742698314
 21
14.0339718126
  0
LINE
  5
23E
100
AcDbEntity
  8
0
100
AcDbLine
 62
7
  6
BYLAYER
 10
3.9858115044
 20
27.0339718126
 11
3.9242698314
 21
27.0339718126
  0
LINE
  5
23F
100
AcDbEntity
  8
0
100
AcDbLine
 62
7
  6
BYLAYER
 10
17.6855789623
 20
28.5441494188
 11
17.5023724668
 21
28.5178333758
  0
LINE
  5
240
100
AcDbEntity
  8
0
100
AcDbLine
 62
7
  6
BYLAYER
 10
17.3748475722
 20
28.4995155175
 11
11.5790333079
 21
27.6669964671
  0
LINE
  5
241
100
AcDbEntity
  8
0
100
AcDbLine
 62
7
  6
BYLAYER
 10
17.3793683201
 20
28.5339718126
 11
17.9742698314
 21
28.4559193185
  0
LINE
  5
242
100
AcDbEntity
  8
0
100
AcDbLine
 62
7
  6
BYLAYER
 10
27.1742698314
 20
20.4339718126
 11
26.4814495084
 21
20.0339718126
  0
LINE
  5
243
100
AcDbEntity
  8
0
100
AcDbLine
 62
7
  6
BYLAYER
 10
28.1742698314
 20
20.6360444068
 11
27.8242698314
 21
20.4339718126
  0
LINE
  5
244
100
AcDbEntity
  8
0
100
AcDbLine
 62
7
  6
BYLAYER
 10
27.1742698314
 20
23.6339718126
 11
26.4814495084
 21
24.0339718126
  0
LINE
  5
245
100
AcDbEntity
  8
0
100
AcDbLine
 62
7
  6
BYLAYER
 10
28.1742698314
 20
23.4318992184
 11
27.8242698314
 21
23.6339718126
  0
LINE
  5
246
100
AcDbEntity
  8
0
100
AcDbLine
 62
7
  6
BYLAYER
 10
10.1242698314
 20
30.0339718126
 11
4.854511636
 21
30.0339718126
  0
LINE
  5
247
100
AcDbEntity
  8
0
100
AcDbLine
 62
7
  6
BYLAYER
 10
17.9742698314
 20
30.0339718126
 11
19.9742698314
 21
30.0339718126
  0
LINE
  5
248
100
AcDbEntity
  8
0
100
AcDbLine
 62
7
  6
BYLAYER
 10
26.4814495084
 20
24.0339718126
 11
26.4814495084
 21
20.0339718126
  0
LINE
  5
249
100
AcDbEntity
  8
0
100
AcDbLine
 62
7
  6
BYLAYER
 10
27.1742698314
 20
20.4339718126
 11
27.1742698314
 21
23.6339718126
  0
LINE
  5
24A
100
AcDbEntity
  8
0
100
AcDbLine
 62
7
  6
BYLAYER
 10
27.8242698314
 20
23.6339718126
 11
27.8242698314
 21
20.4339718126
  0
LINE
  5
24B
100
AcDbEntity
  8
0
100
AcDbLine
 62
7
  6
BYLAYER
 10
28.1742698314
 20
23.431896563
 11
28.1742698314
 21
20.6360470622
  0
ARC
  5
24C
100
AcDbEntity
  8
0
100
AcDbCircle
 62
7
  6
BYLAYER
 10
34.0563951369
 20
22.0339718126
 40
30.5
100
AcDbArc
 50
189.6258230089
 51
194.7716231535
  0
ARC
  5
24D
100
AcDbEntity
  8
0
100
AcDbCircle
 62
7
  6
BYLAYER
 10
34.0563951369
 20
22.0339718126
 40
30.5
100
AcDbArc
 50
165.2283769156
 51
170.3741769911
  0
ARC
  5
24E
100
AcDbEntity
  8
0
100
AcDbCircle
 62
7
  6
BYLAYER
 10
33.1243324086
 20
8.8592319516
 40
22.9861031753
100
AcDbArc
 50
147.2800449405
 51
147.4246242373
  0
ARC
  5
24F
100
AcDbEntity
  8
0
100
AcDbCircle
 62
7
  6
BYLAYER
 10
33.1237105634
 20
35.2083102556
 40
22.9853630293
100
AcDbArc
 50
212.5753677599
 51
212.7200391569
  0
ARC
  5
250
100
AcDbEntity
  8
0
100
AcDbCircle
 62
7
  6
BYLAYER
 10
20.1742698314
 20
22.0339718126
 40
6.5
100
AcDbArc
 50
142.0201275562
 51
144.625409554
  0
ARC
  5
251
100
AcDbEntity
  8
0
100
AcDbCircle
 62
7
  6
BYLAYER
 10
20.1900101076
 20
22.0341208537
 40
6.4850634149
100
AcDbArc
 50
145.053811304
 51
172.9257316233
  0
ARC
  5
252
100
AcDbEntity
  8
0
100
AcDbCircle
 62
7
  6
BYLAYER
 10
20.1897995942
 20
22.0337418967
 40
6.4848413835
100
AcDbArc
 50
187.0737900324
 51
214.9466683779
  0
ARC
  5
253
100
AcDbEntity
  8
0
100
AcDbCircle
 62
7
  6
BYLAYER
 10
4.854511636
 20
29.7339718126
 40
0.3
100
AcDbArc
 50
90.0
 51
165.2283769156
  0
ARC
  5
254
100
AcDbEntity
  8
0
100
AcDbCircle
 62
7
  6
BYLAYER
 10
4.854511636
 20
14.3339718126
 40
0.3
100
AcDbArc
 50
194.7716230844
 51
270.0
  0
SPLINE
  5
255
100
AcDbEntity
  8
0
100
AcDbSpline
 62
7
  6
BYLAYER
 70
0
 71
3
 72
11
 73
7
 74
0
 42
0.0000001
 43
0.0000001
 44
0.0000000001
 40
0.0
 40
0.0
 40
0.0
 40
0.0
 40
0.2455832034
 40
0.4937351837
 40
0.7450475549
 40
1.0
 40
1.0
 40
1.0
 40
1.0
 10
13.7390042501
 20
21.4836911657
 30
0.0
 10
13.7581328142
 20
21.3791401116
 30
0.0
 10
13.8053599151
 20
21.1704487432
 30
0.0
 10
13.901941354
 20
20.862451651
 30
0.0
 10
14.0242114045
 20
20.559352934
 30
0.0
 10
14.1217441416
 20
20.362873546
 30
0.0
 10
14.1744404033
 20
20.2659285026
 30
0.0
  0
SPLINE
  5
256
100
AcDbEntity
  8
0
100
AcDbSpline
 62
7
  6
BYLAYER
 70
0
 71
3
 72
15
 73
11
 74
0
 42
0.0000001
 43
0.0000001
 44
0.0000000001
 40
0.0
 40
0.0
 40
0.0
 40
0.0
 40
0.0921129172
 40
0.1305938364
 40
0.1760667401
 40
0.2882401842
 40
0.4283287814
 40
0.5952918233
 40
0.786874723
 40
1.0
 40
1.0
 40
1.0
 40
1.0
 10
13.7489197432
 20
21.5444759611
 30
0.0
 10
13.7469832365
 20
21.5444759611
 30
0.0
 10
13.7450423014
 20
21.5413912763
 30
0.0
 10
13.7437810325
 20
21.5380753696
 30
0.0
 10
13.7425913047
 20
21.5340757624
 30
0.0
 10
13.74140325
 20
21.5279479931
 30
0.0
 10
13.7403094833
 20
21.5191876501
 30
0.0
 10
13.7395374369
 20
21.5087335701
 30
0.0
 10
13.7390812854
 20
21.4967208825
 30
0.0
 10
13.7389980044
 20
21.4882122394
 30
0.0
 10
13.7390042507
 20
21.4837316721
 30
0.0
  0
SPLINE
  5
257
100
AcDbEntity
  8
0
100
AcDbSpline
 62
7
  6
BYLAYER
 70
0
 71
3
 72
15
 73
11
 74
0
 42
0.0000001
 43
0.0000001
 44
0.0000000001
 40
0.0
 40
0.0
 40
0.0
 40
0.0
 40
0.2131247508
 40
0.40470632
 40
0.5716684688
 40
0.7117596163
 40
0.8239369004
 40
0.8694109795
 40
0.9078916533
 40
1.0
 40
1.0
 40
1.0
 40
1.0
 10
13.7390042549
 20
22.5842119585
 30
0.0
 10
13.7389979519
 20
22.5797314038
 30
0.0
 10
13.7390811672
 20
22.5712228013
 30
0.0
 10
13.7395373366
 20
22.559210175
 30
0.0
 10
13.7403095223
 20
22.548756101
 30
0.0
 10
13.7414034257
 20
22.5399956618
 30
0.0
 10
13.7425915309
 20
22.5338677468
 30
0.0
 10
13.7437812249
 20
22.5298680276
 30
0.0
 10
13.7450423836
 20
22.5265521523
 30
0.0
 10
13.7469833333
 20
22.5234676641
 30
0.0
 10
13.7489197432
 20
22.5234676641
 30
0.0
  0
SPLINE
  5
258
100
AcDbEntity
  8
0
100
AcDbSpline
 62
7
  6
BYLAYER
 70
0
 71
3
 72
11
 73
7
 74
0
 42
0.0000001
 43
0.0000001
 44
0.0000000001
 40
0.0
 40
0.0
 40
0.0
 40
0.0
 40
0.2549704709
 40
0.5063037533
 40
0.7544429404
 40
1.0
 40
1.0
 40
1.0
 40
1.0
 10
14.1744100702
 20
23.8020108026
 30
0.0
 10
14.1217134095
 20
23.7050630643
 30
0.0
 10
14.0241932509
 20
23.5085697798
 30
0.0
 10
13.9019422145
 20
23.2054686216
 30
0.0
 10
13.8053600483
 20
22.8974966904
 30
0.0
 10
13.7581284988
 20
22.6888337635
 30
0.0
 10
13.7390028224
 20
22.5842988171
 30
0.0
  0
SPLINE
  5
259
100
AcDbEntity
  8
0
100
AcDbSpline
 62
7
  6
BYLAYER
 70
0
 71
3
 72
11
 73
7
 74
0
 42
0.0000001
 43
0.0000001
 44
0.0000000001
 40
0.0
 40
0.0
 40
0.0
 40
0.0
 40
0.2570271819
 40
0.508803698
 40
0.7561353454
 40
1.0
 40
1.0
 40
1.0
 40
1.0
 10
14.1744404033
 20
20.2659285026
 30
0.0
 10
14.125236654
 20
20.3423788964
 30
0.0
 10
14.0336426322
 20
20.4975617067
 30
0.0
 10
13.9167416639
 20
20.7384548372
 30
0.0
 10
13.8223292147
 20
20.9840501964
 30
0.0
 10
13.7743402453
 20
21.1513172962
 30
0.0
 10
13.7543051099
 20
21.2352181977
 30
0.0
  0
SPLINE
  5
25A
100
AcDbEntity
  8
0
100
AcDbSpline
 62
7
  6
BYLAYER
 70
0
 71
3
 72
11
 73
7
 74
0
 42
0.0000001
 43
0.0000001
 44
0.0000000001
 40
0.0
 40
0.0
 40
0.0
 40
0.0
 40
0.2438349719
 40
0.4911506273
 40
0.7429502846
 40
1.0
 40
1.0
 40
1.0
 40
1.0
 10
13.7543148525
 20
22.8327991341
 30
0.0
 10
13.774346973
 20
22.9166822598
 30
0.0
 10
13.8223365446
 20
23.0839168611
 30
0.0
 10
13.916746163
 20
23.3294796842
 30
0.0
 10
14.0336279442
 20
23.5703672328
 30
0.0
 10
14.1252080972
 20
23.7255591775
 30
0.0
 10
14.1744100702
 20
23.8020108026
 30
0.0
  0
SPLINE
  5
25B
100
AcDbEntity
  8
0
100
AcDbSpline
 62
7
  6
BYLAYER
 70
0
 71
3
 72
25
 73
21
 74
0
 42
0.0000001
 43
0.0000001
 44
0.0000000001
 40
0.0
 40
0.0
 40
0.0
 40
0.0
 40
0.0024008173
 40
0.0041290567
 40
0.0063076104
 40
0.0121277869
 40
0.0199860681
 40
0.0299205843
 40
0.0419450428
 40
0.0560624959
 40
0.0722622827
 40
0.1108256658
 40
0.157457607
 40
0.2119627928
 40
0.2740683202
 40
0.3434427231
 40
0.4197506432
 40
0.591658405
 40
0.7864986345
 40
1.0
 40
1.0
 40
1.0
 40
1.0
 10
10.4242698314
 20
16.4805880176
 30
0.0
 10
10.4242698314
 20
16.4796592543
 30
0.0
 10
10.4252778777
 20
16.4781554345
 30
0.0
 10
10.4272172281
 20
16.476729119
 30
0.0
 10
10.430533614
 20
16.4748983946
 30
0.0
 10
10.4363035827
 20
16.4727783444
 30
0.0
 10
10.4451157249
 20
16.4703504906
 30
0.0
 10
10.4563948391
 20
16.4679148756
 30
0.0
 10
10.4701351079
 20
16.4654586951
 30
0.0
 10
10.4863304448
 20
16.4629963985
 30
0.0
 10
10.5127477976
 20
16.459499183
 30
0.0
 10
10.5517450969
 20
16.4552387862
 30
0.0
 10
10.6055676088
 20
16.4503396498
 30
0.0
 10
10.668528386
 20
16.4454247269
 30
0.0
 10
10.74030889
 20
16.4404948469
 30
0.0
 10
10.8205407958
 20
16.4355541563
 30
0.0
 10
10.9432096907
 20
16.4286837708
 30
0.0
 10
11.1144012338
 20
16.4202491887
 30
0.0
 10
11.3386588913
 20
16.4104473829
 30
0.0
 10
11.4965015435
 20
16.4041435544
 30
0.0
 10
11.5790333079
 20
16.400947158
 30
0.0
  0
SPLINE
  5
25C
100
AcDbEntity
  8
0
100
AcDbSpline
 62
7
  6
BYLAYER
 70
0
 71
3
 72
25
 73
21
 74
0
 42
0.0000001
 43
0.0000001
 44
0.0000000001
 40
0.0
 40
0.0
 40
0.0
 40
0.0
 40
0.2135013629
 40
0.4083415862
 40
0.580249347
 40
0.6565572676
 40
0.7259316718
 40
0.7880372006
 40
0.8425423869
 40
0.8891743295
 40
0.9277377143
 40
0.9439375018
 40
0.9580549552
 40
0.9700794141
 40
0.9800139307
 40
0.9878722124
 40
0.9936923893
 40
0.9958709431
 40
0.9975991826
 40
1.0
 40
1.0
 40
1.0
 40
1.0
 10
11.5790333079
 20
27.6669964671
 30
0.0
 10
11.4965015445
 20
27.6638000708
 30
0.0
 10
11.3386588957
 20
27.6574962425
 30
0.0
 10
11.114401242
 20
27.6476944368
 30
0.0
 10
10.9432097016
 20
27.6392598549
 30
0.0
 10
10.8205408063
 20
27.6323894694
 30
0.0
 10
10.7403088993
 20
27.6274487788
 30
0.0
 10
10.668528394
 20
27.6225188989
 30
0.0
 10
10.6055676157
 20
27.6176039759
 30
0.0
 10
10.5517451023
 20
27.6127048395
 30
0.0
 10
10.5127478016
 20
27.6084444427
 30
0.0
 10
10.4863304477
 20
27.6049472271
 30
0.0
 10
10.4701351104
 20
27.6024849304
 30
0.0
 10
10.4563948411
 20
27.6000287498
 30
0.0
 10
10.4451157265
 20
27.5975931347
 30
0.0
 10
10.4363035837
 20
27.5951652808
 30
0.0
 10
10.4305336146
 20
27.5930452306
 30
0.0
 10
10.4272172284
 20
27.5912145062
 30
0.0
 10
10.4252778779
 20
27.5897881907
 30
0.0
 10
10.4242698314
 20
27.5882843709
 30
0.0
 10
10.4242698314
 20
27.5873556075
 30
0.0
  0
SPLINE
  5
25D
100
AcDbEntity
  8
0
100
AcDbSpline
 62
7
  6
BYLAYER
 70
0
 71
3
 72
10
 73
6
 74
0
 42
0.0000001
 43
0.0000001
 44
0.0000000001
 40
0.0
 40
0.0
 40
0.0
 40
0.0
 40
0.5597951141
 40
0.7970910058
 40
1.0
 40
1.0
 40
1.0
 40
1.0
 10
17.6855789623
 20
15.5237879256
 30
0.0
 10
17.7252098135
 20
15.5180952935
 30
0.0
 10
17.7815223253
 20
15.5089711427
 30
0.0
 10
17.8514942129
 20
15.4941155093
 30
0.0
 10
17.8820247349
 20
15.4863577717
 30
0.0
 10
17.8959654061
 20
15.4823243447
 30
0.0
  0
SPLINE
  5
25E
100
AcDbEntity
  8
0
100
AcDbSpline
 62
7
  6
BYLAYER
 70
0
 71
3
 72
10
 73
6
 74
0
 42
0.0000001
 43
0.0000001
 44
0.0000000001
 40
0.0
 40
0.0
 40
0.0
 40
0.0
 40
0.2029094368
 40
0.4402053663
 40
1.0
 40
1.0
 40
1.0
 40
1.0
 10
17.8959658245
 20
28.5856141401
 30
0.0
 10
17.8820250744
 20
28.5815806804
 30
0.0
 10
17.8514948083
 20
28.5738213995
 30
0.0
 10
17.7815227503
 20
28.5589650659
 30
0.0
 10
17.7252099249
 20
28.5498417714
 30
0.0
 10
17.6855789623
 20
28.544149125
 30
0.0
  0
SPLINE
  5
25F
100
AcDbEntity
  8
0
100
AcDbSpline
 62
7
  6
BYLAYER
 70
0
 71
3
 72
14
 73
10
 74
0
 42
0.0000001
 43
0.0000001
 44
0.0000000001
 40
0.0
 40
0.0
 40
0.0
 40
0.0
 40
0.1150151991
 40
0.2023481386
 40
0.3133086875
 40
0.4486962941
 40
0.6086436155
 40
0.7926857707
 40
1.0
 40
1.0
 40
1.0
 40
1.0
 10
17.9742698314
 20
28.6246571505
 30
0.0
 10
17.9742698314
 20
28.621205206
 30
0.0
 10
17.9700041887
 20
28.615697526
 30
0.0
 10
17.9625130785
 20
28.6103480373
 30
0.0
 10
17.9536628672
 20
28.6054728268
 30
0.0
 10
17.9425151308
 20
28.6005682243
 30
0.0
 10
17.9290172765
 20
28.5955458753
 30
0.0
 10
17.9132673375
 20
28.5904708438
 30
0.0
 10
17.9019702955
 20
28.587245391
 30
0.0
 10
17.8959658245
 20
28.5856141401
 30
0.0
  0
SPLINE
  5
260
100
AcDbEntity
  8
0
100
AcDbSpline
 62
7
  6
BYLAYER
 70
0
 71
3
 72
14
 73
10
 74
0
 42
0.0000001
 43
0.0000001
 44
0.0000000001
 40
0.0
 40
0.0
 40
0.0
 40
0.0
 40
0.2073145186
 40
0.3913559213
 40
0.5513026358
 40
0.686690683
 40
0.7976522353
 40
0.8849856728
 40
1.0
 40
1.0
 40
1.0
 40
1.0
 10
17.8959654061
 20
15.4823243447
 30
0.0
 10
17.9019698832
 20
15.4806930961
 30
0.0
 10
17.9132669617
 20
15.4774678619
 30
0.0
 10
17.9290170617
 20
15.4723934713
 30
0.0
 10
17.9425150523
 20
15.4673715746
 30
0.0
 10
17.9536628228
 20
15.4624669864
 30
0.0
 10
17.9625130186
 20
15.4575916267
 30
0.0
 10
17.9700041079
 20
15.4522421207
 30
0.0
 10
17.9742698314
 20
15.4467345065
 30
0.0
 10
17.9742698314
 20
15.4432825901
 30
0.0
  0
ENDSEC
  0
SECTION
  2
OBJECTS
  0
DICTIONARY
  5
C
100
AcDbDictionary
280
0
281
1
  3
ACAD_GROUP
350
D
  3
ACAD_MLINESTYLE
350
17
  3
ACAD_LAYOUT
350
1A
  3
ACAD_PLOTSETTINGS
350
19
  3
ACAD_PLOTSTYLENAME
350
E
  0
DICTIONARY
  5
D
102
{ACAD_REACTORS
330
C
102
}
100
AcDbDictionary
280
0
281
1
  0
ACDBDICTIONARYWDFLT
  5
E
102
{ACAD_REACTORS
330
C
102
}
100
AcDbDictionary
281
1
  3
Normal
350
F
100
AcDbDictionaryWithDefault
340
F
  0
DICTIONARY
  5
17
102
{ACAD_REACTORS
330
C
102
}
100
AcDbDictionary
280
0
281
1
  3
Standard
350
18
  0
DICTIONARY
  5
19
102
{ACAD_REACTORS
330
C
102
}
100
AcDbDictionary
281
1
  0
DICTIONARY
  5
1A
102
{ACAD_REACTORS
330
C
102
}
100
AcDbDictionary
281
1
  3
Model
350
261
  3
Layout1
350
262
  0
ACDBPLACEHOLDER
  5
F
102
{ACAD_REACTORS
330
E
102
}
  0
MLINESTYLE
  5
18
102
{ACAD_REACTORS
330
17
102
}
100
AcDbMlineStyle
  2
STANDARD
 70
0
  3

 62
256
 51
90.0
 52
90.0
 71
2
 49
0.5
 62
256
  6
BYLAYER
 49
-0.5
 62
256
  6
BYLAYER
  0
LAYOUT
  5
261
102
{ACAD_REACTORS
330
1A
102
}
100
AcDbPlotSettings
  1

  2
none_device
  4

  6

 40
0.0
 41
0.0
 42
0.0
 43
0.0
 44
210.0
 45
297.0
 46
0.0
 47
0.0
 48
0.0
 49
0.0
140
0.0
141
0.0
142
1.0
143
1.0
 70
1024
 72
1
 73
0
 74
0
  7

 75
0
147
1.0
148
0.0
149
0.0
100
AcDbLayout
  1
Model
 70
0
 71
0
 10
0.0
 20
0.0
 11
210.0
 21
297.0
 12
0.0
 22
0.0
 32
0.0
 14
0.0
 24
0.0
 34
0.0
 15
0.0
 25
0.0
 35
0.0
146
0.0
 13
0.0
 23
0.0
 33
0.0
 16
1.0
 26
0.0
 36
0.0
 17
0.0
 27
1.0
 37
0.0
 76
0
330
210
345
0
346
0
  0
LAYOUT
  5
262
102
{ACAD_REACTORS
330
1A
102
}
100
AcDbPlotSettings
  1

  2
none_device
  4

  6

 40
0.0
 41
0.0
 42
0.0
 43
0.0
 44
210.0
 45
297.0
 46
0.0
 47
0.0
 48
0.0
 49
0.0
140
0.0
141
0.0
142
1.0
143
1.0
 70
0
 72
1
 73
0
 74
0
  7

 75
0
147
1.0
148
0.0
149
0.0
100
AcDbLayout
  1
Layout1
 70
0
 71
1
 10
0.0
 20
0.0
 11
210.0
 21
297.0
 12
0.0
 22
0.0
 32
0.0
 14
0.0
 24
0.0
 34
0.0
 15
0.0
 25
0.0
 35
0.0
146
0.0
 13
0.0
 23
0.0
 33
0.0
 16
1.0
 26
0.0
 36
0.0
 17
0.0
 27
1.0
 37
0.0
 76
0
330
211
345
0
346
0
  0
ENDSEC
  0
EOF
