999
DXF file: C:\Users\sesa63760\Dev\_Creo\CAD\MCADID0004818_3D-CAD\drw0001_6.dxf
999
Pro/ENGINEER 2019471 by Parametric Technology Corporation
  0
SECTION
  2
HEADER
  9
$ACADVER
  1
AC1024
  9
$DWGCODEPAGE
  3
ANSI_1252
  9
$EXTMAX
 10
66.9372826605
 20
94.6684426198
 30
0.0
  9
$EXTMIN
 10
0.0
 20
0.0
 30
0.0
  9
$LIMMIN
 10
0.0
 20
0.0
  9
$LIMMAX
 10
66.9372826605
 20
94.6684426198
  9
$VIEWCTR
 10
33.4686413302
 20
47.3342213099
  9
$VIEWSIZE
 40
94.6684426198
  9
$CLAYER
  8
0
  9
$LTSCALE
 40
6.1709799634
  9
$CELTYPE
  6
BYLAYER
  9
$DIMSCALE
 40
1.0
  9
$DIMASZ
 40
0.7968724126
  9
$DIMEXO
 40
1.0
  9
$DIMDLI
 40
4.2635861565
  9
$DIMEXE
 40
1.0
  9
$DIMCEN
 40
1.0097967213
  9
$DIMLFAC
 40
1.0
  9
$DIMBLK
  1
_FILLED
  9
$DIMALT
 70
0
  9
$DIMALTF
 40
0.0393700787
  9
$DIMTXT
 40
1.1156213777
  9
$DIMTOL
 70
1
  9
$DIMLIM
 70
0
  9
$DIMTFAC
 40
1.0
  9
$DIMTP
 40
0.01
  9
$DIMTM
 40
0.01
  9
$DIMGAP
 40
0.625
  9
$DIMDSEP
 70
46
  9
$AUNITS
 70
0
  9
$PDMODE
 70
3
  9
$PDSIZE
 40
0.3125
  9
$HANDSEED
  5
24A
  9
$TILEMODE
 70
1
  9
$MEASUREMENT
 70
1
  9
$INSUNITS
 70
4
  0
ENDSEC
  0
SECTION
  2
CLASSES
  0
CLASS
  1
ACDBDICTIONARYWDFLT
  2
AcDbDictionaryWithDefault
  3
AutoCAD 2000
 90
0
 91
1
280
0
281
0
  0
CLASS
  1
ACDBPLACEHOLDER
  2
AcDbPlaceHolder
  3
AutoCAD 2000
 90
0
 91
1
280
0
281
0
  0
CLASS
  1
LAYOUT
  2
AcDbLayout
  3
AutoCAD 2000
 90
0
 91
0
280
0
281
0
  0
ENDSEC
  0
SECTION
  2
TABLES
  0
TABLE
  2
VPORT
  5
8
100
AcDbSymbolTable
 70
2
  0
VPORT
  5
1F4
100
AcDbSymbolTableRecord
100
AcDbViewportTableRecord
  2
*ACTIVE
 70
0
 10
0.0
 20
0.0
 11
1.0
 21
1.0
 12
33.4686413302
 22
47.3342213099
 13
0.0
 23
0.0
 14
1.0
 24
1.0
 15
0.0
 25
0.0
 16
0.0
 26
0.0
 36
1.0
 17
0.0
 27
0.0
 37
0.0
 40
94.6684426198
 41
0.7070707071
 42
50.0
 43
0.0
 44
0.0
 50
0.0
 51
0.0
 71
0
 72
100
 73
1
 74
1
 75
0
 76
0
 77
0
 78
0
  0
ENDTAB
  0
TABLE
  2
LTYPE
  5
5
100
AcDbSymbolTable
 70
6
  0
LTYPE
  5
14
100
AcDbSymbolTableRecord
100
AcDbLinetypeTableRecord
  2
BYBLOCK
 70
0
  3

 72
65
 73
0
 40
0.0
  0
LTYPE
  5
15
100
AcDbSymbolTableRecord
100
AcDbLinetypeTableRecord
  2
BYLAYER
 70
0
  3

 72
65
 73
0
 40
0.0
  0
LTYPE
  5
16
100
AcDbSymbolTableRecord
100
AcDbLinetypeTableRecord
  2
CONTINUOUS
 70
64
  3
Solid line
 72
65
 73
0
 40
0.0
  0
LTYPE
  5
1F5
100
AcDbSymbolTableRecord
100
AcDbLinetypeTableRecord
  2
CENTER
 70
64
  3
____ _ ____ _ ____ _ ____ _ ____ _ ____ _ ____
 72
65
 73
4
 40
0.6
 49
0.375
 74
0
 49
-0.075
 74
0
 49
0.075
 74
0
 49
-0.075
 74
0
  0
LTYPE
  5
1F6
100
AcDbSymbolTableRecord
100
AcDbLinetypeTableRecord
  2
HIDDEN
 70
64
  3
- - - - - - - - - - - - - - - - - - - -
 72
65
 73
2
 40
0.2
 49
0.1
 74
0
 49
-0.1
 74
0
  0
LTYPE
  5
1F7
100
AcDbSymbolTableRecord
100
AcDbLinetypeTableRecord
  2
PHANTOM
 70
64
  3
_____ _ _ _____ _ _ _____ _ _ _____
 72
65
 73
6
 40
0.8
 49
0.45
 74
0
 49
-0.05
 74
0
 49
0.1
 74
0
 49
-0.05
 74
0
 49
0.1
 74
0
 49
-0.05
 74
0
  0
LTYPE
  5
1F8
100
AcDbSymbolTableRecord
100
AcDbLinetypeTableRecord
  2
DOT
 70
64
  3
. . . . . . . . . . . . . . . . . . . .
 72
65
 73
2
 40
0.2
 49
0.1
 74
0
 49
-0.1
 74
0
  0
LTYPE
  5
1F9
100
AcDbSymbolTableRecord
100
AcDbLinetypeTableRecord
  2
DASHED
 70
64
  3
- - - - - - - - - - - - - - - - - - - -
 72
65
 73
2
 40
0.2
 49
0.1
 74
0
 49
-0.1
 74
0
  0
ENDTAB
  0
TABLE
  2
LAYER
  5
2
100
AcDbSymbolTable
 70
36
  0
LAYER
  5
10
100
AcDbSymbolTableRecord
100
AcDbLayerTableRecord
  2
0
 70
0
 62
7
  6
CONTINUOUS
370
-3
390
F
  0
LAYER
  5
1FA
100
AcDbSymbolTableRecord
100
AcDbLayerTableRecord
  2
DEFAULT_1
 70
0
 62
7
  6
CENTER
370
-3
390
F
  0
LAYER
  5
1FB
100
AcDbSymbolTableRecord
100
AcDbLayerTableRecord
  2
DEFAULT_2
 70
0
 62
7
  6
HIDDEN
370
-3
390
F
  0
LAYER
  5
1FC
100
AcDbSymbolTableRecord
100
AcDbLayerTableRecord
  2
DEFAULT_3
 70
0
 62
7
  6
PHANTOM
370
-3
390
F
  0
LAYER
  5
1FD
100
AcDbSymbolTableRecord
100
AcDbLayerTableRecord
  2
00_COMPONENTS
 70
0
 62
7
  6
CONTINUOUS
370
-3
390
F
  0
LAYER
  5
1FE
100
AcDbSymbolTableRecord
100
AcDbLayerTableRecord
  2
01_1_DEFAULT_DATUMS
 70
0
 62
7
  6
CONTINUOUS
370
-3
390
F
  0
LAYER
  5
1FF
100
AcDbSymbolTableRecord
100
AcDbLayerTableRecord
  2
01_PLANES
 70
0
 62
7
  6
CONTINUOUS
370
-3
390
F
  0
LAYER
  5
200
100
AcDbSymbolTableRecord
100
AcDbLayerTableRecord
  2
02_COORD_SYS
 70
0
 62
7
  6
CONTINUOUS
370
-3
390
F
  0
LAYER
  5
201
100
AcDbSymbolTableRecord
100
AcDbLayerTableRecord
  2
03_AXES
 70
0
 62
7
  6
CONTINUOUS
370
-3
390
F
  0
LAYER
  5
202
100
AcDbSymbolTableRecord
100
AcDbLayerTableRecord
  2
04_POINTS
 70
0
 62
7
  6
CONTINUOUS
370
-3
390
F
  0
LAYER
  5
203
100
AcDbSymbolTableRecord
100
AcDbLayerTableRecord
  2
05_CURVES
 70
0
 62
7
  6
CONTINUOUS
370
-3
390
F
  0
LAYER
  5
204
100
AcDbSymbolTableRecord
100
AcDbLayerTableRecord
  2
06_SURFS
 70
0
 62
7
  6
CONTINUOUS
370
-3
390
F
  0
LAYER
  5
205
100
AcDbSymbolTableRecord
100
AcDbLayerTableRecord
  2
07_COSMETICS
 70
0
 62
7
  6
CONTINUOUS
370
-3
390
F
  0
LAYER
  5
206
100
AcDbSymbolTableRecord
100
AcDbLayerTableRecord
  2
10_NOTES
 70
0
 62
7
  6
CONTINUOUS
370
-3
390
F
  0
LAYER
  5
207
100
AcDbSymbolTableRecord
100
AcDbLayerTableRecord
  2
11_NOTES_PUB
 70
0
 62
7
  6
CONTINUOUS
370
-3
390
F
  0
LAYER
  5
208
100
AcDbSymbolTableRecord
100
AcDbLayerTableRecord
  2
13_REF_GTOL
 70
0
 62
7
  6
CONTINUOUS
370
-3
390
F
  0
LAYER
  5
209
100
AcDbSymbolTableRecord
100
AcDbLayerTableRecord
  2
16_MISC
 70
0
 62
7
  6
CONTINUOUS
370
-3
390
F
  0
LAYER
  5
20A
100
AcDbSymbolTableRecord
100
AcDbLayerTableRecord
  2
17_NO_PRINT
 70
0
 62
7
  6
CONTINUOUS
370
-3
390
F
  0
LAYER
  5
20B
100
AcDbSymbolTableRecord
100
AcDbLayerTableRecord
  2
18_DATUM_CAMS_JOINTS
 70
0
 62
7
  6
CONTINUOUS
370
-3
390
F
  0
LAYER
  5
20C
100
AcDbSymbolTableRecord
100
AcDbLayerTableRecord
  2
19_DATUM_FUNCTIONAL
 70
0
 62
7
  6
CONTINUOUS
370
-3
390
F
  0
LAYER
  5
20D
100
AcDbSymbolTableRecord
100
AcDbLayerTableRecord
  2
20_DATUM_KINEMATIC_SCHEME
 70
0
 62
7
  6
CONTINUOUS
370
-3
390
F
  0
ENDTAB
  0
TABLE
  2
STYLE
  5
3
100
AcDbSymbolTable
 70
1
  0
STYLE
  5
11
100
AcDbSymbolTableRecord
100
AcDbTextStyleTableRecord
  2
STANDARD
 70
0
 40
0.0
 41
1.0
 50
0.0
 71
0
 42
0.2
  3
ARIAL.TTF
  4

  0
STYLE
  5
20E
100
AcDbSymbolTableRecord
100
AcDbTextStyleTableRecord
  2
TEXTSTYLE_1
 70
0
 40
0.0
 41
0.8
 50
0.0
 71
0
 42
0.2
  3
gdt
  4

  0
ENDTAB
  0
TABLE
  2
VIEW
  5
6
100
AcDbSymbolTable
 70
0
  0
ENDTAB
  0
TABLE
  2
UCS
  5
7
100
AcDbSymbolTable
 70
0
  0
ENDTAB
  0
TABLE
  2
APPID
  5
9
100
AcDbSymbolTable
 70
1
  0
APPID
  5
20F
100
AcDbSymbolTableRecord
100
AcDbRegAppTableRecord
  2
ACAD
 70
0
  0
ENDTAB
  0
TABLE
  2
BLOCK_RECORD
  5
1
100
AcDbSymbolTable
 70
0
  0
BLOCK_RECORD
  5
210
100
AcDbSymbolTableRecord
100
AcDbBlockTableRecord
  2
*Model_Space
  0
BLOCK_RECORD
  5
211
100
AcDbSymbolTableRecord
100
AcDbBlockTableRecord
  2
*Paper_Space
  0
BLOCK_RECORD
  5
212
100
AcDbSymbolTableRecord
100
AcDbBlockTableRecord
  2
_FILLED
  0
ENDTAB
  0
TABLE
  2
DIMSTYLE
  5
A
100
AcDbSymbolTable
 70
1
100
AcDbDimStyleTable
 71
0
  0
DIMSTYLE
105
213
100
AcDbSymbolTableRecord
100
AcDbDimStyleTableRecord
  2
STANDARD
 70
0
  3

  4

 40
1.0
 41
0.7968724126
 42
1.0
 43
0.38
 44
1.0
 45
0.0
 46
0.0
 47
0.01
 48
0.01
140
1.1156213777
141
0.09
142
0.0
143
25.4
144
1.0
145
0.0
146
1.0
147
0.625
 71
1
 72
0
 73
0
 74
0
 75
0
 76
0
 77
1
 78
8
 79
2
170
0
171
1
172
0
173
0
174
0
175
0
176
0
177
0
178
0
270
2
179
2
271
2
272
2
273
2
274
2
275
0
280
0
281
0
282
0
283
1
284
8
285
0
286
0
287
3
288
0
340
11
278
46
341
212
342
212
343
212
344
212
  0
ENDTAB
  0
ENDSEC
  0
SECTION
  2
BLOCKS
  0
BLOCK
  5
20
100
AcDbEntity
  8
0
100
AcDbBlockBegin
  2
*Model_Space
 70
0
 10
0.0
 20
0.0
 30
0.0
  3
*Model_Space
  1

  0
ENDBLK
  5
21
100
AcDbEntity
  8
0
100
AcDbBlockEnd
  0
BLOCK
  5
1C
100
AcDbEntity
  8
0
100
AcDbBlockBegin
  2
*Paper_Space
 70
0
 10
0.0
 20
0.0
 30
0.0
  3
*Paper_Space
  1

  0
ENDBLK
  5
1D
100
AcDbEntity
  8
0
100
AcDbBlockEnd
  0
BLOCK
  5
214
100
AcDbEntity
  8
0
100
AcDbBlockBegin
  2
_FILLED
 70
64
 10
0.0
 20
0.0
  3
_FILLED
  1

  0
SOLID
  5
215
100
AcDbEntity
  8
0
  6
BYBLOCK
 62
0
100
AcDbTrace
 10
0.0
 20
0.0
 11
-1.0
 21
0.25
 12
-1.0
 22
-0.25
 13
-1.0
 23
-0.25
  0
ENDBLK
  5
216
100
AcDbEntity
  8
0
  6
BYBLOCK
 62
0
100
AcDbBlockEnd
  0
ENDSEC
  0
SECTION
  2
ENTITIES
  0
LINE
  5
217
100
AcDbEntity
  8
0
100
AcDbLine
 62
7
  6
BYLAYER
 10
10.5250444535
 20
55.0342208885
 11
10.5250444535
 21
54.3342208885
  0
LINE
  5
218
100
AcDbEntity
  8
0
100
AcDbLine
 62
7
  6
BYLAYER
 10
10.5250444535
 20
40.3342208885
 11
10.5250444535
 21
39.6342208885
  0
LINE
  5
219
100
AcDbEntity
  8
0
100
AcDbLine
 62
7
  6
BYLAYER
 10
10.6250444535
 20
54.2342208885
 11
10.6250444535
 21
40.4342208885
  0
LINE
  5
21A
100
AcDbEntity
  8
0
100
AcDbLine
 62
7
  6
BYLAYER
 10
11.7250546671
 20
54.6342197821
 11
11.7250444535
 21
54.3342208885
  0
LINE
  5
21B
100
AcDbEntity
  8
0
100
AcDbLine
 62
7
  6
BYLAYER
 10
11.7250444535
 20
40.0342208885
 11
11.7250444535
 21
40.3342208885
  0
LINE
  5
21C
100
AcDbEntity
  8
0
100
AcDbLine
 62
7
  6
BYLAYER
 10
12.0750444535
 20
54.3342208885
 11
12.0750444535
 21
52.0839577233
  0
LINE
  5
21D
100
AcDbEntity
  8
0
100
AcDbLine
 62
7
  6
BYLAYER
 10
12.0750444535
 20
42.5844840537
 11
12.0750444535
 21
40.3342208885
  0
LINE
  5
21E
100
AcDbEntity
  8
0
100
AcDbLine
 62
7
  6
BYLAYER
 10
23.0750444535
 20
54.2342208885
 11
23.0750444535
 21
40.4342208885
  0
LWPOLYLINE
  5
21F
100
AcDbEntity
  8
0
100
AcDbPolyline
 62
7
  6
BYLAYER
 90
4
 70
0
 10
49.718409299
 20
39.334192544
 10
49.9504569826
 20
39.335911583
 10
50.28814002
 20
39.3401285446
 10
50.5250448615
 20
39.3412915638
  0
LINE
  5
220
100
AcDbEntity
  8
0
100
AcDbLine
 62
7
  6
BYLAYER
 10
10.8250444535
 20
39.3342208885
 11
51.326412498
 21
39.3342208885
  0
LINE
  5
221
100
AcDbEntity
  8
0
100
AcDbLine
 62
7
  6
BYLAYER
 10
51.3316577418
 20
39.3342208885
 11
60.5250444535
 21
39.3342208885
  0
LINE
  5
222
100
AcDbEntity
  8
0
100
AcDbLine
 62
7
  6
BYLAYER
 10
58.7150444535
 20
40.0342208885
 11
11.7250444535
 21
40.0342208885
  0
LWPOLYLINE
  5
223
100
AcDbEntity
  8
0
100
AcDbPolyline
 62
7
  6
BYLAYER
 90
4
 70
0
 10
50.5250449339
 20
39.3413046926
 10
50.7524738977
 20
39.3402184409
 10
51.0901272913
 20
39.3360347365
 10
51.3316855079
 20
39.3341804101
  0
LINE
  5
224
100
AcDbEntity
  8
0
100
AcDbLine
 62
7
  6
BYLAYER
 10
10.5250444535
 20
40.3342208885
 11
12.0750444535
 21
40.3342208885
  0
LINE
  5
225
100
AcDbEntity
  8
0
100
AcDbLine
 62
7
  6
BYLAYER
 10
10.6250444535
 20
40.4342208885
 11
23.0750444535
 21
40.4342208885
  0
LINE
  5
226
100
AcDbEntity
  8
0
100
AcDbLine
 62
7
  6
BYLAYER
 10
10.6250444535
 20
54.2342208885
 11
23.0750444535
 21
54.2342208885
  0
LINE
  5
227
100
AcDbEntity
  8
0
100
AcDbLine
 62
7
  6
BYLAYER
 10
12.0750444535
 20
54.3342208885
 11
10.5250444535
 21
54.3342208885
  0
LINE
  5
228
100
AcDbEntity
  8
0
100
AcDbLine
 62
7
  6
BYLAYER
 10
11.7250546671
 20
54.6342197821
 11
58.7150444535
 21
54.6342208885
  0
LWPOLYLINE
  5
229
100
AcDbEntity
  8
0
100
AcDbPolyline
 62
7
  6
BYLAYER
 90
4
 70
0
 10
51.3316813112
 20
55.3342445981
 10
51.0992531089
 20
55.3325244982
 10
50.7615715418
 20
55.3283122571
 10
50.5250442049
 20
55.3271401418
  0
LINE
  5
22A
100
AcDbEntity
  8
0
100
AcDbLine
 62
7
  6
BYLAYER
 10
10.8250444535
 20
55.3342208885
 11
60.5250444535
 21
55.3342208885
  0
LWPOLYLINE
  5
22B
100
AcDbEntity
  8
0
100
AcDbPolyline
 62
7
  6
BYLAYER
 90
4
 70
0
 10
50.5250441603
 20
55.327148878
 10
50.2973349195
 20
55.3282270639
 10
49.9596834661
 20
55.3324151244
 10
49.718403173
 20
55.334249326
  0
LINE
  5
22C
100
AcDbEntity
  8
0
100
AcDbLine
 62
7
  6
BYLAYER
 10
50.5250448615
 20
39.3412915635
 11
50.5250448147
 21
39.3466137419
  0
LINE
  5
22D
100
AcDbEntity
  8
0
100
AcDbLine
 62
7
  6
BYLAYER
 10
50.5250442049
 20
55.3271401418
 11
50.5250442344
 21
55.3218187063
  0
LINE
  5
22E
100
AcDbEntity
  8
0
100
AcDbLine
 62
7
  6
BYLAYER
 10
58.7150444535
 20
54.6342208885
 11
58.7150444535
 21
40.0342208885
  0
LINE
  5
22F
100
AcDbEntity
  8
0
100
AcDbLine
 62
7
  6
BYLAYER
 10
60.5250444535
 20
55.334209772
 11
60.5250444535
 21
39.334232005
  0
ARC
  5
230
100
AcDbEntity
  8
0
100
AcDbCircle
 62
7
  6
BYLAYER
 10
3.2750444535
 20
47.3342208885
 40
10.0
100
AcDbArc
 50
331.6423634237
 51
28.3576365763
  0
ARC
  5
231
100
AcDbEntity
  8
0
100
AcDbCircle
 62
7
  6
BYLAYER
 10
11.245863676
 20
47.3342208885
 40
3.7
100
AcDbArc
 50
104.2730992931
 51
256.1104512671
  0
ARC
  5
232
100
AcDbEntity
  8
0
100
AcDbCircle
 62
7
  6
BYLAYER
 10
10.8250444535
 20
55.0342208885
 40
0.3
100
AcDbArc
 50
90.0
 51
180.0
  0
ARC
  5
233
100
AcDbEntity
  8
0
100
AcDbCircle
 62
7
  6
BYLAYER
 10
10.8250444535
 20
39.6342208885
 40
0.3
100
AcDbArc
 50
180.0
 51
270.0
  0
SPLINE
  5
234
100
AcDbEntity
  8
0
100
AcDbSpline
 62
7
  6
BYLAYER
 70
0
 71
3
 72
13
 73
9
 74
0
 42
0.0000001
 43
0.0000001
 44
0.0000000001
 40
0.0
 40
0.0
 40
0.0
 40
0.0
 40
0.0946818539
 40
0.2022472108
 40
0.3201058799
 40
0.4462330658
 40
0.7163278195
 40
1.0
 40
1.0
 40
1.0
 40
1.0
 10
10.7582686091
 20
39.6901917017
 30
0.0
 10
10.7891202959
 20
39.7001952466
 30
0.0
 10
10.8541129046
 20
39.7243351717
 30
0.0
 10
10.9553351694
 20
39.7664967879
 30
0.0
 10
11.0658403655
 20
39.8143594692
 30
0.0
 10
11.2281536418
 20
39.8826638402
 30
0.0
 10
11.446604941
 20
39.963938883
 30
0.0
 10
11.6300001888
 20
40.0140022758
 30
0.0
 10
11.7250444535
 20
40.0342208885
 30
0.0
  0
SPLINE
  5
235
100
AcDbEntity
  8
0
100
AcDbSpline
 62
7
  6
BYLAYER
 70
0
 71
3
 72
9
 73
5
 74
0
 42
0.0000001
 43
0.0000001
 44
0.0000000001
 40
0.0
 40
0.0
 40
0.0
 40
0.0
 40
0.4570586819
 40
1.0
 40
1.0
 40
1.0
 40
1.0
 10
10.6341731822
 20
39.6526719773
 30
0.0
 10
10.6532605899
 20
39.6577515944
 30
0.0
 10
10.6945241975
 20
39.6706530086
 30
0.0
 10
10.7357742527
 20
39.6835190824
 30
0.0
 10
10.7582686091
 20
39.6901917017
 30
0.0
  0
SPLINE
  5
236
100
AcDbEntity
  8
0
100
AcDbSpline
 62
7
  6
BYLAYER
 70
0
 71
3
 72
19
 73
15
 74
0
 42
0.0000001
 43
0.0000001
 44
0.0000000001
 40
0.0
 40
0.0
 40
0.0
 40
0.0
 40
0.0039198725
 40
0.0088147488
 40
0.0156639317
 40
0.0352206844
 40
0.0625858245
 40
0.0977618272
 40
0.1407570467
 40
0.250196892
 40
0.390910779
 40
0.5629638703
 40
0.7661194014
 40
1.0
 40
1.0
 40
1.0
 40
1.0
 10
10.5250444535
 20
39.6342208882
 30
0.0
 10
10.5251108273
 20
39.6340920659
 30
0.0
 10
10.5255605556
 20
39.6342908885
 30
0.0
 10
10.5260756245
 20
39.6341909294
 30
0.0
 10
10.5272691753
 20
39.6342664227
 30
0.0
 10
10.5292292535
 20
39.6342789547
 30
0.0
 10
10.5322745162
 20
39.634436561
 30
0.0
 10
10.5361638044
 20
39.6346698321
 30
0.0
 10
10.5430808227
 20
39.6352207327
 30
0.0
 10
10.553857923
 20
39.6363692298
 30
0.0
 10
10.5693167747
 20
39.6385547042
 30
0.0
 10
10.5881033849
 20
39.6418705016
 30
0.0
 10
10.6101348635
 20
39.6465459829
 30
0.0
 10
10.6258178632
 20
39.6504471262
 30
0.0
 10
10.6341731822
 20
39.6526719773
 30
0.0
  0
SPLINE
  5
237
100
AcDbEntity
  8
0
100
AcDbSpline
 62
7
  6
BYLAYER
 70
0
 71
3
 72
19
 73
15
 74
0
 42
0.0000001
 43
0.0000001
 44
0.0000000001
 40
0.0
 40
0.0
 40
0.0
 40
0.0
 40
0.2338806551
 40
0.4370353308
 40
0.6090862534
 40
0.7498000598
 40
0.859241122
 40
0.9022367316
 40
0.9374130802
 40
0.9647785698
 40
0.984335644
 40
0.9911849669
 40
0.9960799635
 40
1.0
 40
1.0
 40
1.0
 40
1.0
 10
10.634173179
 20
55.0157698008
 30
0.0
 10
10.6258178483
 20
55.0179946146
 30
0.0
 10
10.6101348695
 20
55.021895716
 30
0.0
 10
10.5881035104
 20
55.0265712089
 30
0.0
 10
10.5693170129
 20
55.0298870339
 30
0.0
 10
10.5538582256
 20
55.0320725068
 30
0.0
 10
10.543081018
 20
55.03322106
 30
0.0
 10
10.5361640116
 20
55.0337719377
 30
0.0
 10
10.5322745107
 20
55.0340053025
 30
0.0
 10
10.5292296564
 20
55.034162669
 30
0.0
 10
10.5272686227
 20
55.0341756832
 30
0.0
 10
10.5260762946
 20
55.0342505146
 30
0.0
 10
10.5255590272
 20
55.0341517045
 30
0.0
 10
10.5251135095
 20
55.0343483002
 30
0.0
 10
10.5250444535
 20
55.0342208888
 30
0.0
  0
SPLINE
  5
238
100
AcDbEntity
  8
0
100
AcDbSpline
 62
7
  6
BYLAYER
 70
0
 71
3
 72
9
 73
5
 74
0
 42
0.0000001
 43
0.0000001
 44
0.0000000001
 40
0.0
 40
0.0
 40
0.0
 40
0.0
 40
0.5429399815
 40
1.0
 40
1.0
 40
1.0
 40
1.0
 10
10.7582686126
 20
54.9782500738
 30
0.0
 10
10.7357743433
 20
54.9849227876
 30
0.0
 10
10.6945241738
 20
54.9977884879
 30
0.0
 10
10.6532606466
 20
55.0106901803
 30
0.0
 10
10.634173179
 20
55.0157698008
 30
0.0
  0
SPLINE
  5
239
100
AcDbEntity
  8
0
100
AcDbSpline
 62
7
  6
BYLAYER
 70
0
 71
3
 72
9
 73
5
 74
0
 42
0.0000001
 43
0.0000001
 44
0.0000000001
 40
0.0
 40
0.0
 40
0.0
 40
0.0
 40
0.5064709617
 40
1.0
 40
1.0
 40
1.0
 40
1.0
 10
50.5250444534
 20
39.3466356665
 30
0.0
 10
50.3888526997
 20
39.3466231357
 30
0.0
 10
50.1199752326
 20
39.341888258
 30
0.0
 10
49.8511427912
 20
39.3342337717
 30
0.0
 10
49.7184311646
 20
39.3342208885
 30
0.0
  0
SPLINE
  5
23A
100
AcDbEntity
  8
0
100
AcDbSpline
 62
7
  6
BYLAYER
 70
0
 71
3
 72
12
 73
8
 74
0
 42
0.0000001
 43
0.0000001
 44
0.0000000001
 40
0.0
 40
0.0
 40
0.0
 40
0.0
 40
0.2836083643
 40
0.5537009531
 40
0.679859285
 40
0.7977072979
 40
1.0
 40
1.0
 40
1.0
 40
1.0
 10
11.7250495603
 20
54.6342211125
 30
0.0
 10
11.6298483894
 20
54.653555653
 30
0.0
 10
11.4467680076
 20
54.7049466774
 30
0.0
 10
11.2282063191
 20
54.7856661649
 30
0.0
 10
11.0659843933
 20
54.85422549
 30
0.0
 10
10.9256876745
 20
54.914892644
 30
0.0
 10
10.8237545618
 20
54.9556026238
 30
0.0
 10
10.7582686126
 20
54.9782500738
 30
0.0
  0
SPLINE
  5
23B
100
AcDbEntity
  8
0
100
AcDbSpline
 62
7
  6
BYLAYER
 70
0
 71
3
 72
13
 73
9
 74
0
 42
0.0000001
 43
0.0000001
 44
0.0000000001
 40
0.0
 40
0.0
 40
0.0
 40
0.0
 40
0.2557456208
 40
0.3921808692
 40
0.5282013763
 40
0.6595375132
 40
0.7832307634
 40
1.0
 40
1.0
 40
1.0
 40
1.0
 10
10.634172913
 20
39.6526718953
 30
0.0
 10
10.6366876119
 20
39.6126840097
 30
0.0
 10
10.6505515099
 20
39.5513993331
 30
0.0
 10
10.6881868292
 20
39.4773871702
 30
0.0
 10
10.7262132505
 20
39.4263592064
 30
0.0
 10
10.7720745235
 20
39.3850918346
 30
0.0
 10
10.8357119545
 20
39.346879417
 30
0.0
 10
10.8897032994
 20
39.3342208885
 30
0.0
 10
10.9236638674
 20
39.3342208885
 30
0.0
  0
SPLINE
  5
23C
100
AcDbEntity
  8
0
100
AcDbSpline
 62
7
  6
BYLAYER
 70
0
 71
3
 72
14
 73
10
 74
0
 42
0.0000001
 43
0.0000001
 44
0.0000000001
 40
0.0
 40
0.0
 40
0.0
 40
0.0
 40
0.0872912672
 40
0.1348279578
 40
0.1855531496
 40
0.4168702264
 40
0.5489611414
 40
0.6915206801
 40
1.0
 40
1.0
 40
1.0
 40
1.0
 10
11.0450553098
 20
39.3342208885
 30
0.0
 10
11.0749205276
 20
39.3342208885
 30
0.0
 10
11.1211704465
 20
39.3419665626
 30
0.0
 10
11.1811085965
 20
39.3629567078
 30
0.0
 10
11.283735076
 20
39.4100342226
 30
0.0
 10
11.3985433749
 20
39.4976727424
 30
0.0
 10
11.5133554652
 20
39.6274443198
 30
0.0
 10
11.6267252674
 20
39.7923606704
 30
0.0
 10
11.6884378211
 20
39.9352317793
 30
0.0
 10
11.7250444535
 20
40.0342208885
 30
0.0
  0
SPLINE
  5
23D
100
AcDbEntity
  8
0
100
AcDbSpline
 62
7
  6
BYLAYER
 70
0
 71
3
 72
14
 73
10
 74
0
 42
0.0000001
 43
0.0000001
 44
0.0000000001
 40
0.0
 40
0.0
 40
0.0
 40
0.0
 40
0.132292274
 40
0.2738197734
 40
0.3829930023
 40
0.4913705587
 40
0.6933345779
 40
0.8637082726
 40
1.0
 40
1.0
 40
1.0
 40
1.0
 10
10.7582686885
 20
39.6901916102
 30
0.0
 10
10.7614298627
 20
39.6688276415
 30
0.0
 10
10.77072313
 20
39.6249824225
 30
0.0
 10
10.7908502134
 20
39.5656147865
 30
0.0
 10
10.8159818931
 20
39.5125439886
 30
0.0
 10
10.8512913631
 20
39.4537610716
 30
0.0
 10
10.9028146318
 20
39.393476114
 30
0.0
 10
10.9725534467
 20
39.3460874198
 30
0.0
 10
11.022805854
 20
39.3342209005
 30
0.0
 10
11.0450553387
 20
39.3342208885
 30
0.0
  0
SPLINE
  5
23E
100
AcDbEntity
  8
0
100
AcDbSpline
 62
7
  6
BYLAYER
 70
0
 71
3
 72
13
 73
9
 74
0
 42
0.0000001
 43
0.0000001
 44
0.0000000001
 40
0.0
 40
0.0
 40
0.0
 40
0.0
 40
0.2542143582
 40
0.3902414519
 40
0.5261612966
 40
0.6577238637
 40
0.7818824555
 40
1.0
 40
1.0
 40
1.0
 40
1.0
 10
10.6341735708
 20
55.015769694
 30
0.0
 10
10.6366730746
 20
55.0555178223
 30
0.0
 10
10.6504079381
 20
55.1164946889
 30
0.0
 10
10.687728892
 20
55.1903040762
 30
0.0
 10
10.7255915516
 20
55.24139592
 30
0.0
 10
10.7714038976
 20
55.2828559427
 30
0.0
 10
10.8352085191
 20
55.3214115273
 30
0.0
 10
10.8894931438
 20
55.3342208885
 30
0.0
 10
10.9236646552
 20
55.3342208885
 30
0.0
  0
SPLINE
  5
23F
100
AcDbEntity
  8
0
100
AcDbSpline
 62
7
  6
BYLAYER
 70
0
 71
3
 72
14
 73
10
 74
0
 42
0.0000001
 43
0.0000001
 44
0.0000000001
 40
0.0
 40
0.0
 40
0.0
 40
0.0
 40
0.132292488
 40
0.2738203447
 40
0.3829938809
 40
0.4913717254
 40
0.6933360185
 40
0.863709317
 40
1.0
 40
1.0
 40
1.0
 40
1.0
 10
10.7582725174
 20
54.9782484352
 30
0.0
 10
10.7614337647
 20
54.9996124727
 30
0.0
 10
10.770727173
 20
55.0434578479
 30
0.0
 10
10.790854399
 20
55.1028257176
 30
0.0
 10
10.8159861778
 20
55.1558967706
 30
0.0
 10
10.8512957111
 20
55.2146799751
 30
0.0
 10
10.9028189049
 20
55.2749652244
 30
0.0
 10
10.9725574712
 20
55.322354234
 30
0.0
 10
11.0228097364
 20
55.3342208885
 30
0.0
 10
11.0450590957
 20
55.3342208885
 30
0.0
  0
SPLINE
  5
240
100
AcDbEntity
  8
0
100
AcDbSpline
 62
7
  6
BYLAYER
 70
0
 71
3
 72
15
 73
11
 74
0
 42
0.0000001
 43
0.0000001
 44
0.0000000001
 40
0.0
 40
0.0
 40
0.0
 40
0.0
 40
0.1568017191
 40
0.3081264313
 40
0.4506046074
 40
0.5827430634
 40
0.7040618407
 40
0.8144406885
 40
0.9135845659
 40
1.0
 40
1.0
 40
1.0
 40
1.0
 10
11.7250544548
 20
54.6342203353
 30
0.0
 10
11.7074123936
 20
54.6849352924
 30
0.0
 10
11.6679337526
 20
54.7830027568
 30
0.0
 10
11.596018137
 20
54.9198471295
 30
0.0
 10
11.5136865982
 20
55.0406877559
 30
0.0
 10
11.4235284028
 20
55.1424771518
 30
0.0
 10
11.3288048968
 20
55.2240320676
 30
0.0
 10
11.2324126989
 20
55.2845651636
 30
0.0
 10
11.1381512344
 20
55.323019869
 30
0.0
 10
11.074647805
 20
55.3342208885
 30
0.0
 10
11.0450553098
 20
55.3342208885
 30
0.0
  0
SPLINE
  5
241
100
AcDbEntity
  8
0
100
AcDbSpline
 62
7
  6
BYLAYER
 70
0
 71
3
 72
18
 73
14
 74
0
 42
0.0000001
 43
0.0000001
 44
0.0000000001
 40
0.0
 40
0.0
 40
0.0
 40
0.0
 40
0.1855356505
 40
0.3641431394
 40
0.5285057573
 40
0.6730802202
 40
0.7935089576
 40
0.8437077473
 40
0.8870297971
 40
0.9235456287
 40
0.953679173
 40
0.9784912349
 40
1.0
 40
1.0
 40
1.0
 40
1.0
 10
58.7150444328
 20
54.6342203353
 30
0.0
 10
58.7150444239
 20
54.6803288929
 30
0.0
 10
58.7172232459
 20
54.770840268
 30
0.0
 10
58.7268027095
 20
54.9018850573
 30
0.0
 10
58.7422225017
 20
55.0221414109
 30
0.0
 10
58.7626782665
 20
55.1269394223
 30
0.0
 10
58.7840409461
 20
55.2024819872
 30
0.0
 10
58.8036163842
 20
55.2519677413
 30
0.0
 10
58.8180237017
 20
55.2809499984
 30
0.0
 10
58.8329444334
 20
55.3039463626
 30
0.0
 10
58.8483703936
 20
55.3208331567
 30
0.0
 10
58.8643724408
 20
55.3315594675
 30
0.0
 10
58.8759521054
 20
55.3342208885
 30
0.0
 10
58.8812973753
 20
55.3342208885
 30
0.0
  0
SPLINE
  5
242
100
AcDbEntity
  8
0
100
AcDbSpline
 62
7
  6
BYLAYER
 70
0
 71
3
 72
9
 73
5
 74
0
 42
0.0000001
 43
0.0000001
 44
0.0000000001
 40
0.0
 40
0.0
 40
0.0
 40
0.0
 40
0.4935341277
 40
1.0
 40
1.0
 40
1.0
 40
1.0
 10
49.7184311642
 20
55.3342208885
 30
0.0
 10
49.8511441594
 20
55.334211553
 30
0.0
 10
50.1199766461
 20
55.3265550967
 30
0.0
 10
50.388854071
 20
55.3218175013
 30
0.0
 10
50.5250444559
 20
55.3218061104
 30
0.0
  0
SPLINE
  5
243
100
AcDbEntity
  8
0
100
AcDbSpline
 62
7
  6
BYLAYER
 70
0
 71
3
 72
9
 73
5
 74
0
 42
0.0000001
 43
0.0000001
 44
0.0000000001
 40
0.0
 40
0.0
 40
0.0
 40
0.0
 40
0.5064659888
 40
1.0
 40
1.0
 40
1.0
 40
1.0
 10
50.5250444559
 20
55.3218061104
 30
0.0
 10
50.661234871
 20
55.3218199667
 30
0.0
 10
50.9301122909
 20
55.3265544458
 30
0.0
 10
51.19894478
 20
55.3342109779
 30
0.0
 10
51.331657743
 20
55.3342208885
 30
0.0
  0
SPLINE
  5
244
100
AcDbEntity
  8
0
100
AcDbSpline
 62
7
  6
BYLAYER
 70
0
 71
3
 72
10
 73
6
 74
0
 42
0.0000001
 43
0.0000001
 44
0.0000000001
 40
0.0
 40
0.0
 40
0.0
 40
0.0
 40
0.3820441419
 40
0.7061646903
 40
1.0
 40
1.0
 40
1.0
 40
1.0
 10
60.0082873338
 20
47.3342208885
 30
0.0
 10
60.0082873338
 20
46.3127998854
 30
0.0
 10
60.0543804247
 20
44.4244752983
 30
0.0
 10
60.2391707013
 20
41.7566170952
 30
0.0
 10
60.4166344508
 20
40.1136738433
 30
0.0
 10
60.5150444535
 20
39.3342208885
 30
0.0
  0
SPLINE
  5
245
100
AcDbEntity
  8
0
100
AcDbSpline
 62
7
  6
BYLAYER
 70
0
 71
3
 72
10
 73
6
 74
0
 42
0.0000001
 43
0.0000001
 44
0.0000000001
 40
0.0
 40
0.0
 40
0.0
 40
0.0
 40
0.2938309267
 40
0.617949899
 40
1.0
 40
1.0
 40
1.0
 40
1.0
 10
60.5150444535
 20
55.3342208885
 30
0.0
 10
60.4166392344
 20
54.554779287
 30
0.0
 10
60.2391768976
 20
52.911851872
 30
0.0
 10
60.0543779106
 20
50.2439942982
 30
0.0
 10
60.0082873338
 20
48.3556578184
 30
0.0
 10
60.0082873338
 20
47.3342208885
 30
0.0
  0
SPLINE
  5
246
100
AcDbEntity
  8
0
100
AcDbSpline
 62
7
  6
BYLAYER
 70
0
 71
3
 72
18
 73
14
 74
0
 42
0.0000001
 43
0.0000001
 44
0.0000000001
 40
0.0
 40
0.0
 40
0.0
 40
0.0
 40
0.185531808
 40
0.3641299272
 40
0.5284812041
 40
0.6730479894
 40
0.7934744629
 40
0.8436775091
 40
0.8870061301
 40
0.9235282937
 40
0.9536695601
 40
0.9784886247
 40
1.0
 40
1.0
 40
1.0
 40
1.0
 10
58.7150444535
 20
40.0342208885
 30
0.0
 10
58.7150444535
 20
39.9881133066
 30
0.0
 10
58.7172245451
 20
39.8976052604
 30
0.0
 10
58.7268052865
 20
39.766566781
 30
0.0
 10
58.7422232537
 20
39.6463174183
 30
0.0
 10
58.7626755207
 20
39.5415241924
 30
0.0
 10
58.7840339888
 20
39.4659820891
 30
0.0
 10
58.803605311
 20
39.4164925139
 30
0.0
 10
58.8180111318
 20
39.3875046959
 30
0.0
 10
58.8329345411
 20
39.3645037959
 30
0.0
 10
58.8483647027
 20
39.3476137402
 30
0.0
 10
58.8643696315
 20
39.3368843727
 30
0.0
 10
58.8759514591
 20
39.3342208885
 30
0.0
 10
58.8812973754
 20
39.3342208885
 30
0.0
  0
SPLINE
  5
247
100
AcDbEntity
  8
0
100
AcDbSpline
 62
7
  6
BYLAYER
 70
0
 71
3
 72
9
 73
5
 74
0
 42
0.0000001
 43
0.0000001
 44
0.0000000001
 40
0.0
 40
0.0
 40
0.0
 40
0.0
 40
0.4935315174
 40
1.0
 40
1.0
 40
1.0
 40
1.0
 10
51.3316577422
 20
39.3342208885
 30
0.0
 10
51.1989454499
 20
39.3342325012
 30
0.0
 10
50.9301129503
 20
39.3418839222
 30
0.0
 10
50.6612355395
 20
39.3466257757
 30
0.0
 10
50.5250444534
 20
39.3466356665
 30
0.0
  0
ENDSEC
  0
SECTION
  2
OBJECTS
  0
DICTIONARY
  5
C
100
AcDbDictionary
280
0
281
1
  3
ACAD_GROUP
350
D
  3
ACAD_MLINESTYLE
350
17
  3
ACAD_LAYOUT
350
1A
  3
ACAD_PLOTSETTINGS
350
19
  3
ACAD_PLOTSTYLENAME
350
E
  0
DICTIONARY
  5
D
102
{ACAD_REACTORS
330
C
102
}
100
AcDbDictionary
280
0
281
1
  0
ACDBDICTIONARYWDFLT
  5
E
102
{ACAD_REACTORS
330
C
102
}
100
AcDbDictionary
281
1
  3
Normal
350
F
100
AcDbDictionaryWithDefault
340
F
  0
DICTIONARY
  5
17
102
{ACAD_REACTORS
330
C
102
}
100
AcDbDictionary
280
0
281
1
  3
Standard
350
18
  0
DICTIONARY
  5
19
102
{ACAD_REACTORS
330
C
102
}
100
AcDbDictionary
281
1
  0
DICTIONARY
  5
1A
102
{ACAD_REACTORS
330
C
102
}
100
AcDbDictionary
281
1
  3
Model
350
248
  3
Layout1
350
249
  0
ACDBPLACEHOLDER
  5
F
102
{ACAD_REACTORS
330
E
102
}
  0
MLINESTYLE
  5
18
102
{ACAD_REACTORS
330
17
102
}
100
AcDbMlineStyle
  2
STANDARD
 70
0
  3

 62
256
 51
90.0
 52
90.0
 71
2
 49
0.5
 62
256
  6
BYLAYER
 49
-0.5
 62
256
  6
BYLAYER
  0
LAYOUT
  5
248
102
{ACAD_REACTORS
330
1A
102
}
100
AcDbPlotSettings
  1

  2
none_device
  4

  6

 40
0.0
 41
0.0
 42
0.0
 43
0.0
 44
210.0
 45
297.0
 46
0.0
 47
0.0
 48
0.0
 49
0.0
140
0.0
141
0.0
142
1.0
143
1.0
 70
1024
 72
1
 73
0
 74
0
  7

 75
0
147
1.0
148
0.0
149
0.0
100
AcDbLayout
  1
Model
 70
0
 71
0
 10
0.0
 20
0.0
 11
210.0
 21
297.0
 12
0.0
 22
0.0
 32
0.0
 14
0.0
 24
0.0
 34
0.0
 15
0.0
 25
0.0
 35
0.0
146
0.0
 13
0.0
 23
0.0
 33
0.0
 16
1.0
 26
0.0
 36
0.0
 17
0.0
 27
1.0
 37
0.0
 76
0
330
210
345
0
346
0
  0
LAYOUT
  5
249
102
{ACAD_REACTORS
330
1A
102
}
100
AcDbPlotSettings
  1

  2
none_device
  4

  6

 40
0.0
 41
0.0
 42
0.0
 43
0.0
 44
210.0
 45
297.0
 46
0.0
 47
0.0
 48
0.0
 49
0.0
140
0.0
141
0.0
142
1.0
143
1.0
 70
0
 72
1
 73
0
 74
0
  7

 75
0
147
1.0
148
0.0
149
0.0
100
AcDbLayout
  1
Layout1
 70
0
 71
1
 10
0.0
 20
0.0
 11
210.0
 21
297.0
 12
0.0
 22
0.0
 32
0.0
 14
0.0
 24
0.0
 34
0.0
 15
0.0
 25
0.0
 35
0.0
146
0.0
 13
0.0
 23
0.0
 33
0.0
 16
1.0
 26
0.0
 36
0.0
 17
0.0
 27
1.0
 37
0.0
 76
0
330
211
345
0
346
0
  0
ENDSEC
  0
EOF
