999
DXF file: C:\Users\sesa63760\Dev\_Creo\CAD\MCADID0004138_3D-CAD\drw0001_2.dxf
999
Pro/ENGINEER 2019471 by Parametric Technology Corporation
  0
SECTION
  2
HEADER
  9
$ACADVER
  1
AC1024
  9
$DWGCODEPAGE
  3
ANSI_1252
  9
$EXTMAX
 10
63.0140184324
 20
89.1198260687
 30
0.0
  9
$EXTMIN
 10
0.0
 20
0.0
 30
0.0
  9
$LIMMIN
 10
0.0
 20
0.0
  9
$LIMMAX
 10
63.0140184324
 20
89.1198260687
  9
$VIEWCTR
 10
31.5070092162
 20
44.5599130343
  9
$VIEWSIZE
 40
89.1198260687
  9
$CLAYER
  8
0
  9
$LTSCALE
 40
5.809292366
  9
$CELTYPE
  6
BYLAYER
  9
$DIMSCALE
 40
1.0
  9
$DIMASZ
 40
0.7501668861
  9
$DIMEXO
 40
1.0
  9
$DIMDLI
 40
4.0136929074
  9
$DIMEXE
 40
1.0
  9
$DIMCEN
 40
0.9506114781
  9
$DIMLFAC
 40
1.0
  9
$DIMBLK
  1
_FILLED
  9
$DIMALT
 70
0
  9
$DIMALTF
 40
0.0393700787
  9
$DIMTXT
 40
1.0502336405
  9
$DIMTOL
 70
1
  9
$DIMLIM
 70
0
  9
$DIMTFAC
 40
1.0
  9
$DIMTP
 40
0.01
  9
$DIMTM
 40
0.01
  9
$DIMGAP
 40
0.625
  9
$DIMDSEP
 70
46
  9
$AUNITS
 70
0
  9
$PDMODE
 70
3
  9
$PDSIZE
 40
0.3125
  9
$HANDSEED
  5
265
  9
$TILEMODE
 70
1
  9
$MEASUREMENT
 70
1
  9
$INSUNITS
 70
4
  0
ENDSEC
  0
SECTION
  2
CLASSES
  0
CLASS
  1
ACDBDICTIONARYWDFLT
  2
AcDbDictionaryWithDefault
  3
AutoCAD 2000
 90
0
 91
1
280
0
281
0
  0
CLASS
  1
ACDBPLACEHOLDER
  2
AcDbPlaceHolder
  3
AutoCAD 2000
 90
0
 91
1
280
0
281
0
  0
CLASS
  1
LAYOUT
  2
AcDbLayout
  3
AutoCAD 2000
 90
0
 91
0
280
0
281
0
  0
ENDSEC
  0
SECTION
  2
TABLES
  0
TABLE
  2
VPORT
  5
8
100
AcDbSymbolTable
 70
2
  0
VPORT
  5
1F4
100
AcDbSymbolTableRecord
100
AcDbViewportTableRecord
  2
*ACTIVE
 70
0
 10
0.0
 20
0.0
 11
1.0
 21
1.0
 12
31.5070092162
 22
44.5599130343
 13
0.0
 23
0.0
 14
1.0
 24
1.0
 15
0.0
 25
0.0
 16
0.0
 26
0.0
 36
1.0
 17
0.0
 27
0.0
 37
0.0
 40
89.1198260687
 41
0.7070707071
 42
50.0
 43
0.0
 44
0.0
 50
0.0
 51
0.0
 71
0
 72
100
 73
1
 74
1
 75
0
 76
0
 77
0
 78
0
  0
ENDTAB
  0
TABLE
  2
LTYPE
  5
5
100
AcDbSymbolTable
 70
6
  0
LTYPE
  5
14
100
AcDbSymbolTableRecord
100
AcDbLinetypeTableRecord
  2
BYBLOCK
 70
0
  3

 72
65
 73
0
 40
0.0
  0
LTYPE
  5
15
100
AcDbSymbolTableRecord
100
AcDbLinetypeTableRecord
  2
BYLAYER
 70
0
  3

 72
65
 73
0
 40
0.0
  0
LTYPE
  5
16
100
AcDbSymbolTableRecord
100
AcDbLinetypeTableRecord
  2
CONTINUOUS
 70
64
  3
Solid line
 72
65
 73
0
 40
0.0
  0
LTYPE
  5
1F5
100
AcDbSymbolTableRecord
100
AcDbLinetypeTableRecord
  2
CENTER
 70
64
  3
____ _ ____ _ ____ _ ____ _ ____ _ ____ _ ____
 72
65
 73
4
 40
0.6
 49
0.375
 74
0
 49
-0.075
 74
0
 49
0.075
 74
0
 49
-0.075
 74
0
  0
LTYPE
  5
1F6
100
AcDbSymbolTableRecord
100
AcDbLinetypeTableRecord
  2
HIDDEN
 70
64
  3
- - - - - - - - - - - - - - - - - - - -
 72
65
 73
2
 40
0.2
 49
0.1
 74
0
 49
-0.1
 74
0
  0
LTYPE
  5
1F7
100
AcDbSymbolTableRecord
100
AcDbLinetypeTableRecord
  2
PHANTOM
 70
64
  3
_____ _ _ _____ _ _ _____ _ _ _____
 72
65
 73
6
 40
0.8
 49
0.45
 74
0
 49
-0.05
 74
0
 49
0.1
 74
0
 49
-0.05
 74
0
 49
0.1
 74
0
 49
-0.05
 74
0
  0
LTYPE
  5
1F8
100
AcDbSymbolTableRecord
100
AcDbLinetypeTableRecord
  2
DOT
 70
64
  3
. . . . . . . . . . . . . . . . . . . .
 72
65
 73
2
 40
0.2
 49
0.1
 74
0
 49
-0.1
 74
0
  0
LTYPE
  5
1F9
100
AcDbSymbolTableRecord
100
AcDbLinetypeTableRecord
  2
DASHED
 70
64
  3
- - - - - - - - - - - - - - - - - - - -
 72
65
 73
2
 40
0.2
 49
0.1
 74
0
 49
-0.1
 74
0
  0
ENDTAB
  0
TABLE
  2
LAYER
  5
2
100
AcDbSymbolTable
 70
36
  0
LAYER
  5
10
100
AcDbSymbolTableRecord
100
AcDbLayerTableRecord
  2
0
 70
0
 62
7
  6
CONTINUOUS
370
-3
390
F
  0
LAYER
  5
1FA
100
AcDbSymbolTableRecord
100
AcDbLayerTableRecord
  2
DEFAULT_1
 70
0
 62
7
  6
CENTER
370
-3
390
F
  0
LAYER
  5
1FB
100
AcDbSymbolTableRecord
100
AcDbLayerTableRecord
  2
DEFAULT_2
 70
0
 62
7
  6
HIDDEN
370
-3
390
F
  0
LAYER
  5
1FC
100
AcDbSymbolTableRecord
100
AcDbLayerTableRecord
  2
DEFAULT_3
 70
0
 62
7
  6
PHANTOM
370
-3
390
F
  0
LAYER
  5
1FD
100
AcDbSymbolTableRecord
100
AcDbLayerTableRecord
  2
00_COMPONENTS
 70
0
 62
7
  6
CONTINUOUS
370
-3
390
F
  0
LAYER
  5
1FE
100
AcDbSymbolTableRecord
100
AcDbLayerTableRecord
  2
01_1_DEFAULT_DATUMS
 70
0
 62
7
  6
CONTINUOUS
370
-3
390
F
  0
LAYER
  5
1FF
100
AcDbSymbolTableRecord
100
AcDbLayerTableRecord
  2
01_PLANES
 70
0
 62
7
  6
CONTINUOUS
370
-3
390
F
  0
LAYER
  5
200
100
AcDbSymbolTableRecord
100
AcDbLayerTableRecord
  2
02_COORD_SYS
 70
0
 62
7
  6
CONTINUOUS
370
-3
390
F
  0
LAYER
  5
201
100
AcDbSymbolTableRecord
100
AcDbLayerTableRecord
  2
03_AXES
 70
0
 62
7
  6
CONTINUOUS
370
-3
390
F
  0
LAYER
  5
202
100
AcDbSymbolTableRecord
100
AcDbLayerTableRecord
  2
04_POINTS
 70
0
 62
7
  6
CONTINUOUS
370
-3
390
F
  0
LAYER
  5
203
100
AcDbSymbolTableRecord
100
AcDbLayerTableRecord
  2
05_CURVES
 70
0
 62
7
  6
CONTINUOUS
370
-3
390
F
  0
LAYER
  5
204
100
AcDbSymbolTableRecord
100
AcDbLayerTableRecord
  2
06_SURFS
 70
0
 62
7
  6
CONTINUOUS
370
-3
390
F
  0
LAYER
  5
205
100
AcDbSymbolTableRecord
100
AcDbLayerTableRecord
  2
07_COSMETICS
 70
0
 62
7
  6
CONTINUOUS
370
-3
390
F
  0
LAYER
  5
206
100
AcDbSymbolTableRecord
100
AcDbLayerTableRecord
  2
10_NOTES
 70
0
 62
7
  6
CONTINUOUS
370
-3
390
F
  0
LAYER
  5
207
100
AcDbSymbolTableRecord
100
AcDbLayerTableRecord
  2
11_NOTES_PUB
 70
0
 62
7
  6
CONTINUOUS
370
-3
390
F
  0
LAYER
  5
208
100
AcDbSymbolTableRecord
100
AcDbLayerTableRecord
  2
13_REF_GTOL
 70
0
 62
7
  6
CONTINUOUS
370
-3
390
F
  0
LAYER
  5
209
100
AcDbSymbolTableRecord
100
AcDbLayerTableRecord
  2
16_MISC
 70
0
 62
7
  6
CONTINUOUS
370
-3
390
F
  0
LAYER
  5
20A
100
AcDbSymbolTableRecord
100
AcDbLayerTableRecord
  2
17_NO_PRINT
 70
0
 62
7
  6
CONTINUOUS
370
-3
390
F
  0
LAYER
  5
20B
100
AcDbSymbolTableRecord
100
AcDbLayerTableRecord
  2
18_DATUM_CAMS_JOINTS
 70
0
 62
7
  6
CONTINUOUS
370
-3
390
F
  0
LAYER
  5
20C
100
AcDbSymbolTableRecord
100
AcDbLayerTableRecord
  2
19_DATUM_FUNCTIONAL
 70
0
 62
7
  6
CONTINUOUS
370
-3
390
F
  0
LAYER
  5
20D
100
AcDbSymbolTableRecord
100
AcDbLayerTableRecord
  2
20_DATUM_KINEMATIC_SCHEME
 70
0
 62
7
  6
CONTINUOUS
370
-3
390
F
  0
ENDTAB
  0
TABLE
  2
STYLE
  5
3
100
AcDbSymbolTable
 70
1
  0
STYLE
  5
11
100
AcDbSymbolTableRecord
100
AcDbTextStyleTableRecord
  2
STANDARD
 70
0
 40
0.0
 41
1.0
 50
0.0
 71
0
 42
0.2
  3
ARIAL.TTF
  4

  0
STYLE
  5
20E
100
AcDbSymbolTableRecord
100
AcDbTextStyleTableRecord
  2
TEXTSTYLE_1
 70
0
 40
0.0
 41
0.8
 50
0.0
 71
0
 42
0.2
  3
gdt
  4

  0
ENDTAB
  0
TABLE
  2
VIEW
  5
6
100
AcDbSymbolTable
 70
0
  0
ENDTAB
  0
TABLE
  2
UCS
  5
7
100
AcDbSymbolTable
 70
0
  0
ENDTAB
  0
TABLE
  2
APPID
  5
9
100
AcDbSymbolTable
 70
1
  0
APPID
  5
20F
100
AcDbSymbolTableRecord
100
AcDbRegAppTableRecord
  2
ACAD
 70
0
  0
ENDTAB
  0
TABLE
  2
BLOCK_RECORD
  5
1
100
AcDbSymbolTable
 70
0
  0
BLOCK_RECORD
  5
210
100
AcDbSymbolTableRecord
100
AcDbBlockTableRecord
  2
*Model_Space
  0
BLOCK_RECORD
  5
211
100
AcDbSymbolTableRecord
100
AcDbBlockTableRecord
  2
*Paper_Space
  0
BLOCK_RECORD
  5
212
100
AcDbSymbolTableRecord
100
AcDbBlockTableRecord
  2
_FILLED
  0
ENDTAB
  0
TABLE
  2
DIMSTYLE
  5
A
100
AcDbSymbolTable
 70
1
100
AcDbDimStyleTable
 71
0
  0
DIMSTYLE
105
213
100
AcDbSymbolTableRecord
100
AcDbDimStyleTableRecord
  2
STANDARD
 70
0
  3

  4

 40
1.0
 41
0.7501668861
 42
1.0
 43
0.38
 44
1.0
 45
0.0
 46
0.0
 47
0.01
 48
0.01
140
1.0502336405
141
0.09
142
0.0
143
25.4
144
1.0
145
0.0
146
1.0
147
0.625
 71
1
 72
0
 73
0
 74
0
 75
0
 76
0
 77
1
 78
8
 79
2
170
0
171
1
172
0
173
0
174
0
175
0
176
0
177
0
178
0
270
2
179
2
271
2
272
2
273
2
274
2
275
0
280
0
281
0
282
0
283
1
284
8
285
0
286
0
287
3
288
0
340
11
278
46
341
212
342
212
343
212
344
212
  0
ENDTAB
  0
ENDSEC
  0
SECTION
  2
BLOCKS
  0
BLOCK
  5
20
100
AcDbEntity
  8
0
100
AcDbBlockBegin
  2
*Model_Space
 70
0
 10
0.0
 20
0.0
 30
0.0
  3
*Model_Space
  1

  0
ENDBLK
  5
21
100
AcDbEntity
  8
0
100
AcDbBlockEnd
  0
BLOCK
  5
1C
100
AcDbEntity
  8
0
100
AcDbBlockBegin
  2
*Paper_Space
 70
0
 10
0.0
 20
0.0
 30
0.0
  3
*Paper_Space
  1

  0
ENDBLK
  5
1D
100
AcDbEntity
  8
0
100
AcDbBlockEnd
  0
BLOCK
  5
214
100
AcDbEntity
  8
0
100
AcDbBlockBegin
  2
_FILLED
 70
64
 10
0.0
 20
0.0
  3
_FILLED
  1

  0
SOLID
  5
215
100
AcDbEntity
  8
0
  6
BYBLOCK
 62
0
100
AcDbTrace
 10
0.0
 20
0.0
 11
-1.0
 21
0.25
 12
-1.0
 22
-0.25
 13
-1.0
 23
-0.25
  0
ENDBLK
  5
216
100
AcDbEntity
  8
0
  6
BYBLOCK
 62
0
100
AcDbBlockEnd
  0
ENDSEC
  0
SECTION
  2
ENTITIES
  0
LINE
  5
217
100
AcDbEntity
  8
0
100
AcDbLine
 62
7
  6
BYLAYER
 10
8.1014400351
 20
55.6962902189
 11
8.1014400351
 21
33.0962902189
  0
LINE
  5
218
100
AcDbEntity
  8
0
100
AcDbLine
 62
7
  6
BYLAYER
 10
8.3013696614
 20
32.8962902189
 11
8.3013696602
 21
55.8962902189
  0
LINE
  5
219
100
AcDbEntity
  8
0
100
AcDbLine
 62
7
  6
BYLAYER
 10
15.8776884807
 20
39.7188397906
 11
15.8776884807
 21
49.073640488
  0
LINE
  5
21A
100
AcDbEntity
  8
0
100
AcDbLine
 62
7
  6
BYLAYER
 10
7.1737832984
 20
32.8962902189
 11
54.9776884814
 21
32.8962902189
  0
LINE
  5
21B
100
AcDbEntity
  8
0
100
AcDbLine
 62
7
  6
BYLAYER
 10
55.1776884807
 20
33.0962902181
 11
6.9738536036
 21
33.0962902189
  0
LINE
  5
21C
100
AcDbEntity
  8
0
100
AcDbLine
 62
7
  6
BYLAYER
 10
6.9848476992
 20
34.0962902186
 11
7.9705284886
 21
34.0962902186
  0
LINE
  5
21D
100
AcDbEntity
  8
0
100
AcDbLine
 62
7
  6
BYLAYER
 10
48.2661181353
 20
36.3981909637
 11
48.389423251
 21
36.3962902189
  0
LWPOLYLINE
  5
21E
100
AcDbEntity
  8
0
100
AcDbPolyline
 62
7
  6
BYLAYER
 90
4
 70
0
 10
48.248001906
 20
36.3965333026
 10
47.7243814304
 20
36.4306835316
 10
45.7288980995
 20
37.2333603953
 10
44.0708057101
 20
39.0017023692
  0
LINE
  5
21F
100
AcDbEntity
  8
0
100
AcDbLine
 62
7
  6
BYLAYER
 10
36.8776884807
 20
39.7188397908
 11
15.8776884807
 21
39.7188397908
  0
LINE
  5
220
100
AcDbEntity
  8
0
100
AcDbLine
 62
7
  6
BYLAYER
 10
36.8776884807
 20
40.5186663104
 11
15.8776884807
 21
40.5186663104
  0
LINE
  5
221
100
AcDbEntity
  8
0
100
AcDbLine
 62
7
  6
BYLAYER
 10
36.8776884807
 20
48.273640487
 11
15.8776884807
 21
48.273640487
  0
LINE
  5
222
100
AcDbEntity
  8
0
100
AcDbLine
 62
7
  6
BYLAYER
 10
36.8776884807
 20
39.7188397906
 11
36.8776884807
 21
49.073640488
  0
LINE
  5
223
100
AcDbEntity
  8
0
100
AcDbLine
 62
7
  6
BYLAYER
 10
36.8776884807
 20
49.0736404884
 11
15.8776884807
 21
49.0736404884
  0
LWPOLYLINE
  5
224
100
AcDbEntity
  8
0
100
AcDbPolyline
 62
7
  6
BYLAYER
 90
5
 70
0
 10
42.97286433
 20
47.2851673825
 10
44.0628719833
 20
49.7785670479
 10
45.7262297084
 20
51.557342106
 10
47.7289769871
 20
52.3624983573
 10
48.248001884
 20
52.3960471334
  0
LWPOLYLINE
  5
225
100
AcDbEntity
  8
0
100
AcDbPolyline
 62
7
  6
BYLAYER
 90
6
 70
0
 10
43.7648536902
 20
49.0026100687
 10
43.6533388799
 20
48.7771610355
 10
43.3531674524
 20
48.1549079163
 10
43.2097790673
 20
47.8483559425
 10
42.942802548
 20
47.2587143394
 10
42.8610075822
 20
47.0759286975
  0
LINE
  5
226
100
AcDbEntity
  8
0
100
AcDbLine
 62
7
  6
BYLAYER
 10
56.1776082204
 20
49.073640488
 11
55.1776884807
 21
48.4962902184
  0
LINE
  5
227
100
AcDbEntity
  8
0
100
AcDbLine
 62
7
  6
BYLAYER
 10
48.389423251
 20
52.3962902189
 11
48.2661181352
 21
52.3943894742
  0
LINE
  5
228
100
AcDbEntity
  8
0
100
AcDbLine
 62
7
  6
BYLAYER
 10
55.1776884807
 20
40.2962438804
 11
56.1776082204
 21
39.7189399506
  0
LWPOLYLINE
  5
229
100
AcDbEntity
  8
0
100
AcDbPolyline
 62
7
  6
BYLAYER
 90
6
 70
0
 10
42.8583705365
 20
41.722480793
 10
42.941285644
 20
41.5368524686
 10
43.2104831773
 20
40.9419734384
 10
43.3538457609
 20
40.6355970821
 10
43.6549070537
 20
40.0120179872
 10
43.7667721469
 20
39.7861204086
  0
LINE
  5
22A
100
AcDbEntity
  8
0
100
AcDbLine
 62
7
  6
BYLAYER
 10
44.0708057101
 20
39.0017023692
 11
43.347448753
 21
40.6492679572
  0
LINE
  5
22B
100
AcDbEntity
  8
0
100
AcDbLine
 62
7
  6
BYLAYER
 10
42.0948457687
 20
55.8962902189
 11
42.094845768
 21
32.8962902189
  0
LINE
  5
22C
100
AcDbEntity
  8
0
100
AcDbLine
 62
7
  6
BYLAYER
 10
42.236267125
 20
33.0962902189
 11
42.236267125
 21
55.6962902189
  0
LINE
  5
22D
100
AcDbEntity
  8
0
100
AcDbLine
 62
7
  6
BYLAYER
 10
7.9705284886
 20
54.6962902182
 11
6.9848476991
 21
54.6962902182
  0
LINE
  5
22E
100
AcDbEntity
  8
0
100
AcDbLine
 62
7
  6
BYLAYER
 10
6.9738535317
 20
55.6962902189
 11
55.1776884807
 21
55.6962902197
  0
LINE
  5
22F
100
AcDbEntity
  8
0
100
AcDbLine
 62
7
  6
BYLAYER
 10
7.173782769
 20
55.8962902189
 11
54.9776884814
 21
55.8962902189
  0
LINE
  5
230
100
AcDbEntity
  8
0
100
AcDbLine
 62
7
  6
BYLAYER
 10
48.2661181354
 20
36.3981909635
 11
48.2786531825
 21
36.4345153982
  0
LWPOLYLINE
  5
231
100
AcDbEntity
  8
0
100
AcDbPolyline
 62
7
  6
BYLAYER
 90
5
 70
0
 10
52.8714791033
 20
49.4123466778
 10
52.8797016647
 20
49.4037878191
 10
52.8408147277
 20
49.448293734
 10
52.5886146323
 20
49.7726485342
 10
52.4267486977
 20
49.9998220245
  0
LINE
  5
232
100
AcDbEntity
  8
0
100
AcDbLine
 62
7
  6
BYLAYER
 10
48.2661145281
 20
52.3943999278
 11
48.2786490864
 21
52.358076914
  0
LWPOLYLINE
  5
233
100
AcDbEntity
  8
0
100
AcDbPolyline
 62
7
  6
BYLAYER
 90
4
 70
0
 10
52.102635893
 20
38.3615314132
 10
52.5560824708
 20
38.8958204271
 10
53.0560625348
 20
39.4521023695
 10
53.4402910001
 20
39.8622010172
  0
LINE
  5
234
100
AcDbEntity
  8
0
100
AcDbLine
 62
7
  6
BYLAYER
 10
56.1776082204
 20
39.7189399506
 11
56.9776082212
 21
40.5189399495
  0
LINE
  5
235
100
AcDbEntity
  8
0
100
AcDbLine
 62
7
  6
BYLAYER
 10
56.9776082212
 20
48.2736404873
 11
56.1776082204
 21
49.073640488
  0
LINE
  5
236
100
AcDbEntity
  8
0
100
AcDbLine
 62
7
  6
BYLAYER
 10
52.4267758058
 20
49.9998220245
 11
51.6554095747
 21
50.9282628664
  0
LINE
  5
237
100
AcDbEntity
  8
0
100
AcDbLine
 62
7
  6
BYLAYER
 10
55.1191098369
 20
55.6962902189
 11
55.1191098369
 21
45.2201797179
  0
LINE
  5
238
100
AcDbEntity
  8
0
100
AcDbLine
 62
7
  6
BYLAYER
 10
55.1191098369
 20
43.5765932756
 11
55.1191098369
 21
33.0962902189
  0
LINE
  5
239
100
AcDbEntity
  8
0
100
AcDbLine
 62
7
  6
BYLAYER
 10
55.1776884807
 20
33.0962902195
 11
55.1776884807
 21
43.8694119933
  0
LINE
  5
23A
100
AcDbEntity
  8
0
100
AcDbLine
 62
7
  6
BYLAYER
 10
55.1776884807
 20
44.9258633018
 11
55.1776884807
 21
55.6962902191
  0
LINE
  5
23B
100
AcDbEntity
  8
0
100
AcDbLine
 62
7
  6
BYLAYER
 10
56.9776082212
 20
40.5189399495
 11
56.9776082212
 21
48.2736404873
  0
ARC
  5
23C
100
AcDbEntity
  8
0
100
AcDbCircle
 62
7
  6
BYLAYER
 10
41.9545184879
 20
33.0962681547
 40
0.281748637
100
AcDbArc
 50
354.595775379
 51
0.0044869329
  0
ARC
  5
23D
100
AcDbEntity
  8
0
100
AcDbCircle
 62
7
  6
BYLAYER
 10
7.1738208636
 20
33.0962525936
 40
0.1999648219
100
AcDbArc
 50
179.9892193639
 51
269.9892158285
  0
ARC
  5
23E
100
AcDbEntity
  8
0
100
AcDbCircle
 62
7
  6
BYLAYER
 10
8.3014072972
 20
33.0962525936
 40
0.1999648219
100
AcDbArc
 50
179.9892193639
 51
269.9892158285
  0
ARC
  5
23F
100
AcDbEntity
  8
0
100
AcDbCircle
 62
7
  6
BYLAYER
 10
-892.6307733211
 20
44.3962902201
 40
900.6604060923
100
AcDbArc
 50
359.344748004
 51
0.6552519958
  0
ARC
  5
240
100
AcDbEntity
  8
0
100
AcDbCircle
 62
7
  6
BYLAYER
 10
7.1738207948
 20
55.6963278447
 40
0.1999648221
100
AcDbArc
 50
90.0108662419
 51
180.0107807699
  0
ARC
  5
241
100
AcDbEntity
  8
0
100
AcDbCircle
 62
7
  6
BYLAYER
 10
8.3014072973
 20
55.6963278442
 40
0.1999648221
100
AcDbArc
 50
90.0108661025
 51
180.0107806242
  0
ARC
  5
242
100
AcDbEntity
  8
0
100
AcDbCircle
 62
7
  6
BYLAYER
 10
985.5858380333
 20
44.395461713
 40
978.6766123296
100
AcDbArc
 50
179.3947588353
 51
180.605145409
  0
ARC
  5
243
100
AcDbEntity
  8
0
100
AcDbCircle
 62
7
  6
BYLAYER
 10
48.3881142719
 20
40.3546559972
 40
3.9583265621
100
AcDbArc
 50
267.9969684281
 51
268.2345898807
  0
ARC
  5
244
100
AcDbEntity
  8
0
100
AcDbCircle
 62
7
  6
BYLAYER
 10
54.9776884807
 20
33.0962902189
 40
0.2
100
AcDbArc
 50
270.000000212
 51
360.0
  0
ARC
  5
245
100
AcDbEntity
  8
0
100
AcDbCircle
 62
7
  6
BYLAYER
 10
907.5863119489
 20
44.3962902201
 40
900.6605685223
100
AcDbArc
 50
179.3447481224
 51
180.6552518779
  0
ARC
  5
246
100
AcDbEntity
  8
0
100
AcDbCircle
 62
7
  6
BYLAYER
 10
907.6063046319
 20
44.3962902193
 40
900.6605682428
100
AcDbArc
 50
179.3447481221
 51
180.655251878
  0
CIRCLE
  5
247
100
AcDbEntity
  8
0
100
AcDbCircle
 62
7
  6
BYLAYER
 10
48.7830909363
 20
44.3962902189
 40
6.5
  0
CIRCLE
  5
248
100
AcDbEntity
  8
0
100
AcDbCircle
 62
7
  6
BYLAYER
 10
48.7830909363
 20
44.3962902189
 40
6.4742788095
  0
CIRCLE
  5
249
100
AcDbEntity
  8
0
100
AcDbCircle
 62
7
  6
BYLAYER
 10
48.7830909363
 20
44.3962902189
 40
5.9999999999
  0
CIRCLE
  5
24A
100
AcDbEntity
  8
0
100
AcDbCircle
 62
7
  6
BYLAYER
 10
48.7830909363
 20
44.3962902189
 40
5.4
  0
ARC
  5
24B
100
AcDbEntity
  8
0
100
AcDbCircle
 62
7
  6
BYLAYER
 10
48.7830909363
 20
44.3962902189
 40
5.2441510942
100
AcDbArc
 50
61.3521102333
 51
61.1692673549
  0
CIRCLE
  5
24C
100
AcDbEntity
  8
0
100
AcDbCircle
 62
7
  6
BYLAYER
 10
48.7830909363
 20
44.3962902189
 40
5.1500000001
  0
CIRCLE
  5
24D
100
AcDbEntity
  8
0
100
AcDbCircle
 62
7
  6
BYLAYER
 10
48.7830909363
 20
44.3962902189
 40
4.9893427711
  0
CIRCLE
  5
24E
100
AcDbEntity
  8
0
100
AcDbCircle
 62
7
  6
BYLAYER
 10
48.7830909363
 20
44.3962902189
 40
4.81281343
  0
ARC
  5
24F
100
AcDbEntity
  8
0
100
AcDbCircle
 62
7
  6
BYLAYER
 10
48.3881225348
 20
48.4378519925
 40
3.9583641909
100
AcDbArc
 50
91.7641526443
 51
92.0017715723
  0
ARC
  5
250
100
AcDbEntity
  8
0
100
AcDbCircle
 62
7
  6
BYLAYER
 10
54.8373612017
 20
55.6963122832
 40
0.2817486357
100
AcDbArc
 50
359.9955130538
 51
5.4042246201
  0
ARC
  5
251
100
AcDbEntity
  8
0
100
AcDbCircle
 62
7
  6
BYLAYER
 10
54.9776884807
 20
55.6962902189
 40
0.2
100
AcDbArc
 50
0.0
 51
89.999999788
  0
SPLINE
  5
252
100
AcDbEntity
  8
0
100
AcDbSpline
 62
7
  6
BYLAYER
 70
0
 71
3
 72
13
 73
9
 74
0
 42
0.0000001
 43
0.0000001
 44
0.0000000001
 40
0.0
 40
0.0
 40
0.0
 40
0.0
 40
0.1167570352
 40
0.2344465206
 40
0.3539148061
 40
0.4759328652
 40
0.7298600614
 40
1.0
 40
1.0
 40
1.0
 40
1.0
 10
48.3893665853
 20
36.3962901327
 30
0.0
 10
48.5582835895
 20
36.3963412005
 30
0.0
 10
48.8978407658
 20
36.4181962091
 30
0.0
 10
49.4018851437
 20
36.5150263505
 30
0.0
 10
49.8976700538
 20
36.6748969002
 30
0.0
 10
50.5504927511
 20
36.9743486092
 30
0.0
 10
51.3262721269
 20
37.5095068513
 30
0.0
 10
51.8562406331
 20
38.0585203674
 30
0.0
 10
52.1028099766
 20
38.3617455033
 30
0.0
  0
SPLINE
  5
253
100
AcDbEntity
  8
0
100
AcDbSpline
 62
7
  6
BYLAYER
 70
0
 71
3
 72
11
 73
7
 74
0
 42
0.0000001
 43
0.0000001
 44
0.0000000001
 40
0.0
 40
0.0
 40
0.0
 40
0.0
 40
0.2662619424
 40
0.5193321163
 40
0.762364002
 40
1.0
 40
1.0
 40
1.0
 40
1.0
 10
51.6553841346
 20
50.9282935763
 30
0.0
 10
51.4250535939
 20
51.1586225923
 30
0.0
 10
50.9387005497
 20
51.5730115073
 30
0.0
 10
50.1268583211
 20
52.0433186281
 30
0.0
 10
49.2699780861
 20
52.3309320149
 30
0.0
 10
48.6801101471
 20
52.3962267019
 30
0.0
 10
48.3893946305
 20
52.396286589
 30
0.0
  0
LINE
  5
254
100
AcDbEntity
  8
0
100
AcDbLine
 62
7
  6
BYLAYER
 10
6.9738507639
 20
55.6963339535
 11
6.9636581546
 21
54.7334737781
  0
LINE
  5
255
100
AcDbEntity
  8
0
100
AcDbLine
 62
7
  6
BYLAYER
 10
6.9636609247
 20
34.0590853838
 11
6.9738508358
 21
33.0962464823
  0
LINE
  5
256
100
AcDbEntity
  8
0
100
AcDbLine
 62
7
  6
BYLAYER
 10
48.278653184
 20
36.4345153981
 11
48.7830909363
 21
37.8962902189
  0
SPLINE
  5
257
100
AcDbEntity
  8
0
100
AcDbSpline
 62
7
  6
BYLAYER
 70
0
 71
3
 72
15
 73
11
 74
0
 42
0.0000001
 43
0.0000001
 44
0.0000000001
 40
0.0
 40
0.0
 40
0.0
 40
0.0
 40
0.1121085409
 40
0.2260113924
 40
0.3429832131
 40
0.4641138638
 40
0.5901550084
 40
0.7214582842
 40
0.8581264581
 40
1.0
 40
1.0
 40
1.0
 40
1.0
 10
48.2498552997
 20
52.3938005816
 30
0.0
 10
48.0295531692
 20
52.3861006975
 30
0.0
 10
47.5859150512
 20
52.3332158085
 30
0.0
 10
46.9352998975
 20
52.1458587586
 30
0.0
 10
46.3050658504
 20
51.8533358802
 30
0.0
 10
45.704865129
 20
51.4585550638
 30
0.0
 10
45.1422817274
 20
50.9682855307
 30
0.0
 10
44.6238624877
 20
50.3901037315
 30
0.0
 10
44.157091126
 20
49.7312383121
 30
0.0
 10
43.8891840312
 20
49.2522701394
 30
0.0
 10
43.7648280098
 20
49.0025584999
 30
0.0
  0
LINE
  5
258
100
AcDbEntity
  8
0
100
AcDbLine
 62
7
  6
BYLAYER
 10
48.2786490864
 20
52.358076914
 11
48.7830908793
 21
50.8962903841
  0
SPLINE
  5
259
100
AcDbEntity
  8
0
100
AcDbSpline
 62
7
  6
BYLAYER
 70
0
 71
3
 72
17
 73
13
 74
0
 42
0.0000001
 43
0.0000001
 44
0.0000000001
 40
0.0
 40
0.0
 40
0.0
 40
0.0
 40
0.094083652
 40
0.1778172028
 40
0.2187653997
 40
0.2600340575
 40
0.3036287903
 40
0.3526670545
 40
0.4731129683
 40
0.6221243906
 40
0.8002680086
 40
1.0
 40
1.0
 40
1.0
 40
1.0
 10
51.6554093682
 20
50.9282645098
 30
0.0
 10
51.6594472317
 20
50.8961060852
 30
0.0
 10
51.6628263384
 20
50.8345167715
 30
0.0
 10
51.6453108473
 20
50.7593458231
 30
0.0
 10
51.6149068244
 20
50.710388806
 30
0.0
 10
51.5845480559
 20
50.6790106399
 30
0.0
 10
51.546195015
 20
50.6529169831
 30
0.0
 10
51.4794803048
 20
50.6217349562
 30
0.0
 10
51.3721309859
 20
50.5953235448
 30
0.0
 10
51.2187732048
 20
50.5785626772
 30
0.0
 10
51.0374147739
 20
50.569737289
 30
0.0
 10
50.9073218089
 20
50.5654857849
 30
0.0
 10
50.8385711586
 20
50.5627316462
 30
0.0
  0
SPLINE
  5
25A
100
AcDbEntity
  8
0
100
AcDbSpline
 62
7
  6
BYLAYER
 70
0
 71
3
 72
11
 73
7
 74
0
 42
0.0000001
 43
0.0000001
 44
0.0000000001
 40
0.0
 40
0.0
 40
0.0
 40
0.0
 40
0.2119196716
 40
0.4467411565
 40
0.7121333819
 40
1.0
 40
1.0
 40
1.0
 40
1.0
 10
42.0948457679
 20
32.8962902189
 30
0.0
 10
42.1119495147
 20
32.8962902189
 30
0.0
 10
42.1483866946
 20
32.9063285648
 30
0.0
 10
42.1924079676
 20
32.9455693512
 30
0.0
 10
42.2230036633
 20
33.0024397341
 30
0.0
 10
42.2328235758
 20
33.0466028209
 30
0.0
 10
42.2350147587
 20
33.0697325836
 30
0.0
  0
SPLINE
  5
25B
100
AcDbEntity
  8
0
100
AcDbSpline
 62
7
  6
BYLAYER
 70
0
 71
3
 72
15
 73
11
 74
0
 42
0.0000001
 43
0.0000001
 44
0.0000000001
 40
0.0
 40
0.0
 40
0.0
 40
0.0
 40
0.1418640233
 40
0.2785238376
 40
0.4098215451
 40
0.5358605043
 40
0.6569927819
 40
0.7739701149
 40
0.8878814172
 40
1.0
 40
1.0
 40
1.0
 40
1.0
 10
43.7667571489
 20
39.7861504886
 30
0.0
 10
43.891135326
 20
39.5367025244
 30
0.0
 10
44.1590546238
 20
39.0582497232
 30
0.0
 10
44.6257495041
 20
38.4001238405
 30
0.0
 10
45.1439948566
 20
37.8226064294
 30
0.0
 10
45.7063247377
 20
37.3329111865
 30
0.0
 10
46.3062053977
 20
36.9386021202
 30
0.0
 10
46.9360614654
 20
36.6464262945
 30
0.0
 10
47.586260235
 20
36.4592829721
 30
0.0
 10
48.0296034754
 20
36.4064477452
 30
0.0
 10
48.2497613563
 20
36.3987480555
 30
0.0
  0
SPLINE
  5
25C
100
AcDbEntity
  8
0
100
AcDbSpline
 62
7
  6
BYLAYER
 70
0
 71
3
 72
9
 73
5
 74
0
 42
0.0000001
 43
0.0000001
 44
0.0000000001
 40
0.0
 40
0.0
 40
0.0
 40
0.0
 40
0.5134147859
 40
1.0
 40
1.0
 40
1.0
 40
1.0
 10
42.1616457914
 20
55.8725727022
 30
0.0
 10
42.1518465898
 20
55.8799992698
 30
0.0
 10
42.1306098488
 20
55.8919620953
 30
0.0
 10
42.1064987006
 20
55.8962902188
 30
0.0
 10
42.0948457687
 20
55.8962902189
 30
0.0
  0
SPLINE
  5
25D
100
AcDbEntity
  8
0
100
AcDbSpline
 62
7
  6
BYLAYER
 70
0
 71
3
 72
9
 73
5
 74
0
 42
0.0000001
 43
0.0000001
 44
0.0000000001
 40
0.0
 40
0.0
 40
0.0
 40
0.0
 40
0.533382679
 40
1.0
 40
1.0
 40
1.0
 40
1.0
 10
42.236267125
 20
55.6962902189
 30
0.0
 10
42.236267125
 20
55.7311812188
 30
0.0
 10
42.2246806602
 20
55.7971921646
 30
0.0
 10
42.1859723899
 20
55.8541361871
 30
0.0
 10
42.1616457914
 20
55.8725727022
 30
0.0
  0
SPLINE
  5
25E
100
AcDbEntity
  8
0
100
AcDbSpline
 62
7
  6
BYLAYER
 70
0
 71
3
 72
9
 73
5
 74
0
 42
0.0000001
 43
0.0000001
 44
0.0000000001
 40
0.0
 40
0.0
 40
0.0
 40
0.0
 40
0.5134147859
 40
1.0
 40
1.0
 40
1.0
 40
1.0
 10
55.0444885034
 20
32.9200077356
 30
0.0
 10
55.0346893017
 20
32.912581168
 30
0.0
 10
55.0134525608
 20
32.9006183426
 30
0.0
 10
54.9893414126
 20
32.8962902189
 30
0.0
 10
54.9776884807
 20
32.8962902189
 30
0.0
  0
SPLINE
  5
25F
100
AcDbEntity
  8
0
100
AcDbSpline
 62
7
  6
BYLAYER
 70
0
 71
3
 72
9
 73
5
 74
0
 42
0.0000001
 43
0.0000001
 44
0.0000000001
 40
0.0
 40
0.0
 40
0.0
 40
0.0
 40
0.2519366402
 40
1.0
 40
1.0
 40
1.0
 40
1.0
 10
55.1191098369
 20
33.0962902189
 30
0.0
 10
55.1191098369
 20
33.0903454439
 30
0.0
 10
55.1183481322
 20
33.0667573663
 30
0.0
 10
55.1146433263
 20
33.0432477877
 30
0.0
 10
55.1101361172
 20
33.0261813952
 30
0.0
  0
SPLINE
  5
260
100
AcDbEntity
  8
0
100
AcDbSpline
 62
7
  6
BYLAYER
 70
0
 71
3
 72
9
 73
5
 74
0
 42
0.0000001
 43
0.0000001
 44
0.0000000001
 40
0.0
 40
0.0
 40
0.0
 40
0.0
 40
0.2586354485
 40
1.0
 40
1.0
 40
1.0
 40
1.0
 10
55.1101361172
 20
33.0261813952
 30
0.0
 10
55.108660462
 20
33.0205938776
 30
0.0
 10
55.102223597
 20
32.9991968181
 30
0.0
 10
55.0928263166
 20
32.97863611
 30
0.0
 10
55.0840985065
 20
32.9645563479
 30
0.0
  0
SPLINE
  5
261
100
AcDbEntity
  8
0
100
AcDbSpline
 62
7
  6
BYLAYER
 70
0
 71
3
 72
9
 73
5
 74
0
 42
0.0000001
 43
0.0000001
 44
0.0000000001
 40
0.0
 40
0.0
 40
0.0
 40
0.0
 40
0.2626345177
 40
1.0
 40
1.0
 40
1.0
 40
1.0
 10
55.0840985065
 20
32.9645563479
 30
0.0
 10
55.0813406166
 20
32.9601073011
 30
0.0
 10
55.0701670445
 20
32.9436087706
 30
0.0
 10
55.0562010707
 20
32.9288843948
 30
0.0
 10
55.0444885034
 20
32.9200077356
 30
0.0
  0
SPLINE
  5
262
100
AcDbEntity
  8
0
100
AcDbSpline
 62
7
  6
BYLAYER
 70
0
 71
3
 72
11
 73
7
 74
0
 42
0.0000001
 43
0.0000001
 44
0.0000000001
 40
0.0
 40
0.0
 40
0.0
 40
0.0
 40
0.2119196717
 40
0.4467411565
 40
0.7121333819
 40
1.0
 40
1.0
 40
1.0
 40
1.0
 10
54.9776884802
 20
55.8962902189
 30
0.0
 10
54.9947922271
 20
55.8962902189
 30
0.0
 10
55.031229407
 20
55.886251873
 30
0.0
 10
55.07525068
 20
55.8470110866
 30
0.0
 10
55.1058463757
 20
55.7901407037
 30
0.0
 10
55.1156662882
 20
55.7459776168
 30
0.0
 10
55.1178574711
 20
55.7228478541
 30
0.0
  0
ENDSEC
  0
SECTION
  2
OBJECTS
  0
DICTIONARY
  5
C
100
AcDbDictionary
280
0
281
1
  3
ACAD_GROUP
350
D
  3
ACAD_MLINESTYLE
350
17
  3
ACAD_LAYOUT
350
1A
  3
ACAD_PLOTSETTINGS
350
19
  3
ACAD_PLOTSTYLENAME
350
E
  0
DICTIONARY
  5
D
102
{ACAD_REACTORS
330
C
102
}
100
AcDbDictionary
280
0
281
1
  0
ACDBDICTIONARYWDFLT
  5
E
102
{ACAD_REACTORS
330
C
102
}
100
AcDbDictionary
281
1
  3
Normal
350
F
100
AcDbDictionaryWithDefault
340
F
  0
DICTIONARY
  5
17
102
{ACAD_REACTORS
330
C
102
}
100
AcDbDictionary
280
0
281
1
  3
Standard
350
18
  0
DICTIONARY
  5
19
102
{ACAD_REACTORS
330
C
102
}
100
AcDbDictionary
281
1
  0
DICTIONARY
  5
1A
102
{ACAD_REACTORS
330
C
102
}
100
AcDbDictionary
281
1
  3
Model
350
263
  3
Layout1
350
264
  0
ACDBPLACEHOLDER
  5
F
102
{ACAD_REACTORS
330
E
102
}
  0
MLINESTYLE
  5
18
102
{ACAD_REACTORS
330
17
102
}
100
AcDbMlineStyle
  2
STANDARD
 70
0
  3

 62
256
 51
90.0
 52
90.0
 71
2
 49
0.5
 62
256
  6
BYLAYER
 49
-0.5
 62
256
  6
BYLAYER
  0
LAYOUT
  5
263
102
{ACAD_REACTORS
330
1A
102
}
100
AcDbPlotSettings
  1

  2
none_device
  4

  6

 40
0.0
 41
0.0
 42
0.0
 43
0.0
 44
210.0
 45
297.0
 46
0.0
 47
0.0
 48
0.0
 49
0.0
140
0.0
141
0.0
142
1.0
143
1.0
 70
1024
 72
1
 73
0
 74
0
  7

 75
0
147
1.0
148
0.0
149
0.0
100
AcDbLayout
  1
Model
 70
0
 71
0
 10
0.0
 20
0.0
 11
210.0
 21
297.0
 12
0.0
 22
0.0
 32
0.0
 14
0.0
 24
0.0
 34
0.0
 15
0.0
 25
0.0
 35
0.0
146
0.0
 13
0.0
 23
0.0
 33
0.0
 16
1.0
 26
0.0
 36
0.0
 17
0.0
 27
1.0
 37
0.0
 76
0
330
210
345
0
346
0
  0
LAYOUT
  5
264
102
{ACAD_REACTORS
330
1A
102
}
100
AcDbPlotSettings
  1

  2
none_device
  4

  6

 40
0.0
 41
0.0
 42
0.0
 43
0.0
 44
210.0
 45
297.0
 46
0.0
 47
0.0
 48
0.0
 49
0.0
140
0.0
141
0.0
142
1.0
143
1.0
 70
0
 72
1
 73
0
 74
0
  7

 75
0
147
1.0
148
0.0
149
0.0
100
AcDbLayout
  1
Layout1
 70
0
 71
1
 10
0.0
 20
0.0
 11
210.0
 21
297.0
 12
0.0
 22
0.0
 32
0.0
 14
0.0
 24
0.0
 34
0.0
 15
0.0
 25
0.0
 35
0.0
146
0.0
 13
0.0
 23
0.0
 33
0.0
 16
1.0
 26
0.0
 36
0.0
 17
0.0
 27
1.0
 37
0.0
 76
0
330
211
345
0
346
0
  0
ENDSEC
  0
EOF
