999
DXF file: C:\Users\sesa63760\Dev\_Creo\CAD\MCADID0004745_3D-CAD\drw0001_2.dxf
999
Pro/ENGINEER 2019471 by Parametric Technology Corporation
  0
SECTION
  2
HEADER
  9
$ACADVER
  1
AC1024
  9
$DWGCODEPAGE
  3
ANSI_1252
  9
$EXTMAX
 10
31.7517372305
 20
44.9060283688
 30
0.0
  9
$EXTMIN
 10
0.0
 20
0.0
 30
0.0
  9
$LIMMIN
 10
0.0
 20
0.0
  9
$LIMMAX
 10
31.7517372305
 20
44.9060283688
  9
$VIEWCTR
 10
15.8758686152
 20
22.4530141844
  9
$VIEWSIZE
 40
44.9060283688
  9
$CLAYER
  8
0
  9
$LTSCALE
 40
2.9272077752
  9
$CELTYPE
  6
BYLAYER
  9
$DIMSCALE
 40
1.0
  9
$DIMASZ
 40
0.3779968718
  9
$DIMEXO
 40
1.0
  9
$DIMDLI
 40
2.0224344628
  9
$DIMEXE
 40
1.0
  9
$DIMCEN
 40
0.4789976359
  9
$DIMLFAC
 40
1.0
  9
$DIMBLK
  1
_FILLED
  9
$DIMALT
 70
0
  9
$DIMALTF
 40
0.0393700787
  9
$DIMTXT
 40
0.5291956205
  9
$DIMTOL
 70
1
  9
$DIMLIM
 70
0
  9
$DIMTFAC
 40
1.0
  9
$DIMTP
 40
0.01
  9
$DIMTM
 40
0.01
  9
$DIMGAP
 40
0.625
  9
$DIMDSEP
 70
46
  9
$AUNITS
 70
0
  9
$PDMODE
 70
3
  9
$PDSIZE
 40
0.3125
  9
$HANDSEED
  5
25C
  9
$TILEMODE
 70
1
  9
$MEASUREMENT
 70
1
  9
$INSUNITS
 70
4
  0
ENDSEC
  0
SECTION
  2
CLASSES
  0
CLASS
  1
ACDBDICTIONARYWDFLT
  2
AcDbDictionaryWithDefault
  3
AutoCAD 2000
 90
0
 91
1
280
0
281
0
  0
CLASS
  1
ACDBPLACEHOLDER
  2
AcDbPlaceHolder
  3
AutoCAD 2000
 90
0
 91
1
280
0
281
0
  0
CLASS
  1
LAYOUT
  2
AcDbLayout
  3
AutoCAD 2000
 90
0
 91
0
280
0
281
0
  0
ENDSEC
  0
SECTION
  2
TABLES
  0
TABLE
  2
VPORT
  5
8
100
AcDbSymbolTable
 70
2
  0
VPORT
  5
1F4
100
AcDbSymbolTableRecord
100
AcDbViewportTableRecord
  2
*ACTIVE
 70
0
 10
0.0
 20
0.0
 11
1.0
 21
1.0
 12
15.8758686152
 22
22.4530141844
 13
0.0
 23
0.0
 14
1.0
 24
1.0
 15
0.0
 25
0.0
 16
0.0
 26
0.0
 36
1.0
 17
0.0
 27
0.0
 37
0.0
 40
44.9060283688
 41
0.7070707071
 42
50.0
 43
0.0
 44
0.0
 50
0.0
 51
0.0
 71
0
 72
100
 73
1
 74
1
 75
0
 76
0
 77
0
 78
0
  0
ENDTAB
  0
TABLE
  2
LTYPE
  5
5
100
AcDbSymbolTable
 70
6
  0
LTYPE
  5
14
100
AcDbSymbolTableRecord
100
AcDbLinetypeTableRecord
  2
BYBLOCK
 70
0
  3

 72
65
 73
0
 40
0.0
  0
LTYPE
  5
15
100
AcDbSymbolTableRecord
100
AcDbLinetypeTableRecord
  2
BYLAYER
 70
0
  3

 72
65
 73
0
 40
0.0
  0
LTYPE
  5
16
100
AcDbSymbolTableRecord
100
AcDbLinetypeTableRecord
  2
CONTINUOUS
 70
64
  3
Solid line
 72
65
 73
0
 40
0.0
  0
LTYPE
  5
1F5
100
AcDbSymbolTableRecord
100
AcDbLinetypeTableRecord
  2
CENTER
 70
64
  3
____ _ ____ _ ____ _ ____ _ ____ _ ____ _ ____
 72
65
 73
4
 40
0.6
 49
0.375
 74
0
 49
-0.075
 74
0
 49
0.075
 74
0
 49
-0.075
 74
0
  0
LTYPE
  5
1F6
100
AcDbSymbolTableRecord
100
AcDbLinetypeTableRecord
  2
HIDDEN
 70
64
  3
- - - - - - - - - - - - - - - - - - - -
 72
65
 73
2
 40
0.2
 49
0.1
 74
0
 49
-0.1
 74
0
  0
LTYPE
  5
1F7
100
AcDbSymbolTableRecord
100
AcDbLinetypeTableRecord
  2
PHANTOM
 70
64
  3
_____ _ _ _____ _ _ _____ _ _ _____
 72
65
 73
6
 40
0.8
 49
0.45
 74
0
 49
-0.05
 74
0
 49
0.1
 74
0
 49
-0.05
 74
0
 49
0.1
 74
0
 49
-0.05
 74
0
  0
LTYPE
  5
1F8
100
AcDbSymbolTableRecord
100
AcDbLinetypeTableRecord
  2
DOT
 70
64
  3
. . . . . . . . . . . . . . . . . . . .
 72
65
 73
2
 40
0.2
 49
0.1
 74
0
 49
-0.1
 74
0
  0
LTYPE
  5
1F9
100
AcDbSymbolTableRecord
100
AcDbLinetypeTableRecord
  2
DASHED
 70
64
  3
- - - - - - - - - - - - - - - - - - - -
 72
65
 73
2
 40
0.2
 49
0.1
 74
0
 49
-0.1
 74
0
  0
ENDTAB
  0
TABLE
  2
LAYER
  5
2
100
AcDbSymbolTable
 70
36
  0
LAYER
  5
10
100
AcDbSymbolTableRecord
100
AcDbLayerTableRecord
  2
0
 70
0
 62
7
  6
CONTINUOUS
370
-3
390
F
  0
LAYER
  5
1FA
100
AcDbSymbolTableRecord
100
AcDbLayerTableRecord
  2
DEFAULT_1
 70
0
 62
7
  6
CENTER
370
-3
390
F
  0
LAYER
  5
1FB
100
AcDbSymbolTableRecord
100
AcDbLayerTableRecord
  2
DEFAULT_2
 70
0
 62
7
  6
HIDDEN
370
-3
390
F
  0
LAYER
  5
1FC
100
AcDbSymbolTableRecord
100
AcDbLayerTableRecord
  2
DEFAULT_3
 70
0
 62
7
  6
PHANTOM
370
-3
390
F
  0
LAYER
  5
1FD
100
AcDbSymbolTableRecord
100
AcDbLayerTableRecord
  2
00_COMPONENTS
 70
0
 62
7
  6
CONTINUOUS
370
-3
390
F
  0
LAYER
  5
1FE
100
AcDbSymbolTableRecord
100
AcDbLayerTableRecord
  2
01_1_DEFAULT_DATUMS
 70
0
 62
7
  6
CONTINUOUS
370
-3
390
F
  0
LAYER
  5
1FF
100
AcDbSymbolTableRecord
100
AcDbLayerTableRecord
  2
01_PLANES
 70
0
 62
7
  6
CONTINUOUS
370
-3
390
F
  0
LAYER
  5
200
100
AcDbSymbolTableRecord
100
AcDbLayerTableRecord
  2
02_COORD_SYS
 70
0
 62
7
  6
CONTINUOUS
370
-3
390
F
  0
LAYER
  5
201
100
AcDbSymbolTableRecord
100
AcDbLayerTableRecord
  2
03_AXES
 70
0
 62
7
  6
CONTINUOUS
370
-3
390
F
  0
LAYER
  5
202
100
AcDbSymbolTableRecord
100
AcDbLayerTableRecord
  2
04_POINTS
 70
0
 62
7
  6
CONTINUOUS
370
-3
390
F
  0
LAYER
  5
203
100
AcDbSymbolTableRecord
100
AcDbLayerTableRecord
  2
05_CURVES
 70
0
 62
7
  6
CONTINUOUS
370
-3
390
F
  0
LAYER
  5
204
100
AcDbSymbolTableRecord
100
AcDbLayerTableRecord
  2
06_SURFS
 70
0
 62
7
  6
CONTINUOUS
370
-3
390
F
  0
LAYER
  5
205
100
AcDbSymbolTableRecord
100
AcDbLayerTableRecord
  2
07_COSMETICS
 70
0
 62
7
  6
CONTINUOUS
370
-3
390
F
  0
LAYER
  5
206
100
AcDbSymbolTableRecord
100
AcDbLayerTableRecord
  2
10_NOTES
 70
0
 62
7
  6
CONTINUOUS
370
-3
390
F
  0
LAYER
  5
207
100
AcDbSymbolTableRecord
100
AcDbLayerTableRecord
  2
11_NOTES_PUB
 70
0
 62
7
  6
CONTINUOUS
370
-3
390
F
  0
LAYER
  5
208
100
AcDbSymbolTableRecord
100
AcDbLayerTableRecord
  2
13_REF_GTOL
 70
0
 62
7
  6
CONTINUOUS
370
-3
390
F
  0
LAYER
  5
209
100
AcDbSymbolTableRecord
100
AcDbLayerTableRecord
  2
16_MISC
 70
0
 62
7
  6
CONTINUOUS
370
-3
390
F
  0
LAYER
  5
20A
100
AcDbSymbolTableRecord
100
AcDbLayerTableRecord
  2
17_NO_PRINT
 70
0
 62
7
  6
CONTINUOUS
370
-3
390
F
  0
LAYER
  5
20B
100
AcDbSymbolTableRecord
100
AcDbLayerTableRecord
  2
18_DATUM_CAMS_JOINTS
 70
0
 62
7
  6
CONTINUOUS
370
-3
390
F
  0
LAYER
  5
20C
100
AcDbSymbolTableRecord
100
AcDbLayerTableRecord
  2
19_DATUM_FUNCTIONAL
 70
0
 62
7
  6
CONTINUOUS
370
-3
390
F
  0
LAYER
  5
20D
100
AcDbSymbolTableRecord
100
AcDbLayerTableRecord
  2
20_DATUM_KINEMATIC_SCHEME
 70
0
 62
7
  6
CONTINUOUS
370
-3
390
F
  0
ENDTAB
  0
TABLE
  2
STYLE
  5
3
100
AcDbSymbolTable
 70
1
  0
STYLE
  5
11
100
AcDbSymbolTableRecord
100
AcDbTextStyleTableRecord
  2
STANDARD
 70
0
 40
0.0
 41
1.0
 50
0.0
 71
0
 42
0.2
  3
ARIAL.TTF
  4

  0
STYLE
  5
20E
100
AcDbSymbolTableRecord
100
AcDbTextStyleTableRecord
  2
TEXTSTYLE_1
 70
0
 40
0.0
 41
0.8
 50
0.0
 71
0
 42
0.2
  3
gdt
  4

  0
ENDTAB
  0
TABLE
  2
VIEW
  5
6
100
AcDbSymbolTable
 70
0
  0
ENDTAB
  0
TABLE
  2
UCS
  5
7
100
AcDbSymbolTable
 70
0
  0
ENDTAB
  0
TABLE
  2
APPID
  5
9
100
AcDbSymbolTable
 70
1
  0
APPID
  5
20F
100
AcDbSymbolTableRecord
100
AcDbRegAppTableRecord
  2
ACAD
 70
0
  0
ENDTAB
  0
TABLE
  2
BLOCK_RECORD
  5
1
100
AcDbSymbolTable
 70
0
  0
BLOCK_RECORD
  5
210
100
AcDbSymbolTableRecord
100
AcDbBlockTableRecord
  2
*Model_Space
  0
BLOCK_RECORD
  5
211
100
AcDbSymbolTableRecord
100
AcDbBlockTableRecord
  2
*Paper_Space
  0
BLOCK_RECORD
  5
212
100
AcDbSymbolTableRecord
100
AcDbBlockTableRecord
  2
_FILLED
  0
ENDTAB
  0
TABLE
  2
DIMSTYLE
  5
A
100
AcDbSymbolTable
 70
1
100
AcDbDimStyleTable
 71
0
  0
DIMSTYLE
105
213
100
AcDbSymbolTableRecord
100
AcDbDimStyleTableRecord
  2
STANDARD
 70
0
  3

  4

 40
1.0
 41
0.3779968718
 42
1.0
 43
0.38
 44
1.0
 45
0.0
 46
0.0
 47
0.01
 48
0.01
140
0.5291956205
141
0.09
142
0.0
143
25.4
144
1.0
145
0.0
146
1.0
147
0.625
 71
1
 72
0
 73
0
 74
0
 75
0
 76
0
 77
1
 78
8
 79
2
170
0
171
1
172
0
173
0
174
0
175
0
176
0
177
0
178
0
270
2
179
2
271
2
272
2
273
2
274
2
275
0
280
0
281
0
282
0
283
1
284
8
285
0
286
0
287
3
288
0
340
11
278
46
341
212
342
212
343
212
344
212
  0
ENDTAB
  0
ENDSEC
  0
SECTION
  2
BLOCKS
  0
BLOCK
  5
20
100
AcDbEntity
  8
0
100
AcDbBlockBegin
  2
*Model_Space
 70
0
 10
0.0
 20
0.0
 30
0.0
  3
*Model_Space
  1

  0
ENDBLK
  5
21
100
AcDbEntity
  8
0
100
AcDbBlockEnd
  0
BLOCK
  5
1C
100
AcDbEntity
  8
0
100
AcDbBlockBegin
  2
*Paper_Space
 70
0
 10
0.0
 20
0.0
 30
0.0
  3
*Paper_Space
  1

  0
ENDBLK
  5
1D
100
AcDbEntity
  8
0
100
AcDbBlockEnd
  0
BLOCK
  5
214
100
AcDbEntity
  8
0
100
AcDbBlockBegin
  2
_FILLED
 70
64
 10
0.0
 20
0.0
  3
_FILLED
  1

  0
SOLID
  5
215
100
AcDbEntity
  8
0
  6
BYBLOCK
 62
0
100
AcDbTrace
 10
0.0
 20
0.0
 11
-1.0
 21
0.25
 12
-1.0
 22
-0.25
 13
-1.0
 23
-0.25
  0
ENDBLK
  5
216
100
AcDbEntity
  8
0
  6
BYBLOCK
 62
0
100
AcDbBlockEnd
  0
ENDSEC
  0
SECTION
  2
ENTITIES
  0
LINE
  5
217
100
AcDbEntity
  8
0
100
AcDbLine
 62
7
  6
BYLAYER
 10
21.9456918624
 20
2.9955673759
 11
10.2457616802
 21
2.9955673759
  0
LINE
  5
218
100
AcDbEntity
  8
0
100
AcDbLine
 62
7
  6
BYLAYER
 10
22.4457267713
 20
3.4955673759
 11
9.7457267713
 21
3.4955673759
  0
LINE
  5
219
100
AcDbEntity
  8
0
100
AcDbLine
 62
7
  6
BYLAYER
 10
9.7458100876
 20
5.4955673759
 11
22.4456434549
 21
5.4955673759
  0
LINE
  5
21A
100
AcDbEntity
  8
0
100
AcDbLine
 62
7
  6
BYLAYER
 10
22.0957267713
 20
5.5955673759
 11
10.0957267713
 21
5.5955673759
  0
LINE
  5
21B
100
AcDbEntity
  8
0
100
AcDbLine
 62
7
  6
BYLAYER
 10
22.0957267713
 20
6.5955673759
 11
10.0957267713
 21
6.5955673759
  0
LINE
  5
21C
100
AcDbEntity
  8
0
100
AcDbLine
 62
7
  6
BYLAYER
 10
22.4456434549
 20
6.6955673759
 11
9.7458100876
 21
6.6955673759
  0
LINE
  5
21D
100
AcDbEntity
  8
0
100
AcDbLine
 62
7
  6
BYLAYER
 10
9.7458100876
 20
7.8455673759
 11
22.4456434549
 21
7.8455673759
  0
LINE
  5
21E
100
AcDbEntity
  8
0
100
AcDbLine
 62
7
  6
BYLAYER
 10
22.7956390503
 20
9.1955673759
 11
9.3958144922
 21
9.1955673759
  0
LINE
  5
21F
100
AcDbEntity
  8
0
100
AcDbLine
 62
7
  6
BYLAYER
 10
24.0957223541
 20
11.2955673759
 11
8.0957311884
 21
11.2955673759
  0
LINE
  5
220
100
AcDbEntity
  8
0
100
AcDbLine
 62
7
  6
BYLAYER
 10
8.0957267713
 20
12.9955673759
 11
24.0957267713
 21
12.9955673759
  0
LINE
  5
221
100
AcDbEntity
  8
0
100
AcDbLine
 62
7
  6
BYLAYER
 10
8.5958221338
 20
13.4955673759
 11
23.5956314087
 21
13.4955673759
  0
LINE
  5
222
100
AcDbEntity
  8
0
100
AcDbLine
 62
7
  6
BYLAYER
 10
8.0957267713
 20
11.2955673759
 11
8.0957267713
 21
12.9955673759
  0
LINE
  5
223
100
AcDbEntity
  8
0
100
AcDbLine
 62
7
  6
BYLAYER
 10
9.3957267713
 20
9.1955673759
 11
9.3957267713
 21
11.2955673759
  0
LINE
  5
224
100
AcDbEntity
  8
0
100
AcDbLine
 62
7
  6
BYLAYER
 10
9.7457267713
 20
3.4955673759
 11
9.7457267713
 21
5.4955673759
  0
LINE
  5
225
100
AcDbEntity
  8
0
100
AcDbLine
 62
7
  6
BYLAYER
 10
9.7457267713
 20
6.6955673759
 11
9.7457267713
 21
7.8455673759
  0
LINE
  5
226
100
AcDbEntity
  8
0
100
AcDbLine
 62
7
  6
BYLAYER
 10
9.8957267713
 20
13.4955673759
 11
9.8957267713
 21
21.1955673759
  0
LINE
  5
227
100
AcDbEntity
  8
0
100
AcDbLine
 62
7
  6
BYLAYER
 10
10.4957267713
 20
5.4955673759
 11
10.4957267713
 21
5.5955673759
  0
LINE
  5
228
100
AcDbEntity
  8
0
100
AcDbLine
 62
7
  6
BYLAYER
 10
10.4957267713
 20
6.5955673759
 11
10.4957267713
 21
6.6955673759
  0
LINE
  5
229
100
AcDbEntity
  8
0
100
AcDbLine
 62
7
  6
BYLAYER
 10
10.5957267713
 20
7.8455673759
 11
10.5957267713
 21
9.1955673759
  0
LINE
  5
22A
100
AcDbEntity
  8
0
100
AcDbLine
 62
7
  6
BYLAYER
 10
12.0957267713
 20
41.7455673759
 11
12.0957267713
 21
34.2455673759
  0
LINE
  5
22B
100
AcDbEntity
  8
0
100
AcDbLine
 62
7
  6
BYLAYER
 10
12.0957267713
 20
22.1955673759
 11
12.0957267713
 21
27.8455673759
  0
LINE
  5
22C
100
AcDbEntity
  8
0
100
AcDbLine
 62
7
  6
BYLAYER
 10
12.5957267713
 20
34.2455673759
 11
12.5957267713
 21
27.8455673759
  0
LINE
  5
22D
100
AcDbEntity
  8
0
100
AcDbLine
 62
7
  6
BYLAYER
 10
10.8957267713
 20
22.1955673759
 11
9.8957267713
 21
21.1955673759
  0
LINE
  5
22E
100
AcDbEntity
  8
0
100
AcDbLine
 62
7
  6
BYLAYER
 10
16.0957267713
 20
41.1267652224
 11
16.0957267713
 21
38.8643695294
  0
LINE
  5
22F
100
AcDbEntity
  8
0
100
AcDbLine
 62
7
  6
BYLAYER
 10
16.0957267713
 20
38.0175140196
 11
16.0957267713
 21
34.4736207322
  0
LINE
  5
230
100
AcDbEntity
  8
0
100
AcDbLine
 62
7
  6
BYLAYER
 10
9.8957267713
 20
21.1955673759
 11
22.2957267713
 21
21.1955673759
  0
LINE
  5
231
100
AcDbEntity
  8
0
100
AcDbLine
 62
7
  6
BYLAYER
 10
10.8957321997
 20
22.1955673759
 11
21.2957213428
 21
22.1955673759
  0
LINE
  5
232
100
AcDbEntity
  8
0
100
AcDbLine
 62
7
  6
BYLAYER
 10
23.5957267713
 20
13.4955673759
 11
24.0957267713
 21
12.9955673759
  0
LINE
  5
233
100
AcDbEntity
  8
0
100
AcDbLine
 62
7
  6
BYLAYER
 10
8.5957267713
 20
13.4955673759
 11
8.0957267713
 21
12.9955673759
  0
LINE
  5
234
100
AcDbEntity
  8
0
100
AcDbLine
 62
7
  6
BYLAYER
 10
19.5957267713
 20
27.8455673759
 11
19.5957267713
 21
34.2455673759
  0
LINE
  5
235
100
AcDbEntity
  8
0
100
AcDbLine
 62
7
  6
BYLAYER
 10
20.0957267713
 20
22.1955673759
 11
20.0957267713
 21
27.8455673759
  0
LINE
  5
236
100
AcDbEntity
  8
0
100
AcDbLine
 62
7
  6
BYLAYER
 10
20.0957267713
 20
34.2455673759
 11
20.0957267713
 21
41.7455673759
  0
LINE
  5
237
100
AcDbEntity
  8
0
100
AcDbLine
 62
7
  6
BYLAYER
 10
21.2957267713
 20
22.1955673759
 11
22.2957267713
 21
21.1955673759
  0
LINE
  5
238
100
AcDbEntity
  8
0
100
AcDbLine
 62
7
  6
BYLAYER
 10
21.5957267713
 20
7.8455673759
 11
21.5957267713
 21
9.1955673759
  0
LINE
  5
239
100
AcDbEntity
  8
0
100
AcDbLine
 62
7
  6
BYLAYER
 10
21.6957267713
 20
5.4955673759
 11
21.6957267713
 21
5.5955673759
  0
LINE
  5
23A
100
AcDbEntity
  8
0
100
AcDbLine
 62
7
  6
BYLAYER
 10
21.6957267713
 20
6.5955673759
 11
21.6957267713
 21
6.6955673759
  0
LINE
  5
23B
100
AcDbEntity
  8
0
100
AcDbLine
 62
7
  6
BYLAYER
 10
12.095730195
 20
27.8455673759
 11
12.5957267713
 21
27.8455673759
  0
LINE
  5
23C
100
AcDbEntity
  8
0
100
AcDbLine
 62
7
  6
BYLAYER
 10
19.5957267713
 20
27.8455673759
 11
20.0957233475
 21
27.8455673759
  0
LINE
  5
23D
100
AcDbEntity
  8
0
100
AcDbLine
 62
7
  6
BYLAYER
 10
22.2957267713
 20
13.4955673759
 11
22.2957267713
 21
21.1955673759
  0
LINE
  5
23E
100
AcDbEntity
  8
0
100
AcDbLine
 62
7
  6
BYLAYER
 10
22.4457267713
 20
3.4955673759
 11
22.4457267713
 21
5.4955673759
  0
LINE
  5
23F
100
AcDbEntity
  8
0
100
AcDbLine
 62
7
  6
BYLAYER
 10
22.4457267713
 20
6.6955673759
 11
22.4457267713
 21
7.8455673759
  0
LINE
  5
240
100
AcDbEntity
  8
0
100
AcDbLine
 62
7
  6
BYLAYER
 10
22.7957267713
 20
9.1955673759
 11
22.7957267713
 21
11.2955673759
  0
LINE
  5
241
100
AcDbEntity
  8
0
100
AcDbLine
 62
7
  6
BYLAYER
 10
24.0957267713
 20
11.2955673759
 11
24.0957267713
 21
12.9955673759
  0
LINE
  5
242
100
AcDbEntity
  8
0
100
AcDbLine
 62
7
  6
BYLAYER
 10
12.5957267713
 20
33.7455673759
 11
19.5957267713
 21
33.7455673759
  0
LINE
  5
243
100
AcDbEntity
  8
0
100
AcDbLine
 62
7
  6
BYLAYER
 10
20.0957267713
 20
34.2455673759
 11
12.0957267713
 21
34.2455673759
  0
LINE
  5
244
100
AcDbEntity
  8
0
100
AcDbLine
 62
7
  6
BYLAYER
 10
20.0957267713
 20
38.2455673759
 11
12.0957267713
 21
38.2455673759
  0
LINE
  5
245
100
AcDbEntity
  8
0
100
AcDbLine
 62
7
  6
BYLAYER
 10
12.0957267713
 20
41.7455673759
 11
20.0957267713
 21
41.7455673759
  0
ARC
  5
246
100
AcDbEntity
  8
0
100
AcDbCircle
 62
7
  6
BYLAYER
 10
22.0957267713
 20
6.0955673759
 40
0.5
100
AcDbArc
 50
270.0
 51
90.0
  0
ARC
  5
247
100
AcDbEntity
  8
0
100
AcDbCircle
 62
7
  6
BYLAYER
 10
10.0957267713
 20
6.0955673759
 40
0.5
100
AcDbArc
 50
90.0
 51
270.0
  0
ARC
  5
248
100
AcDbEntity
  8
0
100
AcDbCircle
 62
7
  6
BYLAYER
 10
10.2457267713
 20
3.4955673759
 40
0.5
100
AcDbArc
 50
180.0
 51
270.0
  0
ARC
  5
249
100
AcDbEntity
  8
0
100
AcDbCircle
 62
7
  6
BYLAYER
 10
21.9457267713
 20
3.4955673759
 40
0.5
100
AcDbArc
 50
270.0
 51
360.0
  0
SPLINE
  5
24A
100
AcDbEntity
  8
0
100
AcDbSpline
 62
7
  6
BYLAYER
 70
0
 71
3
 72
11
 73
7
 74
0
 42
0.0000001
 43
0.0000001
 44
0.0000000001
 40
0.0
 40
0.0
 40
0.0
 40
0.0
 40
0.2490950316
 40
0.498773904
 40
0.7490766786
 40
1.0
 40
1.0
 40
1.0
 40
1.0
 10
13.4128556055
 20
38.2455673759
 30
0.0
 10
13.3010745468
 20
38.227762417
 30
0.0
 10
13.0782283189
 20
38.1857141397
 30
0.0
 10
12.7472895442
 20
38.1055618993
 30
0.0
 10
12.419495206
 20
38.0104543521
 30
0.0
 10
12.2033166577
 20
37.9385748715
 30
0.0
 10
12.0957267713
 20
37.9008230279
 30
0.0
  0
SPLINE
  5
24B
100
AcDbEntity
  8
0
100
AcDbSpline
 62
7
  6
BYLAYER
 70
0
 71
3
 72
9
 73
5
 74
0
 42
0.0000001
 43
0.0000001
 44
0.0000000001
 40
0.0
 40
0.0
 40
0.0
 40
0.0
 40
0.5008839129
 40
1.0
 40
1.0
 40
1.0
 40
1.0
 10
16.0957267713
 20
38.0175140196
 30
0.0
 10
15.9376754941
 20
38.0660888413
 30
0.0
 10
15.619283328
 20
38.1541373338
 30
0.0
 10
15.295347952
 20
38.2196498432
 30
0.0
 10
15.1326354592
 20
38.2455673759
 30
0.0
  0
SPLINE
  5
24C
100
AcDbEntity
  8
0
100
AcDbSpline
 62
7
  6
BYLAYER
 70
0
 71
3
 72
11
 73
7
 74
0
 42
0.0000001
 43
0.0000001
 44
0.0000000001
 40
0.0
 40
0.0
 40
0.0
 40
0.0
 40
0.250915593
 40
0.5012173253
 40
0.7509025308
 40
1.0
 40
1.0
 40
1.0
 40
1.0
 10
20.0957267713
 20
34.5903117238
 30
0.0
 10
19.9881401933
 20
34.5525610412
 30
0.0
 10
19.7719664477
 20
34.4806798307
 30
0.0
 10
19.4441731048
 20
34.3855721975
 30
0.0
 10
19.1132294167
 20
34.3054256776
 30
0.0
 10
18.890380095
 20
34.2633725098
 30
0.0
 10
18.778597937
 20
34.2455673759
 30
0.0
  0
SPLINE
  5
24D
100
AcDbEntity
  8
0
100
AcDbSpline
 62
7
  6
BYLAYER
 70
0
 71
3
 72
9
 73
5
 74
0
 42
0.0000001
 43
0.0000001
 44
0.0000000001
 40
0.0
 40
0.0
 40
0.0
 40
0.0
 40
0.4991125907
 40
1.0
 40
1.0
 40
1.0
 40
1.0
 10
17.0588180833
 20
34.2455673759
 30
0.0
 10
16.8961067288
 20
34.2714847272
 30
0.0
 10
16.5721712834
 20
34.3369968981
 30
0.0
 10
16.2537791532
 20
34.425045571
 30
0.0
 10
16.0957267713
 20
34.4736207322
 30
0.0
  0
SPLINE
  5
24E
100
AcDbEntity
  8
0
100
AcDbSpline
 62
7
  6
BYLAYER
 70
0
 71
3
 72
9
 73
5
 74
0
 42
0.0000001
 43
0.0000001
 44
0.0000000001
 40
0.0
 40
0.0
 40
0.0
 40
0.0
 40
0.500887351
 40
1.0
 40
1.0
 40
1.0
 40
1.0
 10
16.0957267713
 20
34.4736207322
 30
0.0
 10
15.9376744084
 20
34.4250455769
 30
0.0
 10
15.6192822516
 20
34.3369970142
 30
0.0
 10
15.295346832
 20
34.2714847302
 30
0.0
 10
15.1326354592
 20
34.2455673759
 30
0.0
  0
SPLINE
  5
24F
100
AcDbEntity
  8
0
100
AcDbSpline
 62
7
  6
BYLAYER
 70
0
 71
3
 72
11
 73
7
 74
0
 42
0.0000001
 43
0.0000001
 44
0.0000000001
 40
0.0
 40
0.0
 40
0.0
 40
0.0
 40
0.2490975023
 40
0.4987827578
 40
0.7490844471
 40
1.0
 40
1.0
 40
1.0
 40
1.0
 10
13.4128556055
 20
34.2455673759
 30
0.0
 10
13.3010734327
 20
34.2633725122
 30
0.0
 10
13.0782240738
 20
34.3054256836
 30
0.0
 10
12.7472803651
 20
34.3855722004
 30
0.0
 10
12.4194870589
 20
34.4806799024
 30
0.0
 10
12.2033133319
 20
34.5525610473
 30
0.0
 10
12.0957267713
 20
34.5903117238
 30
0.0
  0
SPLINE
  5
250
100
AcDbEntity
  8
0
100
AcDbSpline
 62
7
  6
BYLAYER
 70
0
 71
3
 72
9
 73
5
 74
0
 42
0.0000001
 43
0.0000001
 44
0.0000000001
 40
0.0
 40
0.0
 40
0.0
 40
0.0
 40
0.4991173144
 40
1.0
 40
1.0
 40
1.0
 40
1.0
 10
17.0588180833
 20
38.2455673759
 30
0.0
 10
16.8961051879
 20
38.2196497791
 30
0.0
 10
16.5721697179
 20
38.1541376644
 30
0.0
 10
16.2537776636
 20
38.066088723
 30
0.0
 10
16.0957267713
 20
38.0175140196
 30
0.0
  0
SPLINE
  5
251
100
AcDbEntity
  8
0
100
AcDbSpline
 62
7
  6
BYLAYER
 70
0
 71
3
 72
11
 73
7
 74
0
 42
0.0000001
 43
0.0000001
 44
0.0000000001
 40
0.0
 40
0.0
 40
0.0
 40
0.0
 40
0.2509234221
 40
0.5012262384
 40
0.7509050915
 40
1.0
 40
1.0
 40
1.0
 40
1.0
 10
20.0957267713
 20
37.9008230279
 30
0.0
 10
19.9881368416
 20
37.9385748866
 30
0.0
 10
19.7719582307
 20
38.0104543841
 30
0.0
 10
19.4441638385
 20
38.1055619461
 30
0.0
 10
19.1132251049
 20
38.1857141622
 30
0.0
 10
18.8903789404
 20
38.2277624258
 30
0.0
 10
18.778597937
 20
38.2455673759
 30
0.0
  0
SPLINE
  5
252
100
AcDbEntity
  8
0
100
AcDbSpline
 62
7
  6
BYLAYER
 70
0
 71
3
 72
14
 73
10
 74
0
 42
0.0000001
 43
0.0000001
 44
0.0000000001
 40
0.0
 40
0.0
 40
0.0
 40
0.0
 40
0.2535075025
 40
0.504428197
 40
0.6289890308
 40
0.7530028409
 40
0.8148582626
 40
0.8766387508
 40
1.0
 40
1.0
 40
1.0
 40
1.0
 10
16.0957267713
 20
41.1267652224
 30
0.0
 10
16.2506961938
 20
41.2162368602
 30
0.0
 10
16.5658946504
 20
41.3828594329
 30
0.0
 10
16.9784623243
 20
41.5499507623
 30
0.0
 10
17.3170789736
 20
41.6491386225
 30
0.0
 10
17.5316081119
 20
41.6949630154
 30
0.0
 10
17.7045044535
 20
41.7210619617
 30
0.0
 10
17.8778754608
 20
41.739826194
 30
0.0
 10
18.0086497958
 20
41.7455673759
 30
0.0
 10
18.095726769
 20
41.7455673759
 30
0.0
  0
SPLINE
  5
253
100
AcDbEntity
  8
0
100
AcDbSpline
 62
7
  6
BYLAYER
 70
0
 71
3
 72
15
 73
11
 74
0
 42
0.0000001
 43
0.0000001
 44
0.0000000001
 40
0.0
 40
0.0
 40
0.0
 40
0.0
 40
0.1233483702
 40
0.1851227167
 40
0.2469718048
 40
0.3709724975
 40
0.4955196451
 40
0.6206934391
 40
0.7465205182
 40
1.0
 40
1.0
 40
1.0
 40
1.0
 10
14.0957267688
 20
41.7455673759
 30
0.0
 10
14.1828040378
 20
41.745567376
 30
0.0
 10
14.3135790119
 20
41.7398254018
 30
0.0
 10
14.4869509274
 20
41.7210620927
 30
0.0
 10
14.6598483688
 20
41.6949627694
 30
0.0
 10
14.8743750935
 20
41.6491390581
 30
0.0
 10
15.1277652293
 20
41.5749131239
 30
0.0
 10
15.3768504416
 20
41.483598343
 30
0.0
 10
15.7036070207
 20
41.341581706
 30
0.0
 10
15.9407577726
 20
41.2162366155
 30
0.0
 10
16.0957267713
 20
41.1267652224
 30
0.0
  0
SPLINE
  5
254
100
AcDbEntity
  8
0
100
AcDbSpline
 62
7
  6
BYLAYER
 70
0
 71
3
 72
14
 73
10
 74
0
 42
0.0000001
 43
0.0000001
 44
0.0000000001
 40
0.0
 40
0.0
 40
0.0
 40
0.0
 40
0.2535075535
 40
0.5044282068
 40
0.6289890097
 40
0.7530028104
 40
0.8148582374
 40
0.876638738
 40
1.0
 40
1.0
 40
1.0
 40
1.0
 10
16.0957267713
 20
38.8643695294
 30
0.0
 10
15.9407573138
 20
38.7748978714
 30
0.0
 10
15.6255589599
 20
38.6082750765
 30
0.0
 10
15.2129912619
 20
38.4411837711
 30
0.0
 10
14.8743746151
 20
38.3419960833
 30
0.0
 10
14.6598454955
 20
38.2961717028
 30
0.0
 10
14.4869491405
 20
38.2700727742
 30
0.0
 10
14.3135781041
 20
38.2513085745
 30
0.0
 10
14.1828037496
 20
38.2455673755
 30
0.0
 10
14.0957267651
 20
38.2455673757
 30
0.0
  0
SPLINE
  5
255
100
AcDbEntity
  8
0
100
AcDbSpline
 62
7
  6
BYLAYER
 70
0
 71
3
 72
15
 73
11
 74
0
 42
0.0000001
 43
0.0000001
 44
0.0000000001
 40
0.0
 40
0.0
 40
0.0
 40
0.0
 40
0.1233483574
 40
0.1851226915
 40
0.2469717742
 40
0.370972477
 40
0.4955196551
 40
0.6206934885
 40
0.7465205683
 40
1.0
 40
1.0
 40
1.0
 40
1.0
 10
18.0957267656
 20
38.2455673757
 30
0.0
 10
18.0086495077
 20
38.2455673759
 30
0.0
 10
17.8778745531
 20
38.2513093266
 30
0.0
 10
17.7045026661
 20
38.2700726644
 30
0.0
 10
17.5316052388
 20
38.2961720125
 30
0.0
 10
17.3170784969
 20
38.3419957444
 30
0.0
 10
17.0636883466
 20
38.4162218082
 30
0.0
 10
16.8146031047
 20
38.5075366301
 30
0.0
 10
16.4878465389
 20
38.6495532504
 30
0.0
 10
16.2506957356
 20
38.7748981561
 30
0.0
 10
16.0957267713
 20
38.8643695294
 30
0.0
  0
SPLINE
  5
256
100
AcDbEntity
  8
0
100
AcDbSpline
 62
7
  6
BYLAYER
 70
0
 71
3
 72
15
 73
11
 74
0
 42
0.0000001
 43
0.0000001
 44
0.0000000001
 40
0.0
 40
0.0
 40
0.0
 40
0.0
 40
0.1233483574
 40
0.1851226915
 40
0.2469717742
 40
0.370972477
 40
0.4955196551
 40
0.6206934885
 40
0.7465205683
 40
1.0
 40
1.0
 40
1.0
 40
1.0
 10
14.0957267651
 20
38.2455673757
 30
0.0
 10
14.0086495072
 20
38.2455673759
 30
0.0
 10
13.8778745526
 20
38.2513093266
 30
0.0
 10
13.7045026657
 20
38.2700726644
 30
0.0
 10
13.5316052384
 20
38.2961720126
 30
0.0
 10
13.3170784966
 20
38.3419957445
 30
0.0
 10
13.0636883464
 20
38.4162218083
 30
0.0
 10
12.8146031045
 20
38.5075366302
 30
0.0
 10
12.4878465388
 20
38.6495532504
 30
0.0
 10
12.2506957355
 20
38.7748981562
 30
0.0
 10
12.0957267713
 20
38.8643695294
 30
0.0
  0
SPLINE
  5
257
100
AcDbEntity
  8
0
100
AcDbSpline
 62
7
  6
BYLAYER
 70
0
 71
3
 72
14
 73
10
 74
0
 42
0.0000001
 43
0.0000001
 44
0.0000000001
 40
0.0
 40
0.0
 40
0.0
 40
0.0
 40
0.2535075025
 40
0.504428197
 40
0.6289890308
 40
0.7530028409
 40
0.8148582626
 40
0.8766387508
 40
1.0
 40
1.0
 40
1.0
 40
1.0
 10
12.0957267713
 20
41.1267652224
 30
0.0
 10
12.2506961938
 20
41.2162368602
 30
0.0
 10
12.5658946504
 20
41.3828594329
 30
0.0
 10
12.9784623242
 20
41.5499507622
 30
0.0
 10
13.3170789735
 20
41.6491386224
 30
0.0
 10
13.5316081118
 20
41.6949630154
 30
0.0
 10
13.7045044534
 20
41.7210619617
 30
0.0
 10
13.8778754606
 20
41.739826194
 30
0.0
 10
14.0086497955
 20
41.7455673759
 30
0.0
 10
14.0957267688
 20
41.7455673759
 30
0.0
  0
SPLINE
  5
258
100
AcDbEntity
  8
0
100
AcDbSpline
 62
7
  6
BYLAYER
 70
0
 71
3
 72
15
 73
11
 74
0
 42
0.0000001
 43
0.0000001
 44
0.0000000001
 40
0.0
 40
0.0
 40
0.0
 40
0.0
 40
0.1233483702
 40
0.1851227167
 40
0.2469718048
 40
0.3709724975
 40
0.4955196451
 40
0.6206934391
 40
0.7465205182
 40
1.0
 40
1.0
 40
1.0
 40
1.0
 10
18.095726769
 20
41.7455673759
 30
0.0
 10
18.182804038
 20
41.745567376
 30
0.0
 10
18.3135790121
 20
41.7398254018
 30
0.0
 10
18.4869509276
 20
41.7210620927
 30
0.0
 10
18.6598483689
 20
41.6949627693
 30
0.0
 10
18.8743750936
 20
41.6491390581
 30
0.0
 10
19.1277652294
 20
41.5749131239
 30
0.0
 10
19.3768504417
 20
41.483598343
 30
0.0
 10
19.7036070207
 20
41.341581706
 30
0.0
 10
19.9407577726
 20
41.2162366155
 30
0.0
 10
20.0957267713
 20
41.1267652224
 30
0.0
  0
SPLINE
  5
259
100
AcDbEntity
  8
0
100
AcDbSpline
 62
7
  6
BYLAYER
 70
0
 71
3
 72
14
 73
10
 74
0
 42
0.0000001
 43
0.0000001
 44
0.0000000001
 40
0.0
 40
0.0
 40
0.0
 40
0.0
 40
0.2535075535
 40
0.5044282068
 40
0.6289890097
 40
0.7530028104
 40
0.8148582374
 40
0.876638738
 40
1.0
 40
1.0
 40
1.0
 40
1.0
 10
20.0957267713
 20
38.8643695294
 30
0.0
 10
19.9407573138
 20
38.7748978714
 30
0.0
 10
19.6255589601
 20
38.6082750766
 30
0.0
 10
19.2129912621
 20
38.4411837712
 30
0.0
 10
18.8743746154
 20
38.3419960833
 30
0.0
 10
18.6598454959
 20
38.2961717029
 30
0.0
 10
18.4869491409
 20
38.2700727742
 30
0.0
 10
18.3135781046
 20
38.2513085746
 30
0.0
 10
18.1828037501
 20
38.2455673756
 30
0.0
 10
18.0957267656
 20
38.2455673757
 30
0.0
  0
ENDSEC
  0
SECTION
  2
OBJECTS
  0
DICTIONARY
  5
C
100
AcDbDictionary
280
0
281
1
  3
ACAD_GROUP
350
D
  3
ACAD_MLINESTYLE
350
17
  3
ACAD_LAYOUT
350
1A
  3
ACAD_PLOTSETTINGS
350
19
  3
ACAD_PLOTSTYLENAME
350
E
  0
DICTIONARY
  5
D
102
{ACAD_REACTORS
330
C
102
}
100
AcDbDictionary
280
0
281
1
  0
ACDBDICTIONARYWDFLT
  5
E
102
{ACAD_REACTORS
330
C
102
}
100
AcDbDictionary
281
1
  3
Normal
350
F
100
AcDbDictionaryWithDefault
340
F
  0
DICTIONARY
  5
17
102
{ACAD_REACTORS
330
C
102
}
100
AcDbDictionary
280
0
281
1
  3
Standard
350
18
  0
DICTIONARY
  5
19
102
{ACAD_REACTORS
330
C
102
}
100
AcDbDictionary
281
1
  0
DICTIONARY
  5
1A
102
{ACAD_REACTORS
330
C
102
}
100
AcDbDictionary
281
1
  3
Model
350
25A
  3
Layout1
350
25B
  0
ACDBPLACEHOLDER
  5
F
102
{ACAD_REACTORS
330
E
102
}
  0
MLINESTYLE
  5
18
102
{ACAD_REACTORS
330
17
102
}
100
AcDbMlineStyle
  2
STANDARD
 70
0
  3

 62
256
 51
90.0
 52
90.0
 71
2
 49
0.5
 62
256
  6
BYLAYER
 49
-0.5
 62
256
  6
BYLAYER
  0
LAYOUT
  5
25A
102
{ACAD_REACTORS
330
1A
102
}
100
AcDbPlotSettings
  1

  2
none_device
  4

  6

 40
0.0
 41
0.0
 42
0.0
 43
0.0
 44
210.0
 45
297.0
 46
0.0
 47
0.0
 48
0.0
 49
0.0
140
0.0
141
0.0
142
1.0
143
1.0
 70
1024
 72
1
 73
0
 74
0
  7

 75
0
147
1.0
148
0.0
149
0.0
100
AcDbLayout
  1
Model
 70
0
 71
0
 10
0.0
 20
0.0
 11
210.0
 21
297.0
 12
0.0
 22
0.0
 32
0.0
 14
0.0
 24
0.0
 34
0.0
 15
0.0
 25
0.0
 35
0.0
146
0.0
 13
0.0
 23
0.0
 33
0.0
 16
1.0
 26
0.0
 36
0.0
 17
0.0
 27
1.0
 37
0.0
 76
0
330
210
345
0
346
0
  0
LAYOUT
  5
25B
102
{ACAD_REACTORS
330
1A
102
}
100
AcDbPlotSettings
  1

  2
none_device
  4

  6

 40
0.0
 41
0.0
 42
0.0
 43
0.0
 44
210.0
 45
297.0
 46
0.0
 47
0.0
 48
0.0
 49
0.0
140
0.0
141
0.0
142
1.0
143
1.0
 70
0
 72
1
 73
0
 74
0
  7

 75
0
147
1.0
148
0.0
149
0.0
100
AcDbLayout
  1
Layout1
 70
0
 71
1
 10
0.0
 20
0.0
 11
210.0
 21
297.0
 12
0.0
 22
0.0
 32
0.0
 14
0.0
 24
0.0
 34
0.0
 15
0.0
 25
0.0
 35
0.0
146
0.0
 13
0.0
 23
0.0
 33
0.0
 16
1.0
 26
0.0
 36
0.0
 17
0.0
 27
1.0
 37
0.0
 76
0
330
211
345
0
346
0
  0
ENDSEC
  0
EOF
