999
DXF file: C:\Users\sesa63760\Dev\_Creo\CAD\MCADID0004335_3D-CAD\drw0001_5.dxf
999
Pro/ENGINEER 2019471 by Parametric Technology Corporation
  0
SECTION
  2
HEADER
  9
$ACADVER
  1
AC1024
  9
$DWGCODEPAGE
  3
ANSI_1252
  9
$EXTMAX
 10
87.0304576376
 20
123.0859329446
 30
0.0
  9
$EXTMIN
 10
0.0
 20
0.0
 30
0.0
  9
$LIMMIN
 10
0.0
 20
0.0
  9
$LIMMAX
 10
87.0304576376
 20
123.0859329446
  9
$VIEWCTR
 10
43.5152288188
 20
61.5429664723
  9
$VIEWSIZE
 40
123.0859329446
  9
$CLAYER
  8
0
  9
$LTSCALE
 40
8.0233793327
  9
$CELTYPE
  6
BYLAYER
  9
$DIMSCALE
 40
1.0
  9
$DIMASZ
 40
1.0360768766
  9
$DIMEXO
 40
1.0
  9
$DIMDLI
 40
5.5434257208
  9
$DIMEXE
 40
1.0
  9
$DIMCEN
 40
1.3129166181
  9
$DIMLFAC
 40
1.0
  9
$DIMBLK
  1
_FILLED
  9
$DIMALT
 70
0
  9
$DIMALTF
 40
0.0393700787
  9
$DIMTXT
 40
1.4505076273
  9
$DIMTOL
 70
1
  9
$DIMLIM
 70
0
  9
$DIMTFAC
 40
1.0
  9
$DIMTP
 40
0.01
  9
$DIMTM
 40
0.01
  9
$DIMGAP
 40
0.625
  9
$DIMDSEP
 70
46
  9
$AUNITS
 70
0
  9
$PDMODE
 70
3
  9
$PDSIZE
 40
0.3125
  9
$HANDSEED
  5
265
  9
$TILEMODE
 70
1
  9
$MEASUREMENT
 70
1
  9
$INSUNITS
 70
4
  0
ENDSEC
  0
SECTION
  2
CLASSES
  0
CLASS
  1
ACDBDICTIONARYWDFLT
  2
AcDbDictionaryWithDefault
  3
AutoCAD 2000
 90
0
 91
1
280
0
281
0
  0
CLASS
  1
ACDBPLACEHOLDER
  2
AcDbPlaceHolder
  3
AutoCAD 2000
 90
0
 91
1
280
0
281
0
  0
CLASS
  1
LAYOUT
  2
AcDbLayout
  3
AutoCAD 2000
 90
0
 91
0
280
0
281
0
  0
ENDSEC
  0
SECTION
  2
TABLES
  0
TABLE
  2
VPORT
  5
8
100
AcDbSymbolTable
 70
2
  0
VPORT
  5
1F4
100
AcDbSymbolTableRecord
100
AcDbViewportTableRecord
  2
*ACTIVE
 70
0
 10
0.0
 20
0.0
 11
1.0
 21
1.0
 12
43.5152288188
 22
61.5429664723
 13
0.0
 23
0.0
 14
1.0
 24
1.0
 15
0.0
 25
0.0
 16
0.0
 26
0.0
 36
1.0
 17
0.0
 27
0.0
 37
0.0
 40
123.0859329446
 41
0.7070707071
 42
50.0
 43
0.0
 44
0.0
 50
0.0
 51
0.0
 71
0
 72
100
 73
1
 74
1
 75
0
 76
0
 77
0
 78
0
  0
ENDTAB
  0
TABLE
  2
LTYPE
  5
5
100
AcDbSymbolTable
 70
6
  0
LTYPE
  5
14
100
AcDbSymbolTableRecord
100
AcDbLinetypeTableRecord
  2
BYBLOCK
 70
0
  3

 72
65
 73
0
 40
0.0
  0
LTYPE
  5
15
100
AcDbSymbolTableRecord
100
AcDbLinetypeTableRecord
  2
BYLAYER
 70
0
  3

 72
65
 73
0
 40
0.0
  0
LTYPE
  5
16
100
AcDbSymbolTableRecord
100
AcDbLinetypeTableRecord
  2
CONTINUOUS
 70
64
  3
Solid line
 72
65
 73
0
 40
0.0
  0
LTYPE
  5
1F5
100
AcDbSymbolTableRecord
100
AcDbLinetypeTableRecord
  2
CENTER
 70
64
  3
____ _ ____ _ ____ _ ____ _ ____ _ ____ _ ____
 72
65
 73
4
 40
0.6
 49
0.375
 74
0
 49
-0.075
 74
0
 49
0.075
 74
0
 49
-0.075
 74
0
  0
LTYPE
  5
1F6
100
AcDbSymbolTableRecord
100
AcDbLinetypeTableRecord
  2
HIDDEN
 70
64
  3
- - - - - - - - - - - - - - - - - - - -
 72
65
 73
2
 40
0.2
 49
0.1
 74
0
 49
-0.1
 74
0
  0
LTYPE
  5
1F7
100
AcDbSymbolTableRecord
100
AcDbLinetypeTableRecord
  2
PHANTOM
 70
64
  3
_____ _ _ _____ _ _ _____ _ _ _____
 72
65
 73
6
 40
0.8
 49
0.45
 74
0
 49
-0.05
 74
0
 49
0.1
 74
0
 49
-0.05
 74
0
 49
0.1
 74
0
 49
-0.05
 74
0
  0
LTYPE
  5
1F8
100
AcDbSymbolTableRecord
100
AcDbLinetypeTableRecord
  2
DOT
 70
64
  3
. . . . . . . . . . . . . . . . . . . .
 72
65
 73
2
 40
0.2
 49
0.1
 74
0
 49
-0.1
 74
0
  0
LTYPE
  5
1F9
100
AcDbSymbolTableRecord
100
AcDbLinetypeTableRecord
  2
DASHED
 70
64
  3
- - - - - - - - - - - - - - - - - - - -
 72
65
 73
2
 40
0.2
 49
0.1
 74
0
 49
-0.1
 74
0
  0
ENDTAB
  0
TABLE
  2
LAYER
  5
2
100
AcDbSymbolTable
 70
36
  0
LAYER
  5
10
100
AcDbSymbolTableRecord
100
AcDbLayerTableRecord
  2
0
 70
0
 62
7
  6
CONTINUOUS
370
-3
390
F
  0
LAYER
  5
1FA
100
AcDbSymbolTableRecord
100
AcDbLayerTableRecord
  2
DEFAULT_1
 70
0
 62
7
  6
CENTER
370
-3
390
F
  0
LAYER
  5
1FB
100
AcDbSymbolTableRecord
100
AcDbLayerTableRecord
  2
DEFAULT_2
 70
0
 62
7
  6
HIDDEN
370
-3
390
F
  0
LAYER
  5
1FC
100
AcDbSymbolTableRecord
100
AcDbLayerTableRecord
  2
DEFAULT_3
 70
0
 62
7
  6
PHANTOM
370
-3
390
F
  0
LAYER
  5
1FD
100
AcDbSymbolTableRecord
100
AcDbLayerTableRecord
  2
00_COMPONENTS
 70
0
 62
7
  6
CONTINUOUS
370
-3
390
F
  0
LAYER
  5
1FE
100
AcDbSymbolTableRecord
100
AcDbLayerTableRecord
  2
01_1_DEFAULT_DATUMS
 70
0
 62
7
  6
CONTINUOUS
370
-3
390
F
  0
LAYER
  5
1FF
100
AcDbSymbolTableRecord
100
AcDbLayerTableRecord
  2
01_PLANES
 70
0
 62
7
  6
CONTINUOUS
370
-3
390
F
  0
LAYER
  5
200
100
AcDbSymbolTableRecord
100
AcDbLayerTableRecord
  2
02_COORD_SYS
 70
0
 62
7
  6
CONTINUOUS
370
-3
390
F
  0
LAYER
  5
201
100
AcDbSymbolTableRecord
100
AcDbLayerTableRecord
  2
03_AXES
 70
0
 62
7
  6
CONTINUOUS
370
-3
390
F
  0
LAYER
  5
202
100
AcDbSymbolTableRecord
100
AcDbLayerTableRecord
  2
04_POINTS
 70
0
 62
7
  6
CONTINUOUS
370
-3
390
F
  0
LAYER
  5
203
100
AcDbSymbolTableRecord
100
AcDbLayerTableRecord
  2
05_CURVES
 70
0
 62
7
  6
CONTINUOUS
370
-3
390
F
  0
LAYER
  5
204
100
AcDbSymbolTableRecord
100
AcDbLayerTableRecord
  2
06_SURFS
 70
0
 62
7
  6
CONTINUOUS
370
-3
390
F
  0
LAYER
  5
205
100
AcDbSymbolTableRecord
100
AcDbLayerTableRecord
  2
07_COSMETICS
 70
0
 62
7
  6
CONTINUOUS
370
-3
390
F
  0
LAYER
  5
206
100
AcDbSymbolTableRecord
100
AcDbLayerTableRecord
  2
10_NOTES
 70
0
 62
7
  6
CONTINUOUS
370
-3
390
F
  0
LAYER
  5
207
100
AcDbSymbolTableRecord
100
AcDbLayerTableRecord
  2
11_NOTES_PUB
 70
0
 62
7
  6
CONTINUOUS
370
-3
390
F
  0
LAYER
  5
208
100
AcDbSymbolTableRecord
100
AcDbLayerTableRecord
  2
13_REF_GTOL
 70
0
 62
7
  6
CONTINUOUS
370
-3
390
F
  0
LAYER
  5
209
100
AcDbSymbolTableRecord
100
AcDbLayerTableRecord
  2
16_MISC
 70
0
 62
7
  6
CONTINUOUS
370
-3
390
F
  0
LAYER
  5
20A
100
AcDbSymbolTableRecord
100
AcDbLayerTableRecord
  2
17_NO_PRINT
 70
0
 62
7
  6
CONTINUOUS
370
-3
390
F
  0
LAYER
  5
20B
100
AcDbSymbolTableRecord
100
AcDbLayerTableRecord
  2
18_DATUM_CAMS_JOINTS
 70
0
 62
7
  6
CONTINUOUS
370
-3
390
F
  0
LAYER
  5
20C
100
AcDbSymbolTableRecord
100
AcDbLayerTableRecord
  2
19_DATUM_FUNCTIONAL
 70
0
 62
7
  6
CONTINUOUS
370
-3
390
F
  0
LAYER
  5
20D
100
AcDbSymbolTableRecord
100
AcDbLayerTableRecord
  2
20_DATUM_KINEMATIC_SCHEME
 70
0
 62
7
  6
CONTINUOUS
370
-3
390
F
  0
ENDTAB
  0
TABLE
  2
STYLE
  5
3
100
AcDbSymbolTable
 70
1
  0
STYLE
  5
11
100
AcDbSymbolTableRecord
100
AcDbTextStyleTableRecord
  2
STANDARD
 70
0
 40
0.0
 41
1.0
 50
0.0
 71
0
 42
0.2
  3
ARIAL.TTF
  4

  0
STYLE
  5
20E
100
AcDbSymbolTableRecord
100
AcDbTextStyleTableRecord
  2
TEXTSTYLE_1
 70
0
 40
0.0
 41
0.8
 50
0.0
 71
0
 42
0.2
  3
gdt
  4

  0
ENDTAB
  0
TABLE
  2
VIEW
  5
6
100
AcDbSymbolTable
 70
0
  0
ENDTAB
  0
TABLE
  2
UCS
  5
7
100
AcDbSymbolTable
 70
0
  0
ENDTAB
  0
TABLE
  2
APPID
  5
9
100
AcDbSymbolTable
 70
1
  0
APPID
  5
20F
100
AcDbSymbolTableRecord
100
AcDbRegAppTableRecord
  2
ACAD
 70
0
  0
ENDTAB
  0
TABLE
  2
BLOCK_RECORD
  5
1
100
AcDbSymbolTable
 70
0
  0
BLOCK_RECORD
  5
210
100
AcDbSymbolTableRecord
100
AcDbBlockTableRecord
  2
*Model_Space
  0
BLOCK_RECORD
  5
211
100
AcDbSymbolTableRecord
100
AcDbBlockTableRecord
  2
*Paper_Space
  0
BLOCK_RECORD
  5
212
100
AcDbSymbolTableRecord
100
AcDbBlockTableRecord
  2
_FILLED
  0
ENDTAB
  0
TABLE
  2
DIMSTYLE
  5
A
100
AcDbSymbolTable
 70
1
100
AcDbDimStyleTable
 71
0
  0
DIMSTYLE
105
213
100
AcDbSymbolTableRecord
100
AcDbDimStyleTableRecord
  2
STANDARD
 70
0
  3

  4

 40
1.0
 41
1.0360768766
 42
1.0
 43
0.38
 44
1.0
 45
0.0
 46
0.0
 47
0.01
 48
0.01
140
1.4505076273
141
0.09
142
0.0
143
25.4
144
1.0
145
0.0
146
1.0
147
0.625
 71
1
 72
0
 73
0
 74
0
 75
0
 76
0
 77
1
 78
8
 79
2
170
0
171
1
172
0
173
0
174
0
175
0
176
0
177
0
178
0
270
2
179
2
271
2
272
2
273
2
274
2
275
0
280
0
281
0
282
0
283
1
284
8
285
0
286
0
287
3
288
0
340
11
278
46
341
212
342
212
343
212
344
212
  0
ENDTAB
  0
ENDSEC
  0
SECTION
  2
BLOCKS
  0
BLOCK
  5
20
100
AcDbEntity
  8
0
100
AcDbBlockBegin
  2
*Model_Space
 70
0
 10
0.0
 20
0.0
 30
0.0
  3
*Model_Space
  1

  0
ENDBLK
  5
21
100
AcDbEntity
  8
0
100
AcDbBlockEnd
  0
BLOCK
  5
1C
100
AcDbEntity
  8
0
100
AcDbBlockBegin
  2
*Paper_Space
 70
0
 10
0.0
 20
0.0
 30
0.0
  3
*Paper_Space
  1

  0
ENDBLK
  5
1D
100
AcDbEntity
  8
0
100
AcDbBlockEnd
  0
BLOCK
  5
214
100
AcDbEntity
  8
0
100
AcDbBlockBegin
  2
_FILLED
 70
64
 10
0.0
 20
0.0
  3
_FILLED
  1

  0
SOLID
  5
215
100
AcDbEntity
  8
0
  6
BYBLOCK
 62
0
100
AcDbTrace
 10
0.0
 20
0.0
 11
-1.0
 21
0.25
 12
-1.0
 22
-0.25
 13
-1.0
 23
-0.25
  0
ENDBLK
  5
216
100
AcDbEntity
  8
0
  6
BYBLOCK
 62
0
100
AcDbBlockEnd
  0
ENDSEC
  0
SECTION
  2
ENTITIES
  0
LINE
  5
217
100
AcDbEntity
  8
0
100
AcDbLine
 62
7
  6
BYLAYER
 10
55.222901567
 20
10.018622449
 11
34.2180516974
 21
10.018622449
  0
LINE
  5
218
100
AcDbEntity
  8
0
100
AcDbLine
 62
7
  6
BYLAYER
 10
55.3808470398
 20
10.5336844627
 11
46.3180056461
 21
10.5336844627
  0
LINE
  5
219
100
AcDbEntity
  8
0
100
AcDbLine
 62
7
  6
BYLAYER
 10
43.1229476183
 20
10.5336844627
 11
34.0601062246
 21
10.5336844627
  0
LINE
  5
21A
100
AcDbEntity
  8
0
100
AcDbLine
 62
7
  6
BYLAYER
 10
34.2180402597
 20
10.018622449
 11
34.0551881273
 21
10.1814745813
  0
LINE
  5
21B
100
AcDbEntity
  8
0
100
AcDbLine
 62
7
  6
BYLAYER
 10
29.5654766322
 20
22.018622449
 11
59.8754766322
 21
22.018622449
  0
LINE
  5
21C
100
AcDbEntity
  8
0
100
AcDbLine
 62
7
  6
BYLAYER
 10
59.8754766322
 20
22.5175887747
 11
29.5654766322
 21
22.5175887747
  0
LINE
  5
21D
100
AcDbEntity
  8
0
100
AcDbLine
 62
7
  6
BYLAYER
 10
29.4692287057
 20
109.4365635672
 11
29.3736595281
 21
109.2135688194
  0
LINE
  5
21E
100
AcDbEntity
  8
0
100
AcDbLine
 62
7
  6
BYLAYER
 10
60.0672937363
 20
28.5013516742
 11
59.8754766322
 21
28.5013516742
  0
LINE
  5
21F
100
AcDbEntity
  8
0
100
AcDbLine
 62
7
  6
BYLAYER
 10
29.5654766322
 20
28.5013516742
 11
29.3736595281
 21
28.5013516742
  0
LINE
  5
220
100
AcDbEntity
  8
0
100
AcDbLine
 62
7
  6
BYLAYER
 10
29.3736595281
 20
29.0064813299
 11
29.5704766322
 21
29.0064813299
  0
LINE
  5
221
100
AcDbEntity
  8
0
100
AcDbLine
 62
7
  6
BYLAYER
 10
59.8704766322
 20
29.0064813299
 11
60.0672937363
 21
29.0064813299
  0
LINE
  5
222
100
AcDbEntity
  8
0
100
AcDbLine
 62
7
  6
BYLAYER
 10
42.0968795001
 20
111.6360766608
 11
41.9198269329
 21
111.1371103351
  0
LINE
  5
223
100
AcDbEntity
  8
0
100
AcDbLine
 62
7
  6
BYLAYER
 10
59.8754766322
 20
43.8175887747
 11
29.5654766322
 21
43.8175887747
  0
LINE
  5
224
100
AcDbEntity
  8
0
100
AcDbLine
 62
7
  6
BYLAYER
 10
29.3736595281
 20
22.5163965333
 11
29.3736595281
 21
109.2135688194
  0
LINE
  5
225
100
AcDbEntity
  8
0
100
AcDbLine
 62
7
  6
BYLAYER
 10
29.5654766322
 20
22.018622449
 11
29.5654766322
 21
43.8175887747
  0
LINE
  5
226
100
AcDbEntity
  8
0
100
AcDbLine
 62
7
  6
BYLAYER
 10
29.5704766322
 20
43.8175887747
 11
29.5704766322
 21
109.4561337706
  0
LINE
  5
227
100
AcDbEntity
  8
0
100
AcDbLine
 62
7
  6
BYLAYER
 10
30.2362190869
 20
72.7693506505
 11
30.2362190869
 21
109.5814565447
  0
LINE
  5
228
100
AcDbEntity
  8
0
100
AcDbLine
 62
7
  6
BYLAYER
 10
59.8704766322
 20
44.6318317967
 11
29.5704766322
 21
44.6318317967
  0
LINE
  5
229
100
AcDbEntity
  8
0
100
AcDbLine
 62
7
  6
BYLAYER
 10
59.8704766322
 20
48.2383576086
 11
29.5704766322
 21
48.2383576086
  0
LINE
  5
22A
100
AcDbEntity
  8
0
100
AcDbLine
 62
7
  6
BYLAYER
 10
59.8704766322
 20
50.326301037
 11
29.5704766322
 21
50.326301037
  0
LINE
  5
22B
100
AcDbEntity
  8
0
100
AcDbLine
 62
7
  6
BYLAYER
 10
34.0551860884
 20
10.181328565
 11
34.2204766322
 21
22.018622449
  0
LINE
  5
22C
100
AcDbEntity
  8
0
100
AcDbLine
 62
7
  6
BYLAYER
 10
41.9198269329
 20
111.1371103351
 11
41.9198269329
 21
110.8510571259
  0
LINE
  5
22D
100
AcDbEntity
  8
0
100
AcDbLine
 62
7
  6
BYLAYER
 10
44.3204766322
 20
104.0966847263
 11
44.3204766322
 21
109.6405601717
  0
LINE
  5
22E
100
AcDbEntity
  8
0
100
AcDbLine
 62
7
  6
BYLAYER
 10
44.3204766322
 20
111.088622449
 11
44.3204766322
 21
112.392719404
  0
LINE
  5
22F
100
AcDbEntity
  8
0
100
AcDbLine
 62
7
  6
BYLAYER
 10
45.1204766322
 20
112.392719404
 11
45.1204766322
 21
111.088622449
  0
LINE
  5
230
100
AcDbEntity
  8
0
100
AcDbLine
 62
7
  6
BYLAYER
 10
45.1204766322
 20
109.6405601717
 11
45.1204766322
 21
104.0966847263
  0
LINE
  5
231
100
AcDbEntity
  8
0
100
AcDbLine
 62
7
  6
BYLAYER
 10
47.5211263316
 20
111.1371103351
 11
47.5211263316
 21
110.8510571381
  0
LINE
  5
232
100
AcDbEntity
  8
0
100
AcDbLine
 62
7
  6
BYLAYER
 10
59.6853048003
 20
64.317949848
 11
29.700042427
 21
64.317949848
  0
LINE
  5
233
100
AcDbEntity
  8
0
100
AcDbLine
 62
7
  6
BYLAYER
 10
55.385767176
 20
10.181328565
 11
55.2204766322
 21
22.018622449
  0
LINE
  5
234
100
AcDbEntity
  8
0
100
AcDbLine
 62
7
  6
BYLAYER
 10
59.0716203105
 20
73.4275657295
 11
59.0716203105
 21
109.6058014317
  0
LINE
  5
235
100
AcDbEntity
  8
0
100
AcDbLine
 62
7
  6
BYLAYER
 10
59.8704766322
 20
43.8175887747
 11
59.8704766322
 21
109.4561337706
  0
LINE
  5
236
100
AcDbEntity
  8
0
100
AcDbLine
 62
7
  6
BYLAYER
 10
59.8754766322
 20
43.8175887747
 11
59.8754766322
 21
22.018622449
  0
LINE
  5
237
100
AcDbEntity
  8
0
100
AcDbLine
 62
7
  6
BYLAYER
 10
60.0672937363
 20
22.5163965333
 11
60.0672937363
 21
109.2135688194
  0
LINE
  5
238
100
AcDbEntity
  8
0
100
AcDbLine
 62
7
  6
BYLAYER
 10
47.3440737644
 20
111.6360766608
 11
47.5211263316
 21
111.1371103351
  0
LINE
  5
239
100
AcDbEntity
  8
0
100
AcDbLine
 62
7
  6
BYLAYER
 10
60.0672937363
 20
84.7918053654
 11
59.8704766322
 21
84.7918053654
  0
LINE
  5
23A
100
AcDbEntity
  8
0
100
AcDbLine
 62
7
  6
BYLAYER
 10
29.5704766322
 20
84.7918053654
 11
29.3736595281
 21
84.7918053654
  0
LINE
  5
23B
100
AcDbEntity
  8
0
100
AcDbLine
 62
7
  6
BYLAYER
 10
60.0672937363
 20
93.5639552858
 11
59.8704766322
 21
93.5639552858
  0
LINE
  5
23C
100
AcDbEntity
  8
0
100
AcDbLine
 62
7
  6
BYLAYER
 10
29.5704766322
 20
93.5639552858
 11
29.3736595281
 21
93.5639552858
  0
LINE
  5
23D
100
AcDbEntity
  8
0
100
AcDbLine
 62
7
  6
BYLAYER
 10
60.0672937363
 20
109.2135688194
 11
59.9717245587
 21
109.4365635672
  0
LINE
  5
23E
100
AcDbEntity
  8
0
100
AcDbLine
 62
7
  6
BYLAYER
 10
49.0202495646
 20
101.8530940944
 11
40.4368045411
 21
101.8530940944
  0
LINE
  5
23F
100
AcDbEntity
  8
0
100
AcDbLine
 62
7
  6
BYLAYER
 10
55.2229130048
 20
10.018622449
 11
55.3857651371
 21
10.1814745813
  0
LINE
  5
240
100
AcDbEntity
  8
0
100
AcDbLine
 62
7
  6
BYLAYER
 10
38.3221390903
 20
110.3947107821
 11
51.1349178877
 21
110.3947107821
  0
LINE
  5
241
100
AcDbEntity
  8
0
100
AcDbLine
 62
7
  6
BYLAYER
 10
50.5487857547
 20
110.6896267665
 11
38.8921675097
 21
110.6896267665
  0
LINE
  5
242
100
AcDbEntity
  8
0
100
AcDbLine
 62
7
  6
BYLAYER
 10
47.0974920657
 20
110.8666793337
 11
42.3434611987
 21
110.8666793337
  0
LINE
  5
243
100
AcDbEntity
  8
0
100
AcDbLine
 62
7
  6
BYLAYER
 10
44.3204766322
 20
111.088622449
 11
45.1204766322
 21
111.088622449
  0
LINE
  5
244
100
AcDbEntity
  8
0
100
AcDbLine
 62
7
  6
BYLAYER
 10
41.9198269329
 20
111.1371103351
 11
44.3204766322
 21
111.1371103351
  0
LINE
  5
245
100
AcDbEntity
  8
0
100
AcDbLine
 62
7
  6
BYLAYER
 10
45.1204766322
 20
111.1371103351
 11
47.5211263316
 21
111.1371103351
  0
LINE
  5
246
100
AcDbEntity
  8
0
100
AcDbLine
 62
7
  6
BYLAYER
 10
42.0968795001
 20
111.6360766608
 11
44.3204766322
 21
111.6360766608
  0
LINE
  5
247
100
AcDbEntity
  8
0
100
AcDbLine
 62
7
  6
BYLAYER
 10
45.1204766322
 20
111.6360766608
 11
47.3440737644
 21
111.6360766608
  0
ARC
  5
248
100
AcDbEntity
  8
0
100
AcDbCircle
 62
7
  6
BYLAYER
 10
44.718034466
 20
21.8527784386
 40
11.4316365119
100
AcDbArc
 50
270.0122402646
 51
278.0455442798
  0
ARC
  5
249
100
AcDbEntity
  8
0
100
AcDbCircle
 62
7
  6
BYLAYER
 10
29.8631452519
 20
22.5121081728
 40
0.4895045085
100
AcDbArc
 50
180.0108477152
 51
231.3068887713
  0
ARC
  5
24A
100
AcDbEntity
  8
0
100
AcDbCircle
 62
7
  6
BYLAYER
 10
44.5888111444
 20
107.9585077425
 40
4.4423233189
100
AcDbArc
 50
93.4630076788
 51
124.1216837587
  0
ARC
  5
24B
100
AcDbEntity
  8
0
100
AcDbCircle
 62
7
  6
BYLAYER
 10
44.7204766322
 20
30.8047719673
 40
80.0971860524
100
AcDbArc
 50
91.7005959602
 51
100.9766705603
  0
ARC
  5
24C
100
AcDbEntity
  8
0
100
AcDbCircle
 62
7
  6
BYLAYER
 10
44.7204766322
 20
30.8047719673
 40
80.0971860524
100
AcDbArc
 50
79.0233294397
 51
88.2994040398
  0
ARC
  5
24D
100
AcDbEntity
  8
0
100
AcDbCircle
 62
7
  6
BYLAYER
 10
59.5778080126
 20
22.5121081728
 40
0.4895045085
100
AcDbArc
 50
308.7143387125
 51
359.9891856906
  0
ARC
  5
24E
100
AcDbEntity
  8
0
100
AcDbCircle
 62
7
  6
BYLAYER
 10
44.7204766322
 20
107.398622449
 40
5.97
100
AcDbArc
 50
34.1438090086
 51
145.8561909914
  0
ARC
  5
24F
100
AcDbEntity
  8
0
100
AcDbCircle
 62
7
  6
BYLAYER
 10
44.7204766322
 20
107.398622449
 40
4.8371025222
100
AcDbArc
 50
45.1337011977
 51
58.3058611521
  0
ARC
  5
250
100
AcDbEntity
  8
0
100
AcDbCircle
 62
7
  6
BYLAYER
 10
44.7204766322
 20
107.398622449
 40
4.8371025222
100
AcDbArc
 50
125.4608365846
 51
134.8662988023
  0
ARC
  5
251
100
AcDbEntity
  8
0
100
AcDbCircle
 62
7
  6
BYLAYER
 10
44.7204766322
 20
107.398622449
 40
4.8371025222
100
AcDbArc
 50
85.138719995
 51
94.861280005
  0
ARC
  5
252
100
AcDbEntity
  8
0
100
AcDbCircle
 62
7
  6
BYLAYER
 10
44.85214212
 20
107.9585077425
 40
4.4423233189
100
AcDbArc
 50
55.8783162413
 51
86.5369923212
  0
CIRCLE
  5
253
100
AcDbEntity
  8
0
100
AcDbCircle
 62
7
  6
BYLAYER
 10
44.7204766322
 20
106.868622449
 40
2.8006496993
  0
ARC
  5
254
100
AcDbEntity
  8
0
100
AcDbCircle
 62
7
  6
BYLAYER
 10
44.7204766322
 20
106.868622449
 40
2.6235971321
100
AcDbArc
 50
98.7696551779
 51
261.2303448221
  0
ARC
  5
255
100
AcDbEntity
  8
0
100
AcDbCircle
 62
7
  6
BYLAYER
 10
44.7204766322
 20
106.868622449
 40
2.6235971321
100
AcDbArc
 50
278.7696551779
 51
81.2303448221
  0
SPLINE
  5
256
100
AcDbEntity
  8
0
100
AcDbSpline
 62
7
  6
BYLAYER
 70
0
 71
3
 72
10
 73
6
 74
0
 42
0.0000001
 43
0.0000001
 44
0.0000000001
 40
0.0
 40
0.0
 40
0.0
 40
0.0
 40
0.2500164545
 40
0.5000349531
 40
1.0
 40
1.0
 40
1.0
 40
1.0
 10
43.1229476183
 20
10.5336844627
 30
0.0
 10
43.2552135469
 20
10.5151465199
 30
0.0
 10
43.5203603493
 20
10.4822153256
 30
0.0
 10
44.0525603997
 20
10.4351952724
 30
0.0
 10
44.4533954478
 20
10.4211777688
 30
0.0
 10
44.7204766322
 20
10.4211777688
 30
0.0
  0
SPLINE
  5
257
100
AcDbEntity
  8
0
100
AcDbSpline
 62
7
  6
BYLAYER
 70
0
 71
3
 72
16
 73
12
 74
0
 42
0.0000001
 43
0.0000001
 44
0.0000000001
 40
0.0
 40
0.0
 40
0.0
 40
0.0
 40
0.0625045934
 40
0.1250098326
 40
0.1875121742
 40
0.2500151927
 40
0.3750128224
 40
0.5000114615
 40
0.6250099581
 40
0.7500081372
 40
1.0
 40
1.0
 40
1.0
 40
1.0
 10
46.3180056461
 20
10.5336844627
 30
0.0
 10
46.4249949826
 20
10.7566875844
 30
0.0
 10
46.6219346823
 20
11.2109141398
 30
0.0
 10
46.8828107146
 20
11.9057329165
 30
0.0
 10
47.1186099205
 20
12.6094137093
 30
0.0
 10
47.4072712876
 20
13.5557520689
 30
0.0
 10
47.7303086882
 20
14.7497255603
 30
0.0
 10
48.076556355
 20
16.1928025361
 30
0.0
 10
48.3920649232
 20
17.6428792761
 30
0.0
 10
48.780840996
 20
19.5828962032
 30
0.0
 10
49.0437605941
 20
21.043476303
 30
0.0
 10
49.2102423941
 20
22.018622449
 30
0.0
  0
SPLINE
  5
258
100
AcDbEntity
  8
0
100
AcDbSpline
 62
7
  6
BYLAYER
 70
0
 71
3
 72
16
 73
12
 74
0
 42
0.0000001
 43
0.0000001
 44
0.0000000001
 40
0.0
 40
0.0
 40
0.0
 40
0.0
 40
0.0625045934
 40
0.1250098326
 40
0.1875121742
 40
0.2500151926
 40
0.3750128224
 40
0.5000114614
 40
0.625009958
 40
0.7500081371
 40
1.0
 40
1.0
 40
1.0
 40
1.0
 10
43.1229476183
 20
10.5336844627
 30
0.0
 10
43.0159582818
 20
10.7566875844
 30
0.0
 10
42.8190185821
 20
11.2109141397
 30
0.0
 10
42.5581425503
 20
11.9057329164
 30
0.0
 10
42.3223433441
 20
12.609413709
 30
0.0
 10
42.0336819767
 20
13.5557520683
 30
0.0
 10
41.7106445763
 20
14.7497255597
 30
0.0
 10
41.3643969096
 20
16.1928025356
 30
0.0
 10
41.0488883413
 20
17.6428792757
 30
0.0
 10
40.6601122683
 20
19.5828962029
 30
0.0
 10
40.3971926703
 20
21.0434763029
 30
0.0
 10
40.2307108703
 20
22.018622449
 30
0.0
  0
SPLINE
  5
259
100
AcDbEntity
  8
0
100
AcDbSpline
 62
7
  6
BYLAYER
 70
0
 71
3
 72
19
 73
15
 74
0
 42
0.0000001
 43
0.0000001
 44
0.0000000001
 40
0.0
 40
0.0
 40
0.0
 40
0.0
 40
0.0312582556
 40
0.0625187671
 40
0.1250207654
 40
0.1875246314
 40
0.2500273597
 40
0.3125292488
 40
0.3750302733
 40
0.5000247332
 40
0.6250193919
 40
0.7500135093
 40
0.8750071036
 40
1.0
 40
1.0
 40
1.0
 40
1.0
 10
49.0202495646
 20
101.8530940944
 30
0.0
 10
49.2135656355
 20
101.6032311064
 30
0.0
 10
49.5838944745
 20
101.0907375805
 30
0.0
 10
50.2706427454
 20
100.0296817989
 30
0.0
 10
51.0461598596
 20
98.6521998743
 30
0.0
 10
51.8802026918
 20
96.9498069997
 30
0.0
 10
52.6409823487
 20
95.2136428073
 30
0.0
 10
53.3438611943
 20
93.4534748115
 30
0.0
 10
54.2181412056
 20
91.0826838322
 30
0.0
 10
55.2137866893
 20
88.0846396846
 30
0.0
 10
56.2952873078
 20
84.4519867193
 30
0.0
 10
57.2892860918
 20
80.7945488036
 30
0.0
 10
58.2132948526
 20
77.1189479904
 30
0.0
 10
58.790896903
 20
74.6592359228
 30
0.0
 10
59.0716203105
 20
73.4275657295
 30
0.0
  0
SPLINE
  5
25A
100
AcDbEntity
  8
0
100
AcDbSpline
 62
7
  6
BYLAYER
 70
0
 71
3
 72
19
 73
15
 74
0
 42
0.0000001
 43
0.0000001
 44
0.0000000001
 40
0.0
 40
0.0
 40
0.0
 40
0.0
 40
0.0312582969
 40
0.0625188231
 40
0.1250206465
 40
0.1875244351
 40
0.2500271236
 40
0.3125289794
 40
0.3750299831
 40
0.5000244845
 40
0.6250191846
 40
0.7500133587
 40
0.8750070271
 40
1.0
 40
1.0
 40
1.0
 40
1.0
 10
40.4368045411
 20
101.8530940944
 30
0.0
 10
40.239185355
 20
101.597669233
 30
0.0
 10
39.8609786131
 20
101.0734824062
 30
0.0
 10
39.1606522243
 20
99.9876945062
 30
0.0
 10
38.3712081305
 20
98.5776461439
 30
0.0
 10
37.5234223847
 20
96.8350065773
 30
0.0
 10
36.7508970298
 20
95.0579327299
 30
0.0
 10
36.037690033
 20
93.2564739379
 30
0.0
 10
35.1510566531
 20
90.8303050953
 30
0.0
 10
34.1420113673
 20
87.762638836
 30
0.0
 10
33.0465449998
 20
84.0461387742
 30
0.0
 10
32.0401068792
 20
80.3046756264
 30
0.0
 10
31.1048076143
 20
76.5449428432
 30
0.0
 10
30.5202819803
 20
74.0290959659
 30
0.0
 10
30.2362190869
 20
72.7693506505
 30
0.0
  0
SPLINE
  5
25B
100
AcDbEntity
  8
0
100
AcDbSpline
 62
7
  6
BYLAYER
 70
0
 71
3
 72
10
 73
6
 74
0
 42
0.0000001
 43
0.0000001
 44
0.0000000001
 40
0.0
 40
0.0
 40
0.0
 40
0.0
 40
0.4999873292
 40
0.7499958543
 40
1.0
 40
1.0
 40
1.0
 40
1.0
 10
38.3221390903
 20
110.3947107821
 30
0.0
 10
38.6188436829
 20
108.9580035926
 30
0.0
 10
39.0927906337
 20
106.8084303882
 30
0.0
 10
39.8169130952
 20
103.9648378982
 30
0.0
 10
40.2205569311
 20
102.5539622961
 30
0.0
 10
40.4370498203
 20
101.8530940944
 30
0.0
  0
SPLINE
  5
25C
100
AcDbEntity
  8
0
100
AcDbSpline
 62
7
  6
BYLAYER
 70
0
 71
3
 72
10
 73
6
 74
0
 42
0.0000001
 43
0.0000001
 44
0.0000000001
 40
0.0
 40
0.0
 40
0.0
 40
0.0
 40
0.2500041903
 40
0.5000128997
 40
1.0
 40
1.0
 40
1.0
 40
1.0
 10
49.0200071577
 20
101.8530940944
 30
0.0
 10
49.236500128
 20
102.5539624129
 30
0.0
 10
49.6401489965
 20
103.9648373146
 30
0.0
 10
50.3642623015
 20
106.8084322211
 30
0.0
 10
50.8382134054
 20
108.958004246
 30
0.0
 10
51.1349178877
 20
110.3947107821
 30
0.0
  0
SPLINE
  5
25D
100
AcDbEntity
  8
0
100
AcDbSpline
 62
7
  6
BYLAYER
 70
0
 71
3
 72
18
 73
14
 74
0
 42
0.0000001
 43
0.0000001
 44
0.0000000001
 40
0.0
 40
0.0
 40
0.0
 40
0.0
 40
0.2498035087
 40
0.3747304258
 40
0.4996777571
 40
0.6246455027
 40
0.7496091216
 40
0.8121185015
 40
0.8745689069
 40
0.9059322594
 40
0.9372775602
 40
0.9685252899
 40
1.0
 40
1.0
 40
1.0
 40
1.0
 10
37.542975088
 20
110.5797094241
 30
0.0
 10
37.6103680596
 20
110.5721288625
 30
0.0
 10
37.7113677787
 20
110.5598256465
 30
0.0
 10
37.8456602192
 20
110.5406179893
 30
0.0
 10
37.9461472744
 20
110.5244950405
 30
0.0
 10
38.0462575907
 20
110.5061471019
 30
0.0
 10
38.129123858
 20
110.4877621064
 30
0.0
 10
38.1944011951
 20
110.4691993328
 30
0.0
 10
38.2346298159
 20
110.4555489789
 30
0.0
 10
38.2661488654
 20
110.4429017046
 30
0.0
 10
38.2892750092
 20
110.4318725119
 30
0.0
 10
38.3092718572
 20
110.4155383663
 30
0.0
 10
38.3196744542
 20
110.4018959066
 30
0.0
 10
38.3242993485
 20
110.3947107821
 30
0.0
  0
SPLINE
  5
25E
100
AcDbEntity
  8
0
100
AcDbSpline
 62
7
  6
BYLAYER
 70
0
 71
3
 72
18
 73
14
 74
0
 42
0.0000001
 43
0.0000001
 44
0.0000000001
 40
0.0
 40
0.0
 40
0.0
 40
0.0
 40
0.0314744633
 40
0.0627234916
 40
0.0940673583
 40
0.1254314411
 40
0.1878824182
 40
0.2503916208
 40
0.3753541639
 40
0.500321726
 40
0.6252691926
 40
0.7501961315
 40
1.0
 40
1.0
 40
1.0
 40
1.0
 10
51.1327678005
 20
110.3947107821
 30
0.0
 10
51.137343529
 20
110.4018377181
 30
0.0
 10
51.1476308532
 20
110.4153755748
 30
0.0
 10
51.1674010944
 20
110.4316236143
 30
0.0
 10
51.1902899449
 20
110.4426271475
 30
0.0
 10
51.221510183
 20
110.4552148311
 30
0.0
 10
51.261368407
 20
110.4687901108
 30
0.0
 10
51.3260423582
 20
110.4872815524
 30
0.0
 10
51.4081527662
 20
110.505613573
 30
0.0
 10
51.5073638
 20
110.523881627
 30
0.0
 10
51.6069509924
 20
110.5399388246
 30
0.0
 10
51.7400428259
 20
110.5590795696
 30
0.0
 10
51.8401422816
 20
110.5713431491
 30
0.0
 10
51.9069350346
 20
110.5789020785
 30
0.0
  0
ELLIPSE
  5
25F
100
AcDbEntity
  8
0
100
AcDbEllipse
 62
7
  6
BYLAYER
 10
58.891744601
 20
61.0283897925
 30
0.0
 11
-0.0
 21
5.5811512886
 31
0.0
 40
0.1760078663
 41
-1.4852229383
 42
-0.9404738677
  0
ELLIPSE
  5
260
100
AcDbEntity
  8
0
100
AcDbEllipse
 62
7
  6
BYLAYER
 10
30.3881715274
 20
61.7707669702
 30
0.0
 11
-0.0
 21
4.6662084544
 31
0.0
 40
0.1760078663
 41
0.9933590691
 42
1.4772030692
  0
ELLIPSE
  5
261
100
AcDbEntity
  8
0
100
AcDbEllipse
 62
7
  6
BYLAYER
 10
58.891744601
 20
50.6795553342
 30
0.0
 11
0.0
 21
23.139247143
 31
0.0
 40
0.0424528302
 41
-0.9404738677
 42
-0.1841509779
  0
ELLIPSE
  5
262
100
AcDbEntity
  8
0
100
AcDbEllipse
 62
7
  6
BYLAYER
 10
30.3881715274
 20
53.7574236985
 30
0.0
 11
-0.0
 21
19.3459279392
 31
0.0
 40
0.0424528302
 41
0.1860890876
 42
0.9933590691
  0
ENDSEC
  0
SECTION
  2
OBJECTS
  0
DICTIONARY
  5
C
100
AcDbDictionary
280
0
281
1
  3
ACAD_GROUP
350
D
  3
ACAD_MLINESTYLE
350
17
  3
ACAD_LAYOUT
350
1A
  3
ACAD_PLOTSETTINGS
350
19
  3
ACAD_PLOTSTYLENAME
350
E
  0
DICTIONARY
  5
D
102
{ACAD_REACTORS
330
C
102
}
100
AcDbDictionary
280
0
281
1
  0
ACDBDICTIONARYWDFLT
  5
E
102
{ACAD_REACTORS
330
C
102
}
100
AcDbDictionary
281
1
  3
Normal
350
F
100
AcDbDictionaryWithDefault
340
F
  0
DICTIONARY
  5
17
102
{ACAD_REACTORS
330
C
102
}
100
AcDbDictionary
280
0
281
1
  3
Standard
350
18
  0
DICTIONARY
  5
19
102
{ACAD_REACTORS
330
C
102
}
100
AcDbDictionary
281
1
  0
DICTIONARY
  5
1A
102
{ACAD_REACTORS
330
C
102
}
100
AcDbDictionary
281
1
  3
Model
350
263
  3
Layout1
350
264
  0
ACDBPLACEHOLDER
  5
F
102
{ACAD_REACTORS
330
E
102
}
  0
MLINESTYLE
  5
18
102
{ACAD_REACTORS
330
17
102
}
100
AcDbMlineStyle
  2
STANDARD
 70
0
  3

 62
256
 51
90.0
 52
90.0
 71
2
 49
0.5
 62
256
  6
BYLAYER
 49
-0.5
 62
256
  6
BYLAYER
  0
LAYOUT
  5
263
102
{ACAD_REACTORS
330
1A
102
}
100
AcDbPlotSettings
  1

  2
none_device
  4

  6

 40
0.0
 41
0.0
 42
0.0
 43
0.0
 44
210.0
 45
297.0
 46
0.0
 47
0.0
 48
0.0
 49
0.0
140
0.0
141
0.0
142
1.0
143
1.0
 70
1024
 72
1
 73
0
 74
0
  7

 75
0
147
1.0
148
0.0
149
0.0
100
AcDbLayout
  1
Model
 70
0
 71
0
 10
0.0
 20
0.0
 11
210.0
 21
297.0
 12
0.0
 22
0.0
 32
0.0
 14
0.0
 24
0.0
 34
0.0
 15
0.0
 25
0.0
 35
0.0
146
0.0
 13
0.0
 23
0.0
 33
0.0
 16
1.0
 26
0.0
 36
0.0
 17
0.0
 27
1.0
 37
0.0
 76
0
330
210
345
0
346
0
  0
LAYOUT
  5
264
102
{ACAD_REACTORS
330
1A
102
}
100
AcDbPlotSettings
  1

  2
none_device
  4

  6

 40
0.0
 41
0.0
 42
0.0
 43
0.0
 44
210.0
 45
297.0
 46
0.0
 47
0.0
 48
0.0
 49
0.0
140
0.0
141
0.0
142
1.0
143
1.0
 70
0
 72
1
 73
0
 74
0
  7

 75
0
147
1.0
148
0.0
149
0.0
100
AcDbLayout
  1
Layout1
 70
0
 71
1
 10
0.0
 20
0.0
 11
210.0
 21
297.0
 12
0.0
 22
0.0
 32
0.0
 14
0.0
 24
0.0
 34
0.0
 15
0.0
 25
0.0
 35
0.0
146
0.0
 13
0.0
 23
0.0
 33
0.0
 16
1.0
 26
0.0
 36
0.0
 17
0.0
 27
1.0
 37
0.0
 76
0
330
211
345
0
346
0
  0
ENDSEC
  0
EOF
