999
DXF file: C:\Users\sesa63760\Dev\_Creo\CAD\MCADID0003704_3D-CAD\drw0001_3.dxf
999
Pro/ENGINEER 2019471 by Parametric Technology Corporation
  0
SECTION
  2
HEADER
  9
$ACADVER
  1
AC1024
  9
$DWGCODEPAGE
  3
ANSI_1252
  9
$EXTMAX
 10
83.3017483368
 20
117.8124726477
 30
0.0
  9
$EXTMIN
 10
0.0
 20
0.0
 30
0.0
  9
$LIMMIN
 10
0.0
 20
0.0
  9
$LIMMAX
 10
83.3017483368
 20
117.8124726477
  9
$VIEWCTR
 10
41.6508741684
 20
58.9062363239
  9
$VIEWSIZE
 40
117.8124726477
  9
$CLAYER
  8
0
  9
$LTSCALE
 40
7.6796278467
  9
$CELTYPE
  6
BYLAYER
  9
$DIMSCALE
 40
1.0
  9
$DIMASZ
 40
0.9916874802
  9
$DIMEXO
 40
1.0
  9
$DIMDLI
 40
5.3059246941
  9
$DIMEXE
 40
1.0
  9
$DIMCEN
 40
1.2566663749
  9
$DIMLFAC
 40
1.0
  9
$DIMBLK
  1
_FILLED
  9
$DIMALT
 70
0
  9
$DIMALTF
 40
0.0393700787
  9
$DIMTXT
 40
1.3883624723
  9
$DIMTOL
 70
1
  9
$DIMLIM
 70
0
  9
$DIMTFAC
 40
1.0
  9
$DIMTP
 40
0.01
  9
$DIMTM
 40
0.01
  9
$DIMGAP
 40
0.625
  9
$DIMDSEP
 70
46
  9
$AUNITS
 70
0
  9
$PDMODE
 70
3
  9
$PDSIZE
 40
0.3125
  9
$HANDSEED
  5
272
  9
$TILEMODE
 70
1
  9
$MEASUREMENT
 70
1
  9
$INSUNITS
 70
4
  0
ENDSEC
  0
SECTION
  2
CLASSES
  0
CLASS
  1
ACDBDICTIONARYWDFLT
  2
AcDbDictionaryWithDefault
  3
AutoCAD 2000
 90
0
 91
1
280
0
281
0
  0
CLASS
  1
ACDBPLACEHOLDER
  2
AcDbPlaceHolder
  3
AutoCAD 2000
 90
0
 91
1
280
0
281
0
  0
CLASS
  1
LAYOUT
  2
AcDbLayout
  3
AutoCAD 2000
 90
0
 91
0
280
0
281
0
  0
ENDSEC
  0
SECTION
  2
TABLES
  0
TABLE
  2
VPORT
  5
8
100
AcDbSymbolTable
 70
2
  0
VPORT
  5
1F4
100
AcDbSymbolTableRecord
100
AcDbViewportTableRecord
  2
*ACTIVE
 70
0
 10
0.0
 20
0.0
 11
1.0
 21
1.0
 12
41.6508741684
 22
58.9062363239
 13
0.0
 23
0.0
 14
1.0
 24
1.0
 15
0.0
 25
0.0
 16
0.0
 26
0.0
 36
1.0
 17
0.0
 27
0.0
 37
0.0
 40
117.8124726477
 41
0.7070707071
 42
50.0
 43
0.0
 44
0.0
 50
0.0
 51
0.0
 71
0
 72
100
 73
1
 74
1
 75
0
 76
0
 77
0
 78
0
  0
ENDTAB
  0
TABLE
  2
LTYPE
  5
5
100
AcDbSymbolTable
 70
6
  0
LTYPE
  5
14
100
AcDbSymbolTableRecord
100
AcDbLinetypeTableRecord
  2
BYBLOCK
 70
0
  3

 72
65
 73
0
 40
0.0
  0
LTYPE
  5
15
100
AcDbSymbolTableRecord
100
AcDbLinetypeTableRecord
  2
BYLAYER
 70
0
  3

 72
65
 73
0
 40
0.0
  0
LTYPE
  5
16
100
AcDbSymbolTableRecord
100
AcDbLinetypeTableRecord
  2
CONTINUOUS
 70
64
  3
Solid line
 72
65
 73
0
 40
0.0
  0
LTYPE
  5
1F5
100
AcDbSymbolTableRecord
100
AcDbLinetypeTableRecord
  2
CENTER
 70
64
  3
____ _ ____ _ ____ _ ____ _ ____ _ ____ _ ____
 72
65
 73
4
 40
0.6
 49
0.375
 74
0
 49
-0.075
 74
0
 49
0.075
 74
0
 49
-0.075
 74
0
  0
LTYPE
  5
1F6
100
AcDbSymbolTableRecord
100
AcDbLinetypeTableRecord
  2
HIDDEN
 70
64
  3
- - - - - - - - - - - - - - - - - - - -
 72
65
 73
2
 40
0.2
 49
0.1
 74
0
 49
-0.1
 74
0
  0
LTYPE
  5
1F7
100
AcDbSymbolTableRecord
100
AcDbLinetypeTableRecord
  2
PHANTOM
 70
64
  3
_____ _ _ _____ _ _ _____ _ _ _____
 72
65
 73
6
 40
0.8
 49
0.45
 74
0
 49
-0.05
 74
0
 49
0.1
 74
0
 49
-0.05
 74
0
 49
0.1
 74
0
 49
-0.05
 74
0
  0
LTYPE
  5
1F8
100
AcDbSymbolTableRecord
100
AcDbLinetypeTableRecord
  2
DOT
 70
64
  3
. . . . . . . . . . . . . . . . . . . .
 72
65
 73
2
 40
0.2
 49
0.1
 74
0
 49
-0.1
 74
0
  0
LTYPE
  5
1F9
100
AcDbSymbolTableRecord
100
AcDbLinetypeTableRecord
  2
DASHED
 70
64
  3
- - - - - - - - - - - - - - - - - - - -
 72
65
 73
2
 40
0.2
 49
0.1
 74
0
 49
-0.1
 74
0
  0
ENDTAB
  0
TABLE
  2
LAYER
  5
2
100
AcDbSymbolTable
 70
36
  0
LAYER
  5
10
100
AcDbSymbolTableRecord
100
AcDbLayerTableRecord
  2
0
 70
0
 62
7
  6
CONTINUOUS
370
-3
390
F
  0
LAYER
  5
1FA
100
AcDbSymbolTableRecord
100
AcDbLayerTableRecord
  2
DEFAULT_1
 70
0
 62
7
  6
CENTER
370
-3
390
F
  0
LAYER
  5
1FB
100
AcDbSymbolTableRecord
100
AcDbLayerTableRecord
  2
DEFAULT_2
 70
0
 62
7
  6
HIDDEN
370
-3
390
F
  0
LAYER
  5
1FC
100
AcDbSymbolTableRecord
100
AcDbLayerTableRecord
  2
DEFAULT_3
 70
0
 62
7
  6
PHANTOM
370
-3
390
F
  0
LAYER
  5
1FD
100
AcDbSymbolTableRecord
100
AcDbLayerTableRecord
  2
00_COMPONENTS
 70
0
 62
7
  6
CONTINUOUS
370
-3
390
F
  0
LAYER
  5
1FE
100
AcDbSymbolTableRecord
100
AcDbLayerTableRecord
  2
01_1_DEFAULT_DATUMS
 70
0
 62
7
  6
CONTINUOUS
370
-3
390
F
  0
LAYER
  5
1FF
100
AcDbSymbolTableRecord
100
AcDbLayerTableRecord
  2
01_PLANES
 70
0
 62
7
  6
CONTINUOUS
370
-3
390
F
  0
LAYER
  5
200
100
AcDbSymbolTableRecord
100
AcDbLayerTableRecord
  2
02_COORD_SYS
 70
0
 62
7
  6
CONTINUOUS
370
-3
390
F
  0
LAYER
  5
201
100
AcDbSymbolTableRecord
100
AcDbLayerTableRecord
  2
03_AXES
 70
0
 62
7
  6
CONTINUOUS
370
-3
390
F
  0
LAYER
  5
202
100
AcDbSymbolTableRecord
100
AcDbLayerTableRecord
  2
04_POINTS
 70
0
 62
7
  6
CONTINUOUS
370
-3
390
F
  0
LAYER
  5
203
100
AcDbSymbolTableRecord
100
AcDbLayerTableRecord
  2
05_CURVES
 70
0
 62
7
  6
CONTINUOUS
370
-3
390
F
  0
LAYER
  5
204
100
AcDbSymbolTableRecord
100
AcDbLayerTableRecord
  2
06_SURFS
 70
0
 62
7
  6
CONTINUOUS
370
-3
390
F
  0
LAYER
  5
205
100
AcDbSymbolTableRecord
100
AcDbLayerTableRecord
  2
07_COSMETICS
 70
0
 62
7
  6
CONTINUOUS
370
-3
390
F
  0
LAYER
  5
206
100
AcDbSymbolTableRecord
100
AcDbLayerTableRecord
  2
10_NOTES
 70
0
 62
7
  6
CONTINUOUS
370
-3
390
F
  0
LAYER
  5
207
100
AcDbSymbolTableRecord
100
AcDbLayerTableRecord
  2
11_NOTES_PUB
 70
0
 62
7
  6
CONTINUOUS
370
-3
390
F
  0
LAYER
  5
208
100
AcDbSymbolTableRecord
100
AcDbLayerTableRecord
  2
13_REF_GTOL
 70
0
 62
7
  6
CONTINUOUS
370
-3
390
F
  0
LAYER
  5
209
100
AcDbSymbolTableRecord
100
AcDbLayerTableRecord
  2
16_MISC
 70
0
 62
7
  6
CONTINUOUS
370
-3
390
F
  0
LAYER
  5
20A
100
AcDbSymbolTableRecord
100
AcDbLayerTableRecord
  2
17_NO_PRINT
 70
0
 62
7
  6
CONTINUOUS
370
-3
390
F
  0
LAYER
  5
20B
100
AcDbSymbolTableRecord
100
AcDbLayerTableRecord
  2
18_DATUM_CAMS_JOINTS
 70
0
 62
7
  6
CONTINUOUS
370
-3
390
F
  0
LAYER
  5
20C
100
AcDbSymbolTableRecord
100
AcDbLayerTableRecord
  2
19_DATUM_FUNCTIONAL
 70
0
 62
7
  6
CONTINUOUS
370
-3
390
F
  0
LAYER
  5
20D
100
AcDbSymbolTableRecord
100
AcDbLayerTableRecord
  2
20_DATUM_KINEMATIC_SCHEME
 70
0
 62
7
  6
CONTINUOUS
370
-3
390
F
  0
ENDTAB
  0
TABLE
  2
STYLE
  5
3
100
AcDbSymbolTable
 70
1
  0
STYLE
  5
11
100
AcDbSymbolTableRecord
100
AcDbTextStyleTableRecord
  2
STANDARD
 70
0
 40
0.0
 41
1.0
 50
0.0
 71
0
 42
0.2
  3
ARIAL.TTF
  4

  0
STYLE
  5
20E
100
AcDbSymbolTableRecord
100
AcDbTextStyleTableRecord
  2
TEXTSTYLE_1
 70
0
 40
0.0
 41
0.8
 50
0.0
 71
0
 42
0.2
  3
gdt
  4

  0
ENDTAB
  0
TABLE
  2
VIEW
  5
6
100
AcDbSymbolTable
 70
0
  0
ENDTAB
  0
TABLE
  2
UCS
  5
7
100
AcDbSymbolTable
 70
0
  0
ENDTAB
  0
TABLE
  2
APPID
  5
9
100
AcDbSymbolTable
 70
1
  0
APPID
  5
20F
100
AcDbSymbolTableRecord
100
AcDbRegAppTableRecord
  2
ACAD
 70
0
  0
ENDTAB
  0
TABLE
  2
BLOCK_RECORD
  5
1
100
AcDbSymbolTable
 70
0
  0
BLOCK_RECORD
  5
210
100
AcDbSymbolTableRecord
100
AcDbBlockTableRecord
  2
*Model_Space
  0
BLOCK_RECORD
  5
211
100
AcDbSymbolTableRecord
100
AcDbBlockTableRecord
  2
*Paper_Space
  0
BLOCK_RECORD
  5
212
100
AcDbSymbolTableRecord
100
AcDbBlockTableRecord
  2
_FILLED
  0
ENDTAB
  0
TABLE
  2
DIMSTYLE
  5
A
100
AcDbSymbolTable
 70
1
100
AcDbDimStyleTable
 71
0
  0
DIMSTYLE
105
213
100
AcDbSymbolTableRecord
100
AcDbDimStyleTableRecord
  2
STANDARD
 70
0
  3

  4

 40
1.0
 41
0.9916874802
 42
1.0
 43
0.38
 44
1.0
 45
0.0
 46
0.0
 47
0.01
 48
0.01
140
1.3883624723
141
0.09
142
0.0
143
25.4
144
1.0
145
0.0
146
1.0
147
0.625
 71
1
 72
0
 73
0
 74
0
 75
0
 76
0
 77
1
 78
8
 79
2
170
0
171
1
172
0
173
0
174
0
175
0
176
0
177
0
178
0
270
2
179
2
271
2
272
2
273
2
274
2
275
0
280
0
281
0
282
0
283
1
284
8
285
0
286
0
287
3
288
0
340
11
278
46
341
212
342
212
343
212
344
212
  0
ENDTAB
  0
ENDSEC
  0
SECTION
  2
BLOCKS
  0
BLOCK
  5
20
100
AcDbEntity
  8
0
100
AcDbBlockBegin
  2
*Model_Space
 70
0
 10
0.0
 20
0.0
 30
0.0
  3
*Model_Space
  1

  0
ENDBLK
  5
21
100
AcDbEntity
  8
0
100
AcDbBlockEnd
  0
BLOCK
  5
1C
100
AcDbEntity
  8
0
100
AcDbBlockBegin
  2
*Paper_Space
 70
0
 10
0.0
 20
0.0
 30
0.0
  3
*Paper_Space
  1

  0
ENDBLK
  5
1D
100
AcDbEntity
  8
0
100
AcDbBlockEnd
  0
BLOCK
  5
214
100
AcDbEntity
  8
0
100
AcDbBlockBegin
  2
_FILLED
 70
64
 10
0.0
 20
0.0
  3
_FILLED
  1

  0
SOLID
  5
215
100
AcDbEntity
  8
0
  6
BYBLOCK
 62
0
100
AcDbTrace
 10
0.0
 20
0.0
 11
-1.0
 21
0.25
 12
-1.0
 22
-0.25
 13
-1.0
 23
-0.25
  0
ENDBLK
  5
216
100
AcDbEntity
  8
0
  6
BYBLOCK
 62
0
100
AcDbBlockEnd
  0
ENDSEC
  0
SECTION
  2
ENTITIES
  0
LINE
  5
217
100
AcDbEntity
  8
0
100
AcDbLine
 62
7
  6
BYLAYER
 10
9.8544846717
 20
31.6946389497
 11
9.8544846717
 21
86.6946389497
  0
LINE
  5
218
100
AcDbEntity
  8
0
100
AcDbLine
 62
7
  6
BYLAYER
 10
16.1544846717
 20
50.8364676198
 11
16.1544846717
 21
67.5528102795
  0
LINE
  5
219
100
AcDbEntity
  8
0
100
AcDbLine
 62
7
  6
BYLAYER
 10
38.3544846717
 20
31.6946389497
 11
9.8544846717
 21
31.6946389497
  0
LINE
  5
21A
100
AcDbEntity
  8
0
100
AcDbLine
 62
7
  6
BYLAYER
 10
37.4077673825
 20
32.4173271477
 11
9.8544846717
 21
32.4173271477
  0
LINE
  5
21B
100
AcDbEntity
  8
0
100
AcDbLine
 62
7
  6
BYLAYER
 10
21.5544846717
 20
67.5528102795
 11
21.5544846717
 21
50.8364676198
  0
LINE
  5
21C
100
AcDbEntity
  8
0
100
AcDbLine
 62
7
  6
BYLAYER
 10
24.6651559564
 20
71.7783720363
 11
37.4077673825
 21
85.9719507517
  0
LINE
  5
21D
100
AcDbEntity
  8
0
100
AcDbLine
 62
7
  6
BYLAYER
 10
37.4077673825
 20
32.4173271477
 11
24.6651559564
 21
46.6109058631
  0
LINE
  5
21E
100
AcDbEntity
  8
0
100
AcDbLine
 62
7
  6
BYLAYER
 10
24.6651559564
 20
71.7783720363
 11
24.6651559564
 21
46.610905863
  0
LINE
  5
21F
100
AcDbEntity
  8
0
100
AcDbLine
 62
7
  6
BYLAYER
 10
38.3544846717
 20
83.3582012074
 11
26.4224049756
 21
70.0674473155
  0
LINE
  5
220
100
AcDbEntity
  8
0
100
AcDbLine
 62
7
  6
BYLAYER
 10
26.4224049756
 20
48.3218305838
 11
38.3544846717
 21
35.0310766919
  0
LINE
  5
221
100
AcDbEntity
  8
0
100
AcDbLine
 62
7
  6
BYLAYER
 10
26.4224049756
 20
48.3218305838
 11
26.4224049756
 21
70.0674473155
  0
LINE
  5
222
100
AcDbEntity
  8
0
100
AcDbLine
 62
7
  6
BYLAYER
 10
26.8544846717
 20
67.1946389497
 11
26.8544846717
 21
51.1946389497
  0
LINE
  5
223
100
AcDbEntity
  8
0
100
AcDbLine
 62
7
  6
BYLAYER
 10
27.8544846717
 20
53.608852512
 11
27.8544846717
 21
64.7804253873
  0
LINE
  5
224
100
AcDbEntity
  8
0
100
AcDbLine
 62
7
  6
BYLAYER
 10
28.3544846717
 20
52.1946389497
 11
28.3544846717
 21
53.6946389497
  0
LINE
  5
225
100
AcDbEntity
  8
0
100
AcDbLine
 62
7
  6
BYLAYER
 10
28.3544846717
 20
64.6946389497
 11
28.3544846717
 21
66.1946389497
  0
LINE
  5
226
100
AcDbEntity
  8
0
100
AcDbLine
 62
7
  6
BYLAYER
 10
70.9188437619
 20
52.5946389497
 11
75.4239439427
 21
53.3890096624
  0
LINE
  5
227
100
AcDbEntity
  8
0
100
AcDbLine
 62
7
  6
BYLAYER
 10
9.8544846717
 20
46.6109058631
 11
24.6651559564
 21
46.6109058631
  0
LINE
  5
228
100
AcDbEntity
  8
0
100
AcDbLine
 62
7
  6
BYLAYER
 10
32.8544846717
 20
66.1946389497
 11
32.8544846717
 21
64.6946389497
  0
LINE
  5
229
100
AcDbEntity
  8
0
100
AcDbLine
 62
7
  6
BYLAYER
 10
32.8544846717
 20
53.6946389497
 11
32.8544846717
 21
52.1946389497
  0
LINE
  5
22A
100
AcDbEntity
  8
0
100
AcDbLine
 62
7
  6
BYLAYER
 10
26.4224049756
 20
48.3218305838
 11
9.8544846717
 21
48.3218305838
  0
LINE
  5
22B
100
AcDbEntity
  8
0
100
AcDbLine
 62
7
  6
BYLAYER
 10
27.3544846717
 20
50.6946389497
 11
38.3544846717
 21
50.6946389497
  0
LINE
  5
22C
100
AcDbEntity
  8
0
100
AcDbLine
 62
7
  6
BYLAYER
 10
16.2565426366
 20
50.7946389497
 11
21.4524267067
 21
50.7946389497
  0
LINE
  5
22D
100
AcDbEntity
  8
0
100
AcDbLine
 62
7
  6
BYLAYER
 10
28.3544852473
 20
52.1946385659
 11
27.3545125193
 21
50.694679663
  0
LINE
  5
22E
100
AcDbEntity
  8
0
100
AcDbLine
 62
7
  6
BYLAYER
 10
20.8544846717
 20
51.1946389497
 11
16.1544846717
 21
51.1946389497
  0
LINE
  5
22F
100
AcDbEntity
  8
0
100
AcDbLine
 62
7
  6
BYLAYER
 10
33.0428122302
 20
52.1946389497
 11
32.8544846717
 21
52.1946389497
  0
LINE
  5
230
100
AcDbEntity
  8
0
100
AcDbLine
 62
7
  6
BYLAYER
 10
26.8544846717
 20
52.1946389497
 11
28.3544846717
 21
52.1946389497
  0
LINE
  5
231
100
AcDbEntity
  8
0
100
AcDbLine
 62
7
  6
BYLAYER
 10
70.9188437619
 20
52.5946389497
 11
49.8544846717
 21
52.5946389497
  0
LINE
  5
232
100
AcDbEntity
  8
0
100
AcDbLine
 62
7
  6
BYLAYER
 10
48.8544846717
 20
53.1946389497
 11
38.3544846717
 21
53.1946389497
  0
LINE
  5
233
100
AcDbEntity
  8
0
100
AcDbLine
 62
7
  6
BYLAYER
 10
21.5544846717
 20
53.1946389497
 11
16.1544846717
 21
53.1946389497
  0
LINE
  5
234
100
AcDbEntity
  8
0
100
AcDbLine
 62
7
  6
BYLAYER
 10
28.3544846717
 20
53.6946389497
 11
32.8544846717
 21
53.6946389497
  0
LINE
  5
235
100
AcDbEntity
  8
0
100
AcDbLine
 62
7
  6
BYLAYER
 10
38.3544846717
 20
52.1946389497
 11
33.0359040545
 21
52.195508288
  0
LINE
  5
236
100
AcDbEntity
  8
0
100
AcDbLine
 62
7
  6
BYLAYER
 10
38.3544846717
 20
31.6946389497
 11
38.3544846717
 21
86.6946389497
  0
LINE
  5
237
100
AcDbEntity
  8
0
100
AcDbLine
 62
7
  6
BYLAYER
 10
70.9544846717
 20
55.2946389497
 11
56.4544846717
 21
55.2946389497
  0
LINE
  5
238
100
AcDbEntity
  8
0
100
AcDbLine
 62
7
  6
BYLAYER
 10
49.8544846717
 20
65.7946389497
 11
48.8544846717
 21
65.1946389497
  0
LINE
  5
239
100
AcDbEntity
  8
0
100
AcDbLine
 62
7
  6
BYLAYER
 10
74.117634423
 20
61.2309539248
 11
75.3913349203
 21
61.3583239745
  0
LINE
  5
23A
100
AcDbEntity
  8
0
100
AcDbLine
 62
7
  6
BYLAYER
 10
48.8544846717
 20
53.1946389497
 11
49.8544846717
 21
52.5946389497
  0
LINE
  5
23B
100
AcDbEntity
  8
0
100
AcDbLine
 62
7
  6
BYLAYER
 10
28.3544846717
 20
66.1946389497
 11
26.854525385
 21
67.194611102
  0
LINE
  5
23C
100
AcDbEntity
  8
0
100
AcDbLine
 62
7
  6
BYLAYER
 10
75.3942861593
 20
57.0306588009
 11
74.117634423
 21
57.1583239745
  0
LINE
  5
23D
100
AcDbEntity
  8
0
100
AcDbLine
 62
7
  6
BYLAYER
 10
56.4544846717
 20
63.0946389497
 11
70.9544846717
 21
63.0946389497
  0
LINE
  5
23E
100
AcDbEntity
  8
0
100
AcDbLine
 62
7
  6
BYLAYER
 10
28.3544846717
 20
64.6946389497
 11
32.8544846717
 21
64.6946389497
  0
LINE
  5
23F
100
AcDbEntity
  8
0
100
AcDbLine
 62
7
  6
BYLAYER
 10
48.8544846717
 20
65.1946389497
 11
38.3544846717
 21
65.1946389497
  0
LINE
  5
240
100
AcDbEntity
  8
0
100
AcDbLine
 62
7
  6
BYLAYER
 10
21.5544846717
 20
65.1946389497
 11
16.1544846717
 21
65.1946389497
  0
LINE
  5
241
100
AcDbEntity
  8
0
100
AcDbLine
 62
7
  6
BYLAYER
 10
70.9188437619
 20
65.7946389497
 11
49.8544846717
 21
65.7946389497
  0
LINE
  5
242
100
AcDbEntity
  8
0
100
AcDbLine
 62
7
  6
BYLAYER
 10
28.3544846717
 20
66.1946389497
 11
26.8544846717
 21
66.1946389497
  0
LINE
  5
243
100
AcDbEntity
  8
0
100
AcDbLine
 62
7
  6
BYLAYER
 10
32.8544846719
 20
66.1946389496
 11
38.3544846717
 21
66.1946389497
  0
LINE
  5
244
100
AcDbEntity
  8
0
100
AcDbLine
 62
7
  6
BYLAYER
 10
16.1544846717
 20
67.1946389497
 11
20.8544846717
 21
67.1946389497
  0
LINE
  5
245
100
AcDbEntity
  8
0
100
AcDbLine
 62
7
  6
BYLAYER
 10
21.4524267067
 20
67.5946389497
 11
16.2565426366
 21
67.5946389497
  0
LINE
  5
246
100
AcDbEntity
  8
0
100
AcDbLine
 62
7
  6
BYLAYER
 10
38.3544846717
 20
67.6946389497
 11
27.3544846717
 21
67.6946389497
  0
LINE
  5
247
100
AcDbEntity
  8
0
100
AcDbLine
 62
7
  6
BYLAYER
 10
9.8544846717
 20
70.0674473155
 11
26.4224049756
 21
70.0674473155
  0
LINE
  5
248
100
AcDbEntity
  8
0
100
AcDbLine
 62
7
  6
BYLAYER
 10
75.4239439427
 20
65.000268237
 11
70.9188437619
 21
65.7946389497
  0
LINE
  5
249
100
AcDbEntity
  8
0
100
AcDbLine
 62
7
  6
BYLAYER
 10
56.4544846717
 20
55.2946389497
 11
56.4544846717
 21
63.0946389497
  0
LINE
  5
24A
100
AcDbEntity
  8
0
100
AcDbLine
 62
7
  6
BYLAYER
 10
24.6651559564
 20
71.7783720363
 11
9.8544846717
 21
71.7783720363
  0
LINE
  5
24B
100
AcDbEntity
  8
0
100
AcDbLine
 62
7
  6
BYLAYER
 10
70.9544846717
 20
63.0946389497
 11
70.9544846717
 21
55.2946389497
  0
LINE
  5
24C
100
AcDbEntity
  8
0
100
AcDbLine
 62
7
  6
BYLAYER
 10
9.8544846717
 20
85.9719507517
 11
37.4077673825
 21
85.9719507517
  0
LINE
  5
24D
100
AcDbEntity
  8
0
100
AcDbLine
 62
7
  6
BYLAYER
 10
9.8544846717
 20
86.6946389497
 11
38.3544846717
 21
86.6946389497
  0
LINE
  5
24E
100
AcDbEntity
  8
0
100
AcDbLine
 62
7
  6
BYLAYER
 10
73.7544846717
 20
60.8326439248
 11
73.7544846717
 21
57.5566339745
  0
LINE
  5
24F
100
AcDbEntity
  8
0
100
AcDbLine
 62
7
  6
BYLAYER
 10
75.7544846717
 20
64.6063451358
 11
75.7544846717
 21
61.7566339745
  0
LINE
  5
250
100
AcDbEntity
  8
0
100
AcDbLine
 62
7
  6
BYLAYER
 10
75.7544846717
 20
56.6326439248
 11
75.7544846717
 21
53.7829327636
  0
ARC
  5
251
100
AcDbEntity
  8
0
100
AcDbCircle
 62
7
  6
BYLAYER
 10
32.8544846717
 20
59.1946389497
 40
7.0
100
AcDbArc
 50
38.2132107017
 51
89.9999999978
  0
ARC
  5
252
100
AcDbEntity
  8
0
100
AcDbCircle
 62
7
  6
BYLAYER
 10
32.8544846717
 20
59.1946389497
 40
7.0
100
AcDbArc
 50
271.4847898259
 51
321.7867892983
  0
ARC
  5
253
100
AcDbEntity
  8
0
100
AcDbCircle
 62
7
  6
BYLAYER
 10
18.8544846717
 20
62.1946389497
 40
6.0
100
AcDbArc
 50
63.2563160496
 51
116.7436839504
  0
ARC
  5
254
100
AcDbEntity
  8
0
100
AcDbCircle
 62
7
  6
BYLAYER
 10
18.8544846717
 20
56.1946389497
 40
6.0
100
AcDbArc
 50
243.2563160496
 51
296.7436839504
  0
ARC
  5
255
100
AcDbEntity
  8
0
100
AcDbCircle
 62
7
  6
BYLAYER
 10
32.8544846717
 20
59.1946389497
 40
5.5
100
AcDbArc
 50
270.0
 51
90.0
  0
CIRCLE
  5
256
100
AcDbEntity
  8
0
100
AcDbCircle
 62
7
  6
BYLAYER
 10
32.8544846717
 20
59.1946389497
 40
5.0
  0
ARC
  5
257
100
AcDbEntity
  8
0
100
AcDbCircle
 62
7
  6
BYLAYER
 10
18.8544846717
 20
59.1946389497
 40
4.0
100
AcDbArc
 50
227.0515163778
 51
312.9441756827
  0
ARC
  5
258
100
AcDbEntity
  8
0
100
AcDbCircle
 62
7
  6
BYLAYER
 10
18.8544846717
 20
59.1946389497
 40
4.0
100
AcDbArc
 50
47.0515163778
 51
132.9441756827
  0
ARC
  5
259
100
AcDbEntity
  8
0
100
AcDbCircle
 62
7
  6
BYLAYER
 10
20.8544846717
 20
64.1946389497
 40
3.0
100
AcDbArc
 50
71.4962958737
 51
90.0
  0
ARC
  5
25A
100
AcDbEntity
  8
0
100
AcDbCircle
 62
7
  6
BYLAYER
 10
20.8544846717
 20
54.1946389497
 40
3.0
100
AcDbArc
 50
270.0
 51
288.5037041263
  0
CIRCLE
  5
25B
100
AcDbEntity
  8
0
100
AcDbCircle
 62
7
  6
BYLAYER
 10
32.8544846717
 20
59.1946389497
 40
2.65
  0
CIRCLE
  5
25C
100
AcDbEntity
  8
0
100
AcDbCircle
 62
7
  6
BYLAYER
 10
18.8544846717
 20
59.1946389497
 40
2.5
  0
CIRCLE
  5
25D
100
AcDbEntity
  8
0
100
AcDbCircle
 62
7
  6
BYLAYER
 10
18.8544846717
 20
59.1946389497
 40
2.0
  0
CIRCLE
  5
25E
100
AcDbEntity
  8
0
100
AcDbCircle
 62
7
  6
BYLAYER
 10
32.8544846717
 20
59.1946389497
 40
2.0
  0
CIRCLE
  5
25F
100
AcDbEntity
  8
0
100
AcDbCircle
 62
7
  6
BYLAYER
 10
32.8544846717
 20
59.1946389497
 40
1.6
  0
ARC
  5
260
100
AcDbEntity
  8
0
100
AcDbCircle
 62
7
  6
BYLAYER
 10
28.3544846717
 20
52.1946389497
 40
1.5
100
AcDbArc
 50
90.0
 51
180.0
  0
ARC
  5
261
100
AcDbEntity
  8
0
100
AcDbCircle
 62
7
  6
BYLAYER
 10
28.3544846717
 20
66.1946389497
 40
1.5
100
AcDbArc
 50
180.0
 51
270.0
  0
ARC
  5
262
100
AcDbEntity
  8
0
100
AcDbCircle
 62
7
  6
BYLAYER
 10
27.3544846717
 20
51.1946389497
 40
0.5
100
AcDbArc
 50
180.0
 51
269.9997893097
  0
ARC
  5
263
100
AcDbEntity
  8
0
100
AcDbCircle
 62
7
  6
BYLAYER
 10
27.3544846717
 20
67.1946389497
 40
0.5
100
AcDbArc
 50
90.0007338037
 51
180.0
  0
ARC
  5
264
100
AcDbEntity
  8
0
100
AcDbCircle
 62
7
  6
BYLAYER
 10
75.3544846717
 20
53.7829327636
 40
0.4
100
AcDbArc
 50
280.0000000004
 51
360.0
  0
ARC
  5
265
100
AcDbEntity
  8
0
100
AcDbCircle
 62
7
  6
BYLAYER
 10
75.3544846717
 20
56.6326439248
 40
0.4
100
AcDbArc
 50
0.0
 51
84.2894068625
  0
ARC
  5
266
100
AcDbEntity
  8
0
100
AcDbCircle
 62
7
  6
BYLAYER
 10
74.1544846717
 20
57.5566339745
 40
0.4
100
AcDbArc
 50
180.0
 51
264.2894068623
  0
ARC
  5
267
100
AcDbEntity
  8
0
100
AcDbCircle
 62
7
  6
BYLAYER
 10
74.1544846717
 20
60.8326439248
 40
0.4
100
AcDbArc
 50
95.7105931377
 51
180.0
  0
ARC
  5
268
100
AcDbEntity
  8
0
100
AcDbCircle
 62
7
  6
BYLAYER
 10
75.3544846717
 20
64.6063451358
 40
0.4
100
AcDbArc
 50
0.0
 51
80.0000000005
  0
ARC
  5
269
100
AcDbEntity
  8
0
100
AcDbCircle
 62
7
  6
BYLAYER
 10
75.3544846717
 20
61.7566339745
 40
0.4
100
AcDbArc
 50
275.7105931377
 51
360.0
  0
SPLINE
  5
26A
100
AcDbEntity
  8
0
100
AcDbSpline
 62
7
  6
BYLAYER
 70
0
 71
3
 72
9
 73
5
 74
0
 42
0.0000001
 43
0.0000001
 44
0.0000000001
 40
0.0
 40
0.0
 40
0.0
 40
0.0
 40
0.2453537735
 40
1.0
 40
1.0
 40
1.0
 40
1.0
 10
38.3544852106
 20
86.3375055516
 30
0.0
 10
38.2755700117
 20
86.3117250913
 30
0.0
 10
37.9553281923
 20
86.2024042561
 30
0.0
 10
37.641013872
 20
86.0758659657
 30
0.0
 10
37.407767625
 20
85.9719510218
 30
0.0
  0
SPLINE
  5
26B
100
AcDbEntity
  8
0
100
AcDbSpline
 62
7
  6
BYLAYER
 70
0
 71
3
 72
11
 73
7
 74
0
 42
0.0000001
 43
0.0000001
 44
0.0000000001
 40
0.0
 40
0.0
 40
0.0
 40
0.0
 40
0.2424826938
 40
0.4967987704
 40
0.7528502503
 40
1.0
 40
1.0
 40
1.0
 40
1.0
 10
26.4224049756
 20
70.0674473155
 30
0.0
 10
26.3714475635
 20
70.268080567
 30
0.0
 10
26.201072333
 20
70.6640241347
 30
0.0
 10
25.7958579558
 20
71.1714900333
 30
0.0
 10
25.2742797946
 20
71.5648619729
 30
0.0
 10
24.8702816655
 20
71.7289842305
 30
0.0
 10
24.6651559564
 20
71.7783720363
 30
0.0
  0
SPLINE
  5
26C
100
AcDbEntity
  8
0
100
AcDbSpline
 62
7
  6
BYLAYER
 70
0
 71
3
 72
11
 73
7
 74
0
 42
0.0000001
 43
0.0000001
 44
0.0000000001
 40
0.0
 40
0.0
 40
0.0
 40
0.0
 40
0.2471497497
 40
0.5032012296
 40
0.7575173062
 40
1.0
 40
1.0
 40
1.0
 40
1.0
 10
24.6651559564
 20
46.610905863
 30
0.0
 10
24.8702816655
 20
46.6602936688
 30
0.0
 10
25.2742797946
 20
46.8244159265
 30
0.0
 10
25.7958579558
 20
47.2177878661
 30
0.0
 10
26.201072333
 20
47.7252537646
 30
0.0
 10
26.3714475635
 20
48.1211973324
 30
0.0
 10
26.4224049756
 20
48.3218305838
 30
0.0
  0
SPLINE
  5
26D
100
AcDbEntity
  8
0
100
AcDbSpline
 62
7
  6
BYLAYER
 70
0
 71
3
 72
9
 73
5
 74
0
 42
0.0000001
 43
0.0000001
 44
0.0000000001
 40
0.0
 40
0.0
 40
0.0
 40
0.0
 40
0.245360061
 40
1.0
 40
1.0
 40
1.0
 40
1.0
 10
38.3544846717
 20
32.0517582881
 30
0.0
 10
38.2755669731
 20
32.077539565
 30
0.0
 10
37.9553369077
 20
32.1869010748
 30
0.0
 10
37.6410110143
 20
32.313412441
 30
0.0
 10
37.4077652998
 20
32.4173271477
 30
0.0
  0
SPLINE
  5
26E
100
AcDbEntity
  8
0
100
AcDbSpline
 62
7
  6
BYLAYER
 70
0
 71
3
 72
30
 73
26
 74
0
 42
0.0000001
 43
0.0000001
 44
0.0000000001
 40
0.0
 40
0.0
 40
0.0
 40
0.0
 40
0.0003377357
 40
0.0014238936
 40
0.0032529239
 40
0.0058163171
 40
0.0091052858
 40
0.0131109841
 40
0.0232371518
 40
0.0361157493
 40
0.0516404089
 40
0.0696991041
 40
0.0901797862
 40
0.1129672279
 40
0.1379295881
 40
0.1938300312
 40
0.2568015644
 40
0.3258504084
 40
0.4000197065
 40
0.4784608475
 40
0.5603836044
 40
0.6450827964
 40
0.7319818627
 40
0.8205097446
 40
1.0
 40
1.0
 40
1.0
 40
1.0
 10
27.3544650774
 20
67.6946389466
 30
0.0
 10
27.3542621549
 20
67.6946426387
 30
0.0
 10
27.3553366978
 20
67.6933790056
 30
0.0
 10
27.3557505411
 20
67.6922618102
 30
0.0
 10
27.3579443049
 20
67.6892137598
 30
0.0
 10
27.3603535106
 20
67.6855175684
 30
0.0
 10
27.3637314529
 20
67.6805550294
 30
0.0
 10
27.3695603847
 20
67.671904278
 30
0.0
 10
27.3786457899
 20
67.6584244469
 30
0.0
 10
27.3915044338
 20
67.639182324
 30
0.0
 10
27.4069933766
 20
67.6159476086
 30
0.0
 10
27.4249974412
 20
67.5889051495
 30
0.0
 10
27.4454239038
 20
67.5582302375
 30
0.0
 10
27.4681656122
 20
67.5241134178
 30
0.0
 10
27.5027275151
 20
67.472295303
 30
0.0
 10
27.550699302
 20
67.4003950477
 30
0.0
 10
27.6133484863
 20
67.3064390856
 30
0.0
 10
27.6820683317
 20
67.2033359314
 30
0.0
 10
27.7559250169
 20
67.0924847218
 30
0.0
 10
27.8340851629
 20
66.9752045551
 30
0.0
 10
27.915829926
 20
66.8527091178
 30
0.0
 10
28.0004405377
 20
66.7260158118
 30
0.0
 10
28.087125174
 20
66.5959343245
 30
0.0
 10
28.2049434432
 20
66.4181496795
 30
0.0
 10
28.2940538743
 20
66.2839821046
 30
0.0
 10
28.3544846717
 20
66.1946389497
 30
0.0
  0
SPLINE
  5
26F
100
AcDbEntity
  8
0
100
AcDbSpline
 62
7
  6
BYLAYER
 70
0
 71
3
 72
30
 73
26
 74
0
 42
0.0000001
 43
0.0000001
 44
0.0000000001
 40
0.0
 40
0.0
 40
0.0
 40
0.0
 40
0.0003366796
 40
0.0014217559
 40
0.0032495821
 40
0.0058116726
 40
0.0090992759
 40
0.013103585
 40
0.0232270617
 40
0.0361033021
 40
0.051625966
 40
0.0696829881
 40
0.0901622806
 40
0.1129485907
 40
0.1379100757
 40
0.193809508
 40
0.2567809361
 40
0.3258304468
 40
0.4000010522
 40
0.4784440113
 40
0.5603690097
 40
0.6450707593
 40
0.7319726259
 40
0.82050349
 40
1.0
 40
1.0
 40
1.0
 40
1.0
 10
26.854484684
 20
51.1946125659
 30
0.0
 10
26.8544772539
 20
51.1944103805
 30
0.0
 10
26.8557463461
 20
51.19548727
 30
0.0
 10
26.8568533332
 20
51.1958983686
 30
0.0
 10
26.8599038355
 20
51.1980933932
 30
0.0
 10
26.8635956852
 20
51.2005009398
 30
0.0
 10
26.8685569108
 20
51.2038780351
 30
0.0
 10
26.8772045572
 20
51.2097050124
 30
0.0
 10
26.8906816107
 20
51.2187881577
 30
0.0
 10
26.9099201591
 20
51.2316443979
 30
0.0
 10
26.9331519295
 20
51.2471314011
 30
0.0
 10
26.9601918435
 20
51.2651338883
 30
0.0
 10
26.9908646742
 20
51.2855590625
 30
0.0
 10
27.024979845
 20
51.3082997015
 30
0.0
 10
27.0767965541
 20
51.3428606565
 30
0.0
 10
27.1486959786
 20
51.3908318259
 30
0.0
 10
27.2426518913
 20
51.4534809817
 30
0.0
 10
27.3457561616
 20
51.5222015989
 30
0.0
 10
27.4566094713
 20
51.596059695
 30
0.0
 10
27.5738925513
 20
51.6742217644
 30
0.0
 10
27.6963915432
 20
51.755968865
 30
0.0
 10
27.8230888793
 20
51.8405821821
 30
0.0
 10
27.9531747596
 20
51.9272697957
 30
0.0
 10
28.1309657517
 20
52.0450923096
 30
0.0
 10
28.265138235
 20
52.1342059326
 30
0.0
 10
28.3544846717
 20
52.1946389497
 30
0.0
  0
ENDSEC
  0
SECTION
  2
OBJECTS
  0
DICTIONARY
  5
C
100
AcDbDictionary
280
0
281
1
  3
ACAD_GROUP
350
D
  3
ACAD_MLINESTYLE
350
17
  3
ACAD_LAYOUT
350
1A
  3
ACAD_PLOTSETTINGS
350
19
  3
ACAD_PLOTSTYLENAME
350
E
  0
DICTIONARY
  5
D
102
{ACAD_REACTORS
330
C
102
}
100
AcDbDictionary
280
0
281
1
  0
ACDBDICTIONARYWDFLT
  5
E
102
{ACAD_REACTORS
330
C
102
}
100
AcDbDictionary
281
1
  3
Normal
350
F
100
AcDbDictionaryWithDefault
340
F
  0
DICTIONARY
  5
17
102
{ACAD_REACTORS
330
C
102
}
100
AcDbDictionary
280
0
281
1
  3
Standard
350
18
  0
DICTIONARY
  5
19
102
{ACAD_REACTORS
330
C
102
}
100
AcDbDictionary
281
1
  0
DICTIONARY
  5
1A
102
{ACAD_REACTORS
330
C
102
}
100
AcDbDictionary
281
1
  3
Model
350
270
  3
Layout1
350
271
  0
ACDBPLACEHOLDER
  5
F
102
{ACAD_REACTORS
330
E
102
}
  0
MLINESTYLE
  5
18
102
{ACAD_REACTORS
330
17
102
}
100
AcDbMlineStyle
  2
STANDARD
 70
0
  3

 62
256
 51
90.0
 52
90.0
 71
2
 49
0.5
 62
256
  6
BYLAYER
 49
-0.5
 62
256
  6
BYLAYER
  0
LAYOUT
  5
270
102
{ACAD_REACTORS
330
1A
102
}
100
AcDbPlotSettings
  1

  2
none_device
  4

  6

 40
0.0
 41
0.0
 42
0.0
 43
0.0
 44
210.0
 45
297.0
 46
0.0
 47
0.0
 48
0.0
 49
0.0
140
0.0
141
0.0
142
1.0
143
1.0
 70
1024
 72
1
 73
0
 74
0
  7

 75
0
147
1.0
148
0.0
149
0.0
100
AcDbLayout
  1
Model
 70
0
 71
0
 10
0.0
 20
0.0
 11
210.0
 21
297.0
 12
0.0
 22
0.0
 32
0.0
 14
0.0
 24
0.0
 34
0.0
 15
0.0
 25
0.0
 35
0.0
146
0.0
 13
0.0
 23
0.0
 33
0.0
 16
1.0
 26
0.0
 36
0.0
 17
0.0
 27
1.0
 37
0.0
 76
0
330
210
345
0
346
0
  0
LAYOUT
  5
271
102
{ACAD_REACTORS
330
1A
102
}
100
AcDbPlotSettings
  1

  2
none_device
  4

  6

 40
0.0
 41
0.0
 42
0.0
 43
0.0
 44
210.0
 45
297.0
 46
0.0
 47
0.0
 48
0.0
 49
0.0
140
0.0
141
0.0
142
1.0
143
1.0
 70
0
 72
1
 73
0
 74
0
  7

 75
0
147
1.0
148
0.0
149
0.0
100
AcDbLayout
  1
Layout1
 70
0
 71
1
 10
0.0
 20
0.0
 11
210.0
 21
297.0
 12
0.0
 22
0.0
 32
0.0
 14
0.0
 24
0.0
 34
0.0
 15
0.0
 25
0.0
 35
0.0
146
0.0
 13
0.0
 23
0.0
 33
0.0
 16
1.0
 26
0.0
 36
0.0
 17
0.0
 27
1.0
 37
0.0
 76
0
330
211
345
0
346
0
  0
ENDSEC
  0
EOF
