999
DXF file: C:\Users\sesa63760\Dev\_Creo\CAD\MCADID0004745_3D-CAD\drw0001_4.dxf
999
Pro/ENGINEER 2019471 by Parametric Technology Corporation
  0
SECTION
  2
HEADER
  9
$ACADVER
  1
AC1024
  9
$DWGCODEPAGE
  3
ANSI_1252
  9
$EXTMAX
 10
32.208596759
 20
45.5521582734
 30
0.0
  9
$EXTMIN
 10
0.0
 20
0.0
 30
0.0
  9
$LIMMIN
 10
0.0
 20
0.0
  9
$LIMMAX
 10
32.208596759
 20
45.5521582734
  9
$VIEWCTR
 10
16.1042983795
 20
22.7760791367
  9
$VIEWSIZE
 40
45.5521582734
  9
$CLAYER
  8
0
  9
$LTSCALE
 40
2.9693258726
  9
$CELTYPE
  6
BYLAYER
  9
$DIMSCALE
 40
1.0
  9
$DIMASZ
 40
0.3834356757
  9
$DIMEXO
 40
1.0
  9
$DIMDLI
 40
2.0515342393
  9
$DIMEXE
 40
1.0
  9
$DIMCEN
 40
0.4858896882
  9
$DIMLFAC
 40
1.0
  9
$DIMBLK
  1
_FILLED
  9
$DIMALT
 70
0
  9
$DIMALTF
 40
0.0393700787
  9
$DIMTXT
 40
0.536809946
  9
$DIMTOL
 70
1
  9
$DIMLIM
 70
0
  9
$DIMTFAC
 40
1.0
  9
$DIMTP
 40
0.01
  9
$DIMTM
 40
0.01
  9
$DIMGAP
 40
0.625
  9
$DIMDSEP
 70
46
  9
$AUNITS
 70
0
  9
$PDMODE
 70
3
  9
$PDSIZE
 40
0.3125
  9
$HANDSEED
  5
25C
  9
$TILEMODE
 70
1
  9
$MEASUREMENT
 70
1
  9
$INSUNITS
 70
4
  0
ENDSEC
  0
SECTION
  2
CLASSES
  0
CLASS
  1
ACDBDICTIONARYWDFLT
  2
AcDbDictionaryWithDefault
  3
AutoCAD 2000
 90
0
 91
1
280
0
281
0
  0
CLASS
  1
ACDBPLACEHOLDER
  2
AcDbPlaceHolder
  3
AutoCAD 2000
 90
0
 91
1
280
0
281
0
  0
CLASS
  1
LAYOUT
  2
AcDbLayout
  3
AutoCAD 2000
 90
0
 91
0
280
0
281
0
  0
ENDSEC
  0
SECTION
  2
TABLES
  0
TABLE
  2
VPORT
  5
8
100
AcDbSymbolTable
 70
2
  0
VPORT
  5
1F4
100
AcDbSymbolTableRecord
100
AcDbViewportTableRecord
  2
*ACTIVE
 70
0
 10
0.0
 20
0.0
 11
1.0
 21
1.0
 12
16.1042983795
 22
22.7760791367
 13
0.0
 23
0.0
 14
1.0
 24
1.0
 15
0.0
 25
0.0
 16
0.0
 26
0.0
 36
1.0
 17
0.0
 27
0.0
 37
0.0
 40
45.5521582734
 41
0.7070707071
 42
50.0
 43
0.0
 44
0.0
 50
0.0
 51
0.0
 71
0
 72
100
 73
1
 74
1
 75
0
 76
0
 77
0
 78
0
  0
ENDTAB
  0
TABLE
  2
LTYPE
  5
5
100
AcDbSymbolTable
 70
6
  0
LTYPE
  5
14
100
AcDbSymbolTableRecord
100
AcDbLinetypeTableRecord
  2
BYBLOCK
 70
0
  3

 72
65
 73
0
 40
0.0
  0
LTYPE
  5
15
100
AcDbSymbolTableRecord
100
AcDbLinetypeTableRecord
  2
BYLAYER
 70
0
  3

 72
65
 73
0
 40
0.0
  0
LTYPE
  5
16
100
AcDbSymbolTableRecord
100
AcDbLinetypeTableRecord
  2
CONTINUOUS
 70
64
  3
Solid line
 72
65
 73
0
 40
0.0
  0
LTYPE
  5
1F5
100
AcDbSymbolTableRecord
100
AcDbLinetypeTableRecord
  2
CENTER
 70
64
  3
____ _ ____ _ ____ _ ____ _ ____ _ ____ _ ____
 72
65
 73
4
 40
0.6
 49
0.375
 74
0
 49
-0.075
 74
0
 49
0.075
 74
0
 49
-0.075
 74
0
  0
LTYPE
  5
1F6
100
AcDbSymbolTableRecord
100
AcDbLinetypeTableRecord
  2
HIDDEN
 70
64
  3
- - - - - - - - - - - - - - - - - - - -
 72
65
 73
2
 40
0.2
 49
0.1
 74
0
 49
-0.1
 74
0
  0
LTYPE
  5
1F7
100
AcDbSymbolTableRecord
100
AcDbLinetypeTableRecord
  2
PHANTOM
 70
64
  3
_____ _ _ _____ _ _ _____ _ _ _____
 72
65
 73
6
 40
0.8
 49
0.45
 74
0
 49
-0.05
 74
0
 49
0.1
 74
0
 49
-0.05
 74
0
 49
0.1
 74
0
 49
-0.05
 74
0
  0
LTYPE
  5
1F8
100
AcDbSymbolTableRecord
100
AcDbLinetypeTableRecord
  2
DOT
 70
64
  3
. . . . . . . . . . . . . . . . . . . .
 72
65
 73
2
 40
0.2
 49
0.1
 74
0
 49
-0.1
 74
0
  0
LTYPE
  5
1F9
100
AcDbSymbolTableRecord
100
AcDbLinetypeTableRecord
  2
DASHED
 70
64
  3
- - - - - - - - - - - - - - - - - - - -
 72
65
 73
2
 40
0.2
 49
0.1
 74
0
 49
-0.1
 74
0
  0
ENDTAB
  0
TABLE
  2
LAYER
  5
2
100
AcDbSymbolTable
 70
36
  0
LAYER
  5
10
100
AcDbSymbolTableRecord
100
AcDbLayerTableRecord
  2
0
 70
0
 62
7
  6
CONTINUOUS
370
-3
390
F
  0
LAYER
  5
1FA
100
AcDbSymbolTableRecord
100
AcDbLayerTableRecord
  2
DEFAULT_1
 70
0
 62
7
  6
CENTER
370
-3
390
F
  0
LAYER
  5
1FB
100
AcDbSymbolTableRecord
100
AcDbLayerTableRecord
  2
DEFAULT_2
 70
0
 62
7
  6
HIDDEN
370
-3
390
F
  0
LAYER
  5
1FC
100
AcDbSymbolTableRecord
100
AcDbLayerTableRecord
  2
DEFAULT_3
 70
0
 62
7
  6
PHANTOM
370
-3
390
F
  0
LAYER
  5
1FD
100
AcDbSymbolTableRecord
100
AcDbLayerTableRecord
  2
00_COMPONENTS
 70
0
 62
7
  6
CONTINUOUS
370
-3
390
F
  0
LAYER
  5
1FE
100
AcDbSymbolTableRecord
100
AcDbLayerTableRecord
  2
01_1_DEFAULT_DATUMS
 70
0
 62
7
  6
CONTINUOUS
370
-3
390
F
  0
LAYER
  5
1FF
100
AcDbSymbolTableRecord
100
AcDbLayerTableRecord
  2
01_PLANES
 70
0
 62
7
  6
CONTINUOUS
370
-3
390
F
  0
LAYER
  5
200
100
AcDbSymbolTableRecord
100
AcDbLayerTableRecord
  2
02_COORD_SYS
 70
0
 62
7
  6
CONTINUOUS
370
-3
390
F
  0
LAYER
  5
201
100
AcDbSymbolTableRecord
100
AcDbLayerTableRecord
  2
03_AXES
 70
0
 62
7
  6
CONTINUOUS
370
-3
390
F
  0
LAYER
  5
202
100
AcDbSymbolTableRecord
100
AcDbLayerTableRecord
  2
04_POINTS
 70
0
 62
7
  6
CONTINUOUS
370
-3
390
F
  0
LAYER
  5
203
100
AcDbSymbolTableRecord
100
AcDbLayerTableRecord
  2
05_CURVES
 70
0
 62
7
  6
CONTINUOUS
370
-3
390
F
  0
LAYER
  5
204
100
AcDbSymbolTableRecord
100
AcDbLayerTableRecord
  2
06_SURFS
 70
0
 62
7
  6
CONTINUOUS
370
-3
390
F
  0
LAYER
  5
205
100
AcDbSymbolTableRecord
100
AcDbLayerTableRecord
  2
07_COSMETICS
 70
0
 62
7
  6
CONTINUOUS
370
-3
390
F
  0
LAYER
  5
206
100
AcDbSymbolTableRecord
100
AcDbLayerTableRecord
  2
10_NOTES
 70
0
 62
7
  6
CONTINUOUS
370
-3
390
F
  0
LAYER
  5
207
100
AcDbSymbolTableRecord
100
AcDbLayerTableRecord
  2
11_NOTES_PUB
 70
0
 62
7
  6
CONTINUOUS
370
-3
390
F
  0
LAYER
  5
208
100
AcDbSymbolTableRecord
100
AcDbLayerTableRecord
  2
13_REF_GTOL
 70
0
 62
7
  6
CONTINUOUS
370
-3
390
F
  0
LAYER
  5
209
100
AcDbSymbolTableRecord
100
AcDbLayerTableRecord
  2
16_MISC
 70
0
 62
7
  6
CONTINUOUS
370
-3
390
F
  0
LAYER
  5
20A
100
AcDbSymbolTableRecord
100
AcDbLayerTableRecord
  2
17_NO_PRINT
 70
0
 62
7
  6
CONTINUOUS
370
-3
390
F
  0
LAYER
  5
20B
100
AcDbSymbolTableRecord
100
AcDbLayerTableRecord
  2
18_DATUM_CAMS_JOINTS
 70
0
 62
7
  6
CONTINUOUS
370
-3
390
F
  0
LAYER
  5
20C
100
AcDbSymbolTableRecord
100
AcDbLayerTableRecord
  2
19_DATUM_FUNCTIONAL
 70
0
 62
7
  6
CONTINUOUS
370
-3
390
F
  0
LAYER
  5
20D
100
AcDbSymbolTableRecord
100
AcDbLayerTableRecord
  2
20_DATUM_KINEMATIC_SCHEME
 70
0
 62
7
  6
CONTINUOUS
370
-3
390
F
  0
ENDTAB
  0
TABLE
  2
STYLE
  5
3
100
AcDbSymbolTable
 70
1
  0
STYLE
  5
11
100
AcDbSymbolTableRecord
100
AcDbTextStyleTableRecord
  2
STANDARD
 70
0
 40
0.0
 41
1.0
 50
0.0
 71
0
 42
0.2
  3
ARIAL.TTF
  4

  0
STYLE
  5
20E
100
AcDbSymbolTableRecord
100
AcDbTextStyleTableRecord
  2
TEXTSTYLE_1
 70
0
 40
0.0
 41
0.8
 50
0.0
 71
0
 42
0.2
  3
gdt
  4

  0
ENDTAB
  0
TABLE
  2
VIEW
  5
6
100
AcDbSymbolTable
 70
0
  0
ENDTAB
  0
TABLE
  2
UCS
  5
7
100
AcDbSymbolTable
 70
0
  0
ENDTAB
  0
TABLE
  2
APPID
  5
9
100
AcDbSymbolTable
 70
1
  0
APPID
  5
20F
100
AcDbSymbolTableRecord
100
AcDbRegAppTableRecord
  2
ACAD
 70
0
  0
ENDTAB
  0
TABLE
  2
BLOCK_RECORD
  5
1
100
AcDbSymbolTable
 70
0
  0
BLOCK_RECORD
  5
210
100
AcDbSymbolTableRecord
100
AcDbBlockTableRecord
  2
*Model_Space
  0
BLOCK_RECORD
  5
211
100
AcDbSymbolTableRecord
100
AcDbBlockTableRecord
  2
*Paper_Space
  0
BLOCK_RECORD
  5
212
100
AcDbSymbolTableRecord
100
AcDbBlockTableRecord
  2
_FILLED
  0
ENDTAB
  0
TABLE
  2
DIMSTYLE
  5
A
100
AcDbSymbolTable
 70
1
100
AcDbDimStyleTable
 71
0
  0
DIMSTYLE
105
213
100
AcDbSymbolTableRecord
100
AcDbDimStyleTableRecord
  2
STANDARD
 70
0
  3

  4

 40
1.0
 41
0.3834356757
 42
1.0
 43
0.38
 44
1.0
 45
0.0
 46
0.0
 47
0.01
 48
0.01
140
0.536809946
141
0.09
142
0.0
143
25.4
144
1.0
145
0.0
146
1.0
147
0.625
 71
1
 72
0
 73
0
 74
0
 75
0
 76
0
 77
1
 78
8
 79
2
170
0
171
1
172
0
173
0
174
0
175
0
176
0
177
0
178
0
270
2
179
2
271
2
272
2
273
2
274
2
275
0
280
0
281
0
282
0
283
1
284
8
285
0
286
0
287
3
288
0
340
11
278
46
341
212
342
212
343
212
344
212
  0
ENDTAB
  0
ENDSEC
  0
SECTION
  2
BLOCKS
  0
BLOCK
  5
20
100
AcDbEntity
  8
0
100
AcDbBlockBegin
  2
*Model_Space
 70
0
 10
0.0
 20
0.0
 30
0.0
  3
*Model_Space
  1

  0
ENDBLK
  5
21
100
AcDbEntity
  8
0
100
AcDbBlockEnd
  0
BLOCK
  5
1C
100
AcDbEntity
  8
0
100
AcDbBlockBegin
  2
*Paper_Space
 70
0
 10
0.0
 20
0.0
 30
0.0
  3
*Paper_Space
  1

  0
ENDBLK
  5
1D
100
AcDbEntity
  8
0
100
AcDbBlockEnd
  0
BLOCK
  5
214
100
AcDbEntity
  8
0
100
AcDbBlockBegin
  2
_FILLED
 70
64
 10
0.0
 20
0.0
  3
_FILLED
  1

  0
SOLID
  5
215
100
AcDbEntity
  8
0
  6
BYBLOCK
 62
0
100
AcDbTrace
 10
0.0
 20
0.0
 11
-1.0
 21
0.25
 12
-1.0
 22
-0.25
 13
-1.0
 23
-0.25
  0
ENDBLK
  5
216
100
AcDbEntity
  8
0
  6
BYBLOCK
 62
0
100
AcDbBlockEnd
  0
ENDSEC
  0
SECTION
  2
ENTITIES
  0
LINE
  5
217
100
AcDbEntity
  8
0
100
AcDbLine
 62
7
  6
BYLAYER
 10
22.3724544968
 20
3.2616906475
 11
10.6724731975
 21
3.2616906475
  0
LINE
  5
218
100
AcDbEntity
  8
0
100
AcDbLine
 62
7
  6
BYLAYER
 10
22.8724638471
 20
3.7616906475
 11
10.1724638471
 21
3.7616906475
  0
LINE
  5
219
100
AcDbEntity
  8
0
100
AcDbLine
 62
7
  6
BYLAYER
 10
10.1725471635
 20
5.7616906475
 11
22.8723805307
 21
5.7616906475
  0
LINE
  5
21A
100
AcDbEntity
  8
0
100
AcDbLine
 62
7
  6
BYLAYER
 10
22.5224638471
 20
5.8616906475
 11
10.5224638471
 21
5.8616906475
  0
LINE
  5
21B
100
AcDbEntity
  8
0
100
AcDbLine
 62
7
  6
BYLAYER
 10
22.5224638471
 20
6.8616906475
 11
10.5224638471
 21
6.8616906475
  0
LINE
  5
21C
100
AcDbEntity
  8
0
100
AcDbLine
 62
7
  6
BYLAYER
 10
22.8723805307
 20
6.9616906475
 11
10.1725471635
 21
6.9616906475
  0
LINE
  5
21D
100
AcDbEntity
  8
0
100
AcDbLine
 62
7
  6
BYLAYER
 10
10.1725471635
 20
8.1116906475
 11
22.8723805307
 21
8.1116906475
  0
LINE
  5
21E
100
AcDbEntity
  8
0
100
AcDbLine
 62
7
  6
BYLAYER
 10
23.2223761261
 20
9.4616906475
 11
9.8225515681
 21
9.4616906475
  0
LINE
  5
21F
100
AcDbEntity
  8
0
100
AcDbLine
 62
7
  6
BYLAYER
 10
24.52245943
 20
11.5616906475
 11
8.5224682642
 21
11.5616906475
  0
LINE
  5
220
100
AcDbEntity
  8
0
100
AcDbLine
 62
7
  6
BYLAYER
 10
8.5224638471
 20
13.2616906475
 11
24.5224638471
 21
13.2616906475
  0
LINE
  5
221
100
AcDbEntity
  8
0
100
AcDbLine
 62
7
  6
BYLAYER
 10
9.0225592096
 20
13.7616906475
 11
24.0223684846
 21
13.7616906475
  0
LINE
  5
222
100
AcDbEntity
  8
0
100
AcDbLine
 62
7
  6
BYLAYER
 10
8.5224638471
 20
11.5616906475
 11
8.5224638471
 21
13.2616906475
  0
LINE
  5
223
100
AcDbEntity
  8
0
100
AcDbLine
 62
7
  6
BYLAYER
 10
9.8224638471
 20
9.4616906475
 11
9.8224638471
 21
11.5616906475
  0
LINE
  5
224
100
AcDbEntity
  8
0
100
AcDbLine
 62
7
  6
BYLAYER
 10
10.1724638471
 20
3.7616906475
 11
10.1724638471
 21
5.7616906475
  0
LINE
  5
225
100
AcDbEntity
  8
0
100
AcDbLine
 62
7
  6
BYLAYER
 10
10.1724638471
 20
6.9616906475
 11
10.1724638471
 21
8.1116906475
  0
LINE
  5
226
100
AcDbEntity
  8
0
100
AcDbLine
 62
7
  6
BYLAYER
 10
10.3224638471
 20
13.7616906475
 11
10.3224638471
 21
21.4616906475
  0
LINE
  5
227
100
AcDbEntity
  8
0
100
AcDbLine
 62
7
  6
BYLAYER
 10
10.9224638471
 20
5.7616906475
 11
10.9224638471
 21
5.8616906475
  0
LINE
  5
228
100
AcDbEntity
  8
0
100
AcDbLine
 62
7
  6
BYLAYER
 10
10.9224638471
 20
6.8616906475
 11
10.9224638471
 21
6.9616906475
  0
LINE
  5
229
100
AcDbEntity
  8
0
100
AcDbLine
 62
7
  6
BYLAYER
 10
11.0224638471
 20
8.1116906475
 11
11.0224638471
 21
9.4616906475
  0
LINE
  5
22A
100
AcDbEntity
  8
0
100
AcDbLine
 62
7
  6
BYLAYER
 10
12.5224638471
 20
42.0116906475
 11
12.5224638471
 21
34.5116906475
  0
LINE
  5
22B
100
AcDbEntity
  8
0
100
AcDbLine
 62
7
  6
BYLAYER
 10
12.5224638471
 20
22.4616906475
 11
12.5224638471
 21
28.1116906475
  0
LINE
  5
22C
100
AcDbEntity
  8
0
100
AcDbLine
 62
7
  6
BYLAYER
 10
13.0224638471
 20
34.5116906475
 11
13.0224638471
 21
28.1116906475
  0
LINE
  5
22D
100
AcDbEntity
  8
0
100
AcDbLine
 62
7
  6
BYLAYER
 10
11.3224638471
 20
22.4616906475
 11
10.3224638471
 21
21.4616906475
  0
LINE
  5
22E
100
AcDbEntity
  8
0
100
AcDbLine
 62
7
  6
BYLAYER
 10
16.5224638471
 20
41.392888494
 11
16.5224638471
 21
39.130492801
  0
LINE
  5
22F
100
AcDbEntity
  8
0
100
AcDbLine
 62
7
  6
BYLAYER
 10
16.5224638471
 20
38.2836372912
 11
16.5224638471
 21
34.7397440038
  0
LINE
  5
230
100
AcDbEntity
  8
0
100
AcDbLine
 62
7
  6
BYLAYER
 10
10.3224638471
 20
21.4616906475
 11
22.7224638471
 21
21.4616906475
  0
LINE
  5
231
100
AcDbEntity
  8
0
100
AcDbLine
 62
7
  6
BYLAYER
 10
11.3224692756
 20
22.4616906475
 11
21.7224584186
 21
22.4616906475
  0
LINE
  5
232
100
AcDbEntity
  8
0
100
AcDbLine
 62
7
  6
BYLAYER
 10
24.0224638471
 20
13.7616906475
 11
24.5224638471
 21
13.2616906475
  0
LINE
  5
233
100
AcDbEntity
  8
0
100
AcDbLine
 62
7
  6
BYLAYER
 10
9.0224638471
 20
13.7616906475
 11
8.5224638471
 21
13.2616906475
  0
LINE
  5
234
100
AcDbEntity
  8
0
100
AcDbLine
 62
7
  6
BYLAYER
 10
20.0224638471
 20
28.1116906475
 11
20.0224638471
 21
34.5116906475
  0
LINE
  5
235
100
AcDbEntity
  8
0
100
AcDbLine
 62
7
  6
BYLAYER
 10
20.5224638471
 20
22.4616906475
 11
20.5224638471
 21
28.1116906475
  0
LINE
  5
236
100
AcDbEntity
  8
0
100
AcDbLine
 62
7
  6
BYLAYER
 10
20.5224638471
 20
34.5116906475
 11
20.5224638471
 21
42.0116906475
  0
LINE
  5
237
100
AcDbEntity
  8
0
100
AcDbLine
 62
7
  6
BYLAYER
 10
21.7224638471
 20
22.4616906475
 11
22.7224638471
 21
21.4616906475
  0
LINE
  5
238
100
AcDbEntity
  8
0
100
AcDbLine
 62
7
  6
BYLAYER
 10
22.0224638471
 20
8.1116906475
 11
22.0224638471
 21
9.4616906475
  0
LINE
  5
239
100
AcDbEntity
  8
0
100
AcDbLine
 62
7
  6
BYLAYER
 10
22.1224638471
 20
5.7616906475
 11
22.1224638471
 21
5.8616906475
  0
LINE
  5
23A
100
AcDbEntity
  8
0
100
AcDbLine
 62
7
  6
BYLAYER
 10
22.1224638471
 20
6.8616906475
 11
22.1224638471
 21
6.9616906475
  0
LINE
  5
23B
100
AcDbEntity
  8
0
100
AcDbLine
 62
7
  6
BYLAYER
 10
12.5224672709
 20
28.1116906475
 11
13.0224638471
 21
28.1116906475
  0
LINE
  5
23C
100
AcDbEntity
  8
0
100
AcDbLine
 62
7
  6
BYLAYER
 10
20.0224638471
 20
28.1116906475
 11
20.5224604233
 21
28.1116906475
  0
LINE
  5
23D
100
AcDbEntity
  8
0
100
AcDbLine
 62
7
  6
BYLAYER
 10
22.7224638471
 20
13.7616906475
 11
22.7224638471
 21
21.4616906475
  0
LINE
  5
23E
100
AcDbEntity
  8
0
100
AcDbLine
 62
7
  6
BYLAYER
 10
22.8724638471
 20
3.7616906475
 11
22.8724638471
 21
5.7616906475
  0
LINE
  5
23F
100
AcDbEntity
  8
0
100
AcDbLine
 62
7
  6
BYLAYER
 10
22.8724638471
 20
6.9616906475
 11
22.8724638471
 21
8.1116906475
  0
LINE
  5
240
100
AcDbEntity
  8
0
100
AcDbLine
 62
7
  6
BYLAYER
 10
23.2224638471
 20
9.4616906475
 11
23.2224638471
 21
11.5616906475
  0
LINE
  5
241
100
AcDbEntity
  8
0
100
AcDbLine
 62
7
  6
BYLAYER
 10
24.5224638471
 20
11.5616906475
 11
24.5224638471
 21
13.2616906475
  0
LINE
  5
242
100
AcDbEntity
  8
0
100
AcDbLine
 62
7
  6
BYLAYER
 10
13.0224638471
 20
34.0116906475
 11
20.0224638471
 21
34.0116906475
  0
LINE
  5
243
100
AcDbEntity
  8
0
100
AcDbLine
 62
7
  6
BYLAYER
 10
20.5224638471
 20
34.5116906475
 11
12.5224638471
 21
34.5116906475
  0
LINE
  5
244
100
AcDbEntity
  8
0
100
AcDbLine
 62
7
  6
BYLAYER
 10
20.5224638471
 20
38.5116906475
 11
12.5224638471
 21
38.5116906475
  0
LINE
  5
245
100
AcDbEntity
  8
0
100
AcDbLine
 62
7
  6
BYLAYER
 10
12.5224638471
 20
42.0116906475
 11
20.5224638471
 21
42.0116906475
  0
ARC
  5
246
100
AcDbEntity
  8
0
100
AcDbCircle
 62
7
  6
BYLAYER
 10
22.5224638471
 20
6.3616906475
 40
0.5
100
AcDbArc
 50
270.0
 51
90.0
  0
ARC
  5
247
100
AcDbEntity
  8
0
100
AcDbCircle
 62
7
  6
BYLAYER
 10
10.5224638471
 20
6.3616906475
 40
0.5
100
AcDbArc
 50
90.0
 51
270.0
  0
ARC
  5
248
100
AcDbEntity
  8
0
100
AcDbCircle
 62
7
  6
BYLAYER
 10
22.3724638471
 20
3.7616906475
 40
0.5
100
AcDbArc
 50
270.0
 51
360.0
  0
ARC
  5
249
100
AcDbEntity
  8
0
100
AcDbCircle
 62
7
  6
BYLAYER
 10
10.6724638471
 20
3.7616906475
 40
0.5
100
AcDbArc
 50
180.0
 51
270.0
  0
SPLINE
  5
24A
100
AcDbEntity
  8
0
100
AcDbSpline
 62
7
  6
BYLAYER
 70
0
 71
3
 72
11
 73
7
 74
0
 42
0.0000001
 43
0.0000001
 44
0.0000000001
 40
0.0
 40
0.0
 40
0.0
 40
0.0
 40
0.250915593
 40
0.5012173253
 40
0.7509025308
 40
1.0
 40
1.0
 40
1.0
 40
1.0
 10
20.5224638471
 20
34.8564349954
 30
0.0
 10
20.4148772692
 20
34.8186843128
 30
0.0
 10
20.1987035235
 20
34.7468031023
 30
0.0
 10
19.8709101806
 20
34.6516954691
 30
0.0
 10
19.5399664925
 20
34.5715489492
 30
0.0
 10
19.3171171708
 20
34.5294957814
 30
0.0
 10
19.2053350128
 20
34.5116906475
 30
0.0
  0
SPLINE
  5
24B
100
AcDbEntity
  8
0
100
AcDbSpline
 62
7
  6
BYLAYER
 70
0
 71
3
 72
9
 73
5
 74
0
 42
0.0000001
 43
0.0000001
 44
0.0000000001
 40
0.0
 40
0.0
 40
0.0
 40
0.0
 40
0.4991173144
 40
1.0
 40
1.0
 40
1.0
 40
1.0
 10
17.4855551591
 20
38.5116906475
 30
0.0
 10
17.3228422638
 20
38.4857730507
 30
0.0
 10
16.9989067937
 20
38.4202609359
 30
0.0
 10
16.6805147395
 20
38.3322119946
 30
0.0
 10
16.5224638471
 20
38.2836372912
 30
0.0
  0
SPLINE
  5
24C
100
AcDbEntity
  8
0
100
AcDbSpline
 62
7
  6
BYLAYER
 70
0
 71
3
 72
11
 73
7
 74
0
 42
0.0000001
 43
0.0000001
 44
0.0000000001
 40
0.0
 40
0.0
 40
0.0
 40
0.0
 40
0.2509234221
 40
0.5012262384
 40
0.7509050915
 40
1.0
 40
1.0
 40
1.0
 40
1.0
 10
20.5224638471
 20
38.1669462995
 30
0.0
 10
20.4148739175
 20
38.2046981582
 30
0.0
 10
20.1986953066
 20
38.2765776557
 30
0.0
 10
19.8709009144
 20
38.3716852177
 30
0.0
 10
19.5399621807
 20
38.4518374338
 30
0.0
 10
19.3171160163
 20
38.4938856974
 30
0.0
 10
19.2053350128
 20
38.5116906475
 30
0.0
  0
SPLINE
  5
24D
100
AcDbEntity
  8
0
100
AcDbSpline
 62
7
  6
BYLAYER
 70
0
 71
3
 72
9
 73
5
 74
0
 42
0.0000001
 43
0.0000001
 44
0.0000000001
 40
0.0
 40
0.0
 40
0.0
 40
0.0
 40
0.4991125907
 40
1.0
 40
1.0
 40
1.0
 40
1.0
 10
17.4855551591
 20
34.5116906475
 30
0.0
 10
17.3228438047
 20
34.5376079988
 30
0.0
 10
16.9989083592
 20
34.6031201697
 30
0.0
 10
16.680516229
 20
34.6911688426
 30
0.0
 10
16.5224638471
 20
34.7397440038
 30
0.0
  0
SPLINE
  5
24E
100
AcDbEntity
  8
0
100
AcDbSpline
 62
7
  6
BYLAYER
 70
0
 71
3
 72
9
 73
5
 74
0
 42
0.0000001
 43
0.0000001
 44
0.0000000001
 40
0.0
 40
0.0
 40
0.0
 40
0.0
 40
0.500887351
 40
1.0
 40
1.0
 40
1.0
 40
1.0
 10
16.5224638471
 20
34.7397440038
 30
0.0
 10
16.3644114842
 20
34.6911688484
 30
0.0
 10
16.0460193274
 20
34.6031202858
 30
0.0
 10
15.7220839079
 20
34.5376080017
 30
0.0
 10
15.5593725351
 20
34.5116906475
 30
0.0
  0
SPLINE
  5
24F
100
AcDbEntity
  8
0
100
AcDbSpline
 62
7
  6
BYLAYER
 70
0
 71
3
 72
11
 73
7
 74
0
 42
0.0000001
 43
0.0000001
 44
0.0000000001
 40
0.0
 40
0.0
 40
0.0
 40
0.0
 40
0.2490950316
 40
0.498773904
 40
0.7490766786
 40
1.0
 40
1.0
 40
1.0
 40
1.0
 10
13.8395926814
 20
38.5116906475
 30
0.0
 10
13.7278116227
 20
38.4938856886
 30
0.0
 10
13.5049653948
 20
38.4518374113
 30
0.0
 10
13.17402662
 20
38.3716851709
 30
0.0
 10
12.8462322819
 20
38.2765776237
 30
0.0
 10
12.6300537336
 20
38.2046981431
 30
0.0
 10
12.5224638471
 20
38.1669462995
 30
0.0
  0
SPLINE
  5
250
100
AcDbEntity
  8
0
100
AcDbSpline
 62
7
  6
BYLAYER
 70
0
 71
3
 72
9
 73
5
 74
0
 42
0.0000001
 43
0.0000001
 44
0.0000000001
 40
0.0
 40
0.0
 40
0.0
 40
0.0
 40
0.5008839129
 40
1.0
 40
1.0
 40
1.0
 40
1.0
 10
16.5224638471
 20
38.2836372912
 30
0.0
 10
16.3644125699
 20
38.3322121128
 30
0.0
 10
16.0460204039
 20
38.4202606054
 30
0.0
 10
15.7220850278
 20
38.4857731148
 30
0.0
 10
15.5593725351
 20
38.5116906475
 30
0.0
  0
SPLINE
  5
251
100
AcDbEntity
  8
0
100
AcDbSpline
 62
7
  6
BYLAYER
 70
0
 71
3
 72
11
 73
7
 74
0
 42
0.0000001
 43
0.0000001
 44
0.0000000001
 40
0.0
 40
0.0
 40
0.0
 40
0.0
 40
0.2490975023
 40
0.4987827578
 40
0.7490844471
 40
1.0
 40
1.0
 40
1.0
 40
1.0
 10
13.8395926814
 20
34.5116906475
 30
0.0
 10
13.7278105086
 20
34.5294957838
 30
0.0
 10
13.5049611497
 20
34.5715489552
 30
0.0
 10
13.1740174409
 20
34.651695472
 30
0.0
 10
12.8462241347
 20
34.746803174
 30
0.0
 10
12.6300504078
 20
34.8186843189
 30
0.0
 10
12.5224638471
 20
34.8564349954
 30
0.0
  0
SPLINE
  5
252
100
AcDbEntity
  8
0
100
AcDbSpline
 62
7
  6
BYLAYER
 70
0
 71
3
 72
15
 73
11
 74
0
 42
0.0000001
 43
0.0000001
 44
0.0000000001
 40
0.0
 40
0.0
 40
0.0
 40
0.0
 40
0.1233483702
 40
0.1851227167
 40
0.2469718048
 40
0.3709724975
 40
0.4955196451
 40
0.6206934391
 40
0.7465205182
 40
1.0
 40
1.0
 40
1.0
 40
1.0
 10
18.5224638449
 20
42.0116906475
 30
0.0
 10
18.6095411139
 20
42.0116906476
 30
0.0
 10
18.740316088
 20
42.0059486734
 30
0.0
 10
18.9136880035
 20
41.9871853643
 30
0.0
 10
19.0865854448
 20
41.9610860409
 30
0.0
 10
19.3011121695
 20
41.9152623297
 30
0.0
 10
19.5545023053
 20
41.8410363955
 30
0.0
 10
19.8035875175
 20
41.7497216146
 30
0.0
 10
20.1303440966
 20
41.6077049776
 30
0.0
 10
20.3674948484
 20
41.4823598871
 30
0.0
 10
20.5224638471
 20
41.392888494
 30
0.0
  0
SPLINE
  5
253
100
AcDbEntity
  8
0
100
AcDbSpline
 62
7
  6
BYLAYER
 70
0
 71
3
 72
13
 73
9
 74
0
 42
0.0000001
 43
0.0000001
 44
0.0000000001
 40
0.0
 40
0.0
 40
0.0
 40
0.0
 40
0.2535143653
 40
0.5044418525
 40
0.6290060584
 40
0.7530232257
 40
0.8766354113
 40
1.0
 40
1.0
 40
1.0
 40
1.0
 10
12.5224638471
 20
41.392888494
 30
0.0
 10
12.6774332696
 20
41.4823601318
 30
0.0
 10
12.9926327894
 20
41.648982048
 30
0.0
 10
13.405196513
 20
41.8160758165
 30
0.0
 10
13.7438209893
 20
41.9152588437
 30
0.0
 10
14.0010024333
 20
41.9702136376
 30
0.0
 10
14.2609652458
 20
42.0040507024
 30
0.0
 10
14.4353868714
 20
42.0116906475
 30
0.0
 10
14.5224638446
 20
42.0116906475
 30
0.0
  0
SPLINE
  5
254
100
AcDbEntity
  8
0
100
AcDbSpline
 62
7
  6
BYLAYER
 70
0
 71
3
 72
15
 73
11
 74
0
 42
0.0000001
 43
0.0000001
 44
0.0000000001
 40
0.0
 40
0.0
 40
0.0
 40
0.0
 40
0.1233483574
 40
0.1851226915
 40
0.2469717742
 40
0.370972477
 40
0.4955196551
 40
0.6206934885
 40
0.7465205683
 40
1.0
 40
1.0
 40
1.0
 40
1.0
 10
14.522463841
 20
38.5116906473
 30
0.0
 10
14.435386583
 20
38.5116906475
 30
0.0
 10
14.3046116284
 20
38.5174325982
 30
0.0
 10
14.1312397415
 20
38.536195936
 30
0.0
 10
13.9583423143
 20
38.5622952842
 30
0.0
 10
13.7438155725
 20
38.6081190161
 30
0.0
 10
13.4904254222
 20
38.6823450799
 30
0.0
 10
13.2413401804
 20
38.7736599018
 30
0.0
 10
12.9145836146
 20
38.915676522
 30
0.0
 10
12.6774328114
 20
39.0410214278
 30
0.0
 10
12.5224638471
 20
39.130492801
 30
0.0
  0
SPLINE
  5
255
100
AcDbEntity
  8
0
100
AcDbSpline
 62
7
  6
BYLAYER
 70
0
 71
3
 72
13
 73
9
 74
0
 42
0.0000001
 43
0.0000001
 44
0.0000000001
 40
0.0
 40
0.0
 40
0.0
 40
0.0
 40
0.2535144163
 40
0.5044418623
 40
0.6290060373
 40
0.7530231952
 40
0.8766353984
 40
1.0
 40
1.0
 40
1.0
 40
1.0
 10
20.5224638471
 20
39.130492801
 30
0.0
 10
20.3674943897
 20
39.041021143
 30
0.0
 10
20.0522949727
 20
38.874399005
 30
0.0
 10
19.639731225
 20
38.7073052594
 30
0.0
 10
19.3011067513
 20
38.6081224065
 30
0.0
 10
19.0439253165
 20
38.5531676187
 30
0.0
 10
18.7839624755
 20
38.5193306098
 30
0.0
 10
18.6095408259
 20
38.5116906472
 30
0.0
 10
18.5224638415
 20
38.5116906473
 30
0.0
  0
SPLINE
  5
256
100
AcDbEntity
  8
0
100
AcDbSpline
 62
7
  6
BYLAYER
 70
0
 71
3
 72
13
 73
9
 74
0
 42
0.0000001
 43
0.0000001
 44
0.0000000001
 40
0.0
 40
0.0
 40
0.0
 40
0.0
 40
0.2535144163
 40
0.5044418623
 40
0.6290060373
 40
0.7530231952
 40
0.8766353984
 40
1.0
 40
1.0
 40
1.0
 40
1.0
 10
16.5224638471
 20
39.130492801
 30
0.0
 10
16.3674943896
 20
39.041021143
 30
0.0
 10
16.0522949726
 20
38.8743990049
 30
0.0
 10
15.6397312248
 20
38.7073052593
 30
0.0
 10
15.301106751
 20
38.6081224064
 30
0.0
 10
15.0439253162
 20
38.5531676186
 30
0.0
 10
14.783962475
 20
38.5193306098
 30
0.0
 10
14.6095408254
 20
38.5116906471
 30
0.0
 10
14.522463841
 20
38.5116906473
 30
0.0
  0
SPLINE
  5
257
100
AcDbEntity
  8
0
100
AcDbSpline
 62
7
  6
BYLAYER
 70
0
 71
3
 72
15
 73
11
 74
0
 42
0.0000001
 43
0.0000001
 44
0.0000000001
 40
0.0
 40
0.0
 40
0.0
 40
0.0
 40
0.1233483574
 40
0.1851226915
 40
0.2469717742
 40
0.370972477
 40
0.4955196551
 40
0.6206934885
 40
0.7465205683
 40
1.0
 40
1.0
 40
1.0
 40
1.0
 10
18.5224638415
 20
38.5116906473
 30
0.0
 10
18.4353865835
 20
38.5116906475
 30
0.0
 10
18.3046116289
 20
38.5174325982
 30
0.0
 10
18.1312397419
 20
38.5361959359
 30
0.0
 10
17.9583423147
 20
38.5622952841
 30
0.0
 10
17.7438155728
 20
38.608119016
 30
0.0
 10
17.4904254225
 20
38.6823450798
 30
0.0
 10
17.2413401806
 20
38.7736599017
 30
0.0
 10
16.9145836147
 20
38.915676522
 30
0.0
 10
16.6774328114
 20
39.0410214277
 30
0.0
 10
16.5224638471
 20
39.130492801
 30
0.0
  0
SPLINE
  5
258
100
AcDbEntity
  8
0
100
AcDbSpline
 62
7
  6
BYLAYER
 70
0
 71
3
 72
13
 73
9
 74
0
 42
0.0000001
 43
0.0000001
 44
0.0000000001
 40
0.0
 40
0.0
 40
0.0
 40
0.0
 40
0.2535143653
 40
0.5044418525
 40
0.6290060584
 40
0.7530232257
 40
0.8766354113
 40
1.0
 40
1.0
 40
1.0
 40
1.0
 10
16.5224638471
 20
41.392888494
 30
0.0
 10
16.6774332697
 20
41.4823601318
 30
0.0
 10
16.9926327895
 20
41.648982048
 30
0.0
 10
17.4051965131
 20
41.8160758165
 30
0.0
 10
17.7438209894
 20
41.9152588438
 30
0.0
 10
18.0010024335
 20
41.9702136376
 30
0.0
 10
18.2609652459
 20
42.0040507024
 30
0.0
 10
18.4353868716
 20
42.0116906475
 30
0.0
 10
18.5224638449
 20
42.0116906475
 30
0.0
  0
SPLINE
  5
259
100
AcDbEntity
  8
0
100
AcDbSpline
 62
7
  6
BYLAYER
 70
0
 71
3
 72
15
 73
11
 74
0
 42
0.0000001
 43
0.0000001
 44
0.0000000001
 40
0.0
 40
0.0
 40
0.0
 40
0.0
 40
0.1233483702
 40
0.1851227167
 40
0.2469718048
 40
0.3709724975
 40
0.4955196451
 40
0.6206934391
 40
0.7465205182
 40
1.0
 40
1.0
 40
1.0
 40
1.0
 10
14.5224638446
 20
42.0116906475
 30
0.0
 10
14.6095411137
 20
42.0116906476
 30
0.0
 10
14.7403160878
 20
42.0059486734
 30
0.0
 10
14.9136880033
 20
41.9871853643
 30
0.0
 10
15.0865854446
 20
41.961086041
 30
0.0
 10
15.3011121693
 20
41.9152623297
 30
0.0
 10
15.5545023052
 20
41.8410363955
 30
0.0
 10
15.8035875174
 20
41.7497216146
 30
0.0
 10
16.1303440965
 20
41.6077049776
 30
0.0
 10
16.3674948484
 20
41.4823598871
 30
0.0
 10
16.5224638471
 20
41.392888494
 30
0.0
  0
ENDSEC
  0
SECTION
  2
OBJECTS
  0
DICTIONARY
  5
C
100
AcDbDictionary
280
0
281
1
  3
ACAD_GROUP
350
D
  3
ACAD_MLINESTYLE
350
17
  3
ACAD_LAYOUT
350
1A
  3
ACAD_PLOTSETTINGS
350
19
  3
ACAD_PLOTSTYLENAME
350
E
  0
DICTIONARY
  5
D
102
{ACAD_REACTORS
330
C
102
}
100
AcDbDictionary
280
0
281
1
  0
ACDBDICTIONARYWDFLT
  5
E
102
{ACAD_REACTORS
330
C
102
}
100
AcDbDictionary
281
1
  3
Normal
350
F
100
AcDbDictionaryWithDefault
340
F
  0
DICTIONARY
  5
17
102
{ACAD_REACTORS
330
C
102
}
100
AcDbDictionary
280
0
281
1
  3
Standard
350
18
  0
DICTIONARY
  5
19
102
{ACAD_REACTORS
330
C
102
}
100
AcDbDictionary
281
1
  0
DICTIONARY
  5
1A
102
{ACAD_REACTORS
330
C
102
}
100
AcDbDictionary
281
1
  3
Model
350
25A
  3
Layout1
350
25B
  0
ACDBPLACEHOLDER
  5
F
102
{ACAD_REACTORS
330
E
102
}
  0
MLINESTYLE
  5
18
102
{ACAD_REACTORS
330
17
102
}
100
AcDbMlineStyle
  2
STANDARD
 70
0
  3

 62
256
 51
90.0
 52
90.0
 71
2
 49
0.5
 62
256
  6
BYLAYER
 49
-0.5
 62
256
  6
BYLAYER
  0
LAYOUT
  5
25A
102
{ACAD_REACTORS
330
1A
102
}
100
AcDbPlotSettings
  1

  2
none_device
  4

  6

 40
0.0
 41
0.0
 42
0.0
 43
0.0
 44
210.0
 45
297.0
 46
0.0
 47
0.0
 48
0.0
 49
0.0
140
0.0
141
0.0
142
1.0
143
1.0
 70
1024
 72
1
 73
0
 74
0
  7

 75
0
147
1.0
148
0.0
149
0.0
100
AcDbLayout
  1
Model
 70
0
 71
0
 10
0.0
 20
0.0
 11
210.0
 21
297.0
 12
0.0
 22
0.0
 32
0.0
 14
0.0
 24
0.0
 34
0.0
 15
0.0
 25
0.0
 35
0.0
146
0.0
 13
0.0
 23
0.0
 33
0.0
 16
1.0
 26
0.0
 36
0.0
 17
0.0
 27
1.0
 37
0.0
 76
0
330
210
345
0
346
0
  0
LAYOUT
  5
25B
102
{ACAD_REACTORS
330
1A
102
}
100
AcDbPlotSettings
  1

  2
none_device
  4

  6

 40
0.0
 41
0.0
 42
0.0
 43
0.0
 44
210.0
 45
297.0
 46
0.0
 47
0.0
 48
0.0
 49
0.0
140
0.0
141
0.0
142
1.0
143
1.0
 70
0
 72
1
 73
0
 74
0
  7

 75
0
147
1.0
148
0.0
149
0.0
100
AcDbLayout
  1
Layout1
 70
0
 71
1
 10
0.0
 20
0.0
 11
210.0
 21
297.0
 12
0.0
 22
0.0
 32
0.0
 14
0.0
 24
0.0
 34
0.0
 15
0.0
 25
0.0
 35
0.0
146
0.0
 13
0.0
 23
0.0
 33
0.0
 16
1.0
 26
0.0
 36
0.0
 17
0.0
 27
1.0
 37
0.0
 76
0
330
211
345
0
346
0
  0
ENDSEC
  0
EOF
