999
DXF file: C:\Users\sesa63760\Dev\_Creo\CAD\MCADID0004809_3D-CAD\drw0001_7.dxf
999
Pro/ENGINEER 2019471 by Parametric Technology Corporation
  0
SECTION
  2
HEADER
  9
$ACADVER
  1
AC1024
  9
$DWGCODEPAGE
  3
ANSI_1252
  9
$EXTMAX
 10
65.7312733462
 20
92.9628008753
 30
0.0
  9
$EXTMIN
 10
0.0
 20
0.0
 30
0.0
  9
$LIMMIN
 10
0.0
 20
0.0
  9
$LIMMAX
 10
65.7312733462
 20
92.9628008753
  9
$VIEWCTR
 10
32.8656366731
 20
46.4814004376
  9
$VIEWSIZE
 40
92.9628008753
  9
$CLAYER
  8
0
  9
$LTSCALE
 40
6.0597973904
  9
$CELTYPE
  6
BYLAYER
  9
$DIMSCALE
 40
1.0
  9
$DIMASZ
 40
0.7825151589
  9
$DIMEXO
 40
1.0
  9
$DIMDLI
 40
4.1867691061
  9
$DIMEXE
 40
1.0
  9
$DIMCEN
 40
0.9916032093
  9
$DIMLFAC
 40
1.0
  9
$DIMBLK
  1
_FILLED
  9
$DIMALT
 70
0
  9
$DIMALTF
 40
0.0393700787
  9
$DIMTXT
 40
1.0955212224
  9
$DIMTOL
 70
1
  9
$DIMLIM
 70
0
  9
$DIMTFAC
 40
1.0
  9
$DIMTP
 40
0.01
  9
$DIMTM
 40
0.01
  9
$DIMGAP
 40
0.625
  9
$DIMDSEP
 70
46
  9
$AUNITS
 70
0
  9
$PDMODE
 70
3
  9
$PDSIZE
 40
0.3125
  9
$HANDSEED
  5
26F
  9
$TILEMODE
 70
1
  9
$MEASUREMENT
 70
1
  9
$INSUNITS
 70
4
  0
ENDSEC
  0
SECTION
  2
CLASSES
  0
CLASS
  1
ACDBDICTIONARYWDFLT
  2
AcDbDictionaryWithDefault
  3
AutoCAD 2000
 90
0
 91
1
280
0
281
0
  0
CLASS
  1
ACDBPLACEHOLDER
  2
AcDbPlaceHolder
  3
AutoCAD 2000
 90
0
 91
1
280
0
281
0
  0
CLASS
  1
LAYOUT
  2
AcDbLayout
  3
AutoCAD 2000
 90
0
 91
0
280
0
281
0
  0
ENDSEC
  0
SECTION
  2
TABLES
  0
TABLE
  2
VPORT
  5
8
100
AcDbSymbolTable
 70
2
  0
VPORT
  5
1F4
100
AcDbSymbolTableRecord
100
AcDbViewportTableRecord
  2
*ACTIVE
 70
0
 10
0.0
 20
0.0
 11
1.0
 21
1.0
 12
32.8656366731
 22
46.4814004376
 13
0.0
 23
0.0
 14
1.0
 24
1.0
 15
0.0
 25
0.0
 16
0.0
 26
0.0
 36
1.0
 17
0.0
 27
0.0
 37
0.0
 40
92.9628008753
 41
0.7070707071
 42
50.0
 43
0.0
 44
0.0
 50
0.0
 51
0.0
 71
0
 72
100
 73
1
 74
1
 75
0
 76
0
 77
0
 78
0
  0
ENDTAB
  0
TABLE
  2
LTYPE
  5
5
100
AcDbSymbolTable
 70
6
  0
LTYPE
  5
14
100
AcDbSymbolTableRecord
100
AcDbLinetypeTableRecord
  2
BYBLOCK
 70
0
  3

 72
65
 73
0
 40
0.0
  0
LTYPE
  5
15
100
AcDbSymbolTableRecord
100
AcDbLinetypeTableRecord
  2
BYLAYER
 70
0
  3

 72
65
 73
0
 40
0.0
  0
LTYPE
  5
16
100
AcDbSymbolTableRecord
100
AcDbLinetypeTableRecord
  2
CONTINUOUS
 70
64
  3
Solid line
 72
65
 73
0
 40
0.0
  0
LTYPE
  5
1F5
100
AcDbSymbolTableRecord
100
AcDbLinetypeTableRecord
  2
CENTER
 70
64
  3
____ _ ____ _ ____ _ ____ _ ____ _ ____ _ ____
 72
65
 73
4
 40
0.6
 49
0.375
 74
0
 49
-0.075
 74
0
 49
0.075
 74
0
 49
-0.075
 74
0
  0
LTYPE
  5
1F6
100
AcDbSymbolTableRecord
100
AcDbLinetypeTableRecord
  2
HIDDEN
 70
64
  3
- - - - - - - - - - - - - - - - - - - -
 72
65
 73
2
 40
0.2
 49
0.1
 74
0
 49
-0.1
 74
0
  0
LTYPE
  5
1F7
100
AcDbSymbolTableRecord
100
AcDbLinetypeTableRecord
  2
PHANTOM
 70
64
  3
_____ _ _ _____ _ _ _____ _ _ _____
 72
65
 73
6
 40
0.8
 49
0.45
 74
0
 49
-0.05
 74
0
 49
0.1
 74
0
 49
-0.05
 74
0
 49
0.1
 74
0
 49
-0.05
 74
0
  0
LTYPE
  5
1F8
100
AcDbSymbolTableRecord
100
AcDbLinetypeTableRecord
  2
DOT
 70
64
  3
. . . . . . . . . . . . . . . . . . . .
 72
65
 73
2
 40
0.2
 49
0.1
 74
0
 49
-0.1
 74
0
  0
LTYPE
  5
1F9
100
AcDbSymbolTableRecord
100
AcDbLinetypeTableRecord
  2
DASHED
 70
64
  3
- - - - - - - - - - - - - - - - - - - -
 72
65
 73
2
 40
0.2
 49
0.1
 74
0
 49
-0.1
 74
0
  0
ENDTAB
  0
TABLE
  2
LAYER
  5
2
100
AcDbSymbolTable
 70
36
  0
LAYER
  5
10
100
AcDbSymbolTableRecord
100
AcDbLayerTableRecord
  2
0
 70
0
 62
7
  6
CONTINUOUS
370
-3
390
F
  0
LAYER
  5
1FA
100
AcDbSymbolTableRecord
100
AcDbLayerTableRecord
  2
DEFAULT_1
 70
0
 62
7
  6
CENTER
370
-3
390
F
  0
LAYER
  5
1FB
100
AcDbSymbolTableRecord
100
AcDbLayerTableRecord
  2
DEFAULT_2
 70
0
 62
7
  6
HIDDEN
370
-3
390
F
  0
LAYER
  5
1FC
100
AcDbSymbolTableRecord
100
AcDbLayerTableRecord
  2
DEFAULT_3
 70
0
 62
7
  6
PHANTOM
370
-3
390
F
  0
LAYER
  5
1FD
100
AcDbSymbolTableRecord
100
AcDbLayerTableRecord
  2
00_COMPONENTS
 70
0
 62
7
  6
CONTINUOUS
370
-3
390
F
  0
LAYER
  5
1FE
100
AcDbSymbolTableRecord
100
AcDbLayerTableRecord
  2
01_1_DEFAULT_DATUMS
 70
0
 62
7
  6
CONTINUOUS
370
-3
390
F
  0
LAYER
  5
1FF
100
AcDbSymbolTableRecord
100
AcDbLayerTableRecord
  2
01_PLANES
 70
0
 62
7
  6
CONTINUOUS
370
-3
390
F
  0
LAYER
  5
200
100
AcDbSymbolTableRecord
100
AcDbLayerTableRecord
  2
02_COORD_SYS
 70
0
 62
7
  6
CONTINUOUS
370
-3
390
F
  0
LAYER
  5
201
100
AcDbSymbolTableRecord
100
AcDbLayerTableRecord
  2
03_AXES
 70
0
 62
7
  6
CONTINUOUS
370
-3
390
F
  0
LAYER
  5
202
100
AcDbSymbolTableRecord
100
AcDbLayerTableRecord
  2
04_POINTS
 70
0
 62
7
  6
CONTINUOUS
370
-3
390
F
  0
LAYER
  5
203
100
AcDbSymbolTableRecord
100
AcDbLayerTableRecord
  2
05_CURVES
 70
0
 62
7
  6
CONTINUOUS
370
-3
390
F
  0
LAYER
  5
204
100
AcDbSymbolTableRecord
100
AcDbLayerTableRecord
  2
06_SURFS
 70
0
 62
7
  6
CONTINUOUS
370
-3
390
F
  0
LAYER
  5
205
100
AcDbSymbolTableRecord
100
AcDbLayerTableRecord
  2
07_COSMETICS
 70
0
 62
7
  6
CONTINUOUS
370
-3
390
F
  0
LAYER
  5
206
100
AcDbSymbolTableRecord
100
AcDbLayerTableRecord
  2
10_NOTES
 70
0
 62
7
  6
CONTINUOUS
370
-3
390
F
  0
LAYER
  5
207
100
AcDbSymbolTableRecord
100
AcDbLayerTableRecord
  2
11_NOTES_PUB
 70
0
 62
7
  6
CONTINUOUS
370
-3
390
F
  0
LAYER
  5
208
100
AcDbSymbolTableRecord
100
AcDbLayerTableRecord
  2
13_REF_GTOL
 70
0
 62
7
  6
CONTINUOUS
370
-3
390
F
  0
LAYER
  5
209
100
AcDbSymbolTableRecord
100
AcDbLayerTableRecord
  2
16_MISC
 70
0
 62
7
  6
CONTINUOUS
370
-3
390
F
  0
LAYER
  5
20A
100
AcDbSymbolTableRecord
100
AcDbLayerTableRecord
  2
17_NO_PRINT
 70
0
 62
7
  6
CONTINUOUS
370
-3
390
F
  0
LAYER
  5
20B
100
AcDbSymbolTableRecord
100
AcDbLayerTableRecord
  2
18_DATUM_CAMS_JOINTS
 70
0
 62
7
  6
CONTINUOUS
370
-3
390
F
  0
LAYER
  5
20C
100
AcDbSymbolTableRecord
100
AcDbLayerTableRecord
  2
19_DATUM_FUNCTIONAL
 70
0
 62
7
  6
CONTINUOUS
370
-3
390
F
  0
LAYER
  5
20D
100
AcDbSymbolTableRecord
100
AcDbLayerTableRecord
  2
20_DATUM_KINEMATIC_SCHEME
 70
0
 62
7
  6
CONTINUOUS
370
-3
390
F
  0
ENDTAB
  0
TABLE
  2
STYLE
  5
3
100
AcDbSymbolTable
 70
1
  0
STYLE
  5
11
100
AcDbSymbolTableRecord
100
AcDbTextStyleTableRecord
  2
STANDARD
 70
0
 40
0.0
 41
1.0
 50
0.0
 71
0
 42
0.2
  3
ARIAL.TTF
  4

  0
STYLE
  5
20E
100
AcDbSymbolTableRecord
100
AcDbTextStyleTableRecord
  2
TEXTSTYLE_1
 70
0
 40
0.0
 41
0.8
 50
0.0
 71
0
 42
0.2
  3
gdt
  4

  0
ENDTAB
  0
TABLE
  2
VIEW
  5
6
100
AcDbSymbolTable
 70
0
  0
ENDTAB
  0
TABLE
  2
UCS
  5
7
100
AcDbSymbolTable
 70
0
  0
ENDTAB
  0
TABLE
  2
APPID
  5
9
100
AcDbSymbolTable
 70
1
  0
APPID
  5
20F
100
AcDbSymbolTableRecord
100
AcDbRegAppTableRecord
  2
ACAD
 70
0
  0
ENDTAB
  0
TABLE
  2
BLOCK_RECORD
  5
1
100
AcDbSymbolTable
 70
0
  0
BLOCK_RECORD
  5
210
100
AcDbSymbolTableRecord
100
AcDbBlockTableRecord
  2
*Model_Space
  0
BLOCK_RECORD
  5
211
100
AcDbSymbolTableRecord
100
AcDbBlockTableRecord
  2
*Paper_Space
  0
BLOCK_RECORD
  5
212
100
AcDbSymbolTableRecord
100
AcDbBlockTableRecord
  2
_FILLED
  0
ENDTAB
  0
TABLE
  2
DIMSTYLE
  5
A
100
AcDbSymbolTable
 70
1
100
AcDbDimStyleTable
 71
0
  0
DIMSTYLE
105
213
100
AcDbSymbolTableRecord
100
AcDbDimStyleTableRecord
  2
STANDARD
 70
0
  3

  4

 40
1.0
 41
0.7825151589
 42
1.0
 43
0.38
 44
1.0
 45
0.0
 46
0.0
 47
0.01
 48
0.01
140
1.0955212224
141
0.09
142
0.0
143
25.4
144
1.0
145
0.0
146
1.0
147
0.625
 71
1
 72
0
 73
0
 74
0
 75
0
 76
0
 77
1
 78
8
 79
2
170
0
171
1
172
0
173
0
174
0
175
0
176
0
177
0
178
0
270
2
179
2
271
2
272
2
273
2
274
2
275
0
280
0
281
0
282
0
283
1
284
8
285
0
286
0
287
3
288
0
340
11
278
46
341
212
342
212
343
212
344
212
  0
ENDTAB
  0
ENDSEC
  0
SECTION
  2
BLOCKS
  0
BLOCK
  5
20
100
AcDbEntity
  8
0
100
AcDbBlockBegin
  2
*Model_Space
 70
0
 10
0.0
 20
0.0
 30
0.0
  3
*Model_Space
  1

  0
ENDBLK
  5
21
100
AcDbEntity
  8
0
100
AcDbBlockEnd
  0
BLOCK
  5
1C
100
AcDbEntity
  8
0
100
AcDbBlockBegin
  2
*Paper_Space
 70
0
 10
0.0
 20
0.0
 30
0.0
  3
*Paper_Space
  1

  0
ENDBLK
  5
1D
100
AcDbEntity
  8
0
100
AcDbBlockEnd
  0
BLOCK
  5
214
100
AcDbEntity
  8
0
100
AcDbBlockBegin
  2
_FILLED
 70
64
 10
0.0
 20
0.0
  3
_FILLED
  1

  0
SOLID
  5
215
100
AcDbEntity
  8
0
  6
BYBLOCK
 62
0
100
AcDbTrace
 10
0.0
 20
0.0
 11
-1.0
 21
0.25
 12
-1.0
 22
-0.25
 13
-1.0
 23
-0.25
  0
ENDBLK
  5
216
100
AcDbEntity
  8
0
  6
BYBLOCK
 62
0
100
AcDbBlockEnd
  0
ENDSEC
  0
SECTION
  2
ENTITIES
  0
LINE
  5
217
100
AcDbEntity
  8
0
100
AcDbLine
 62
7
  6
BYLAYER
 10
6.9794222311
 20
38.0589715536
 11
6.9794222311
 21
43.0589715536
  0
LINE
  5
218
100
AcDbEntity
  8
0
100
AcDbLine
 62
7
  6
BYLAYER
 10
11.62856927
 20
37.6089715536
 11
11.62856927
 21
36.1863218228
  0
LINE
  5
219
100
AcDbEntity
  8
0
100
AcDbLine
 62
7
  6
BYLAYER
 10
12.4794222311
 20
43.8089715536
 11
12.4794222311
 21
49.6089715536
  0
LINE
  5
21A
100
AcDbEntity
  8
0
100
AcDbLine
 62
7
  6
BYLAYER
 10
12.4794222311
 20
37.6089715536
 11
12.3640376157
 21
38.0589715536
  0
LINE
  5
21B
100
AcDbEntity
  8
0
100
AcDbLine
 62
7
  6
BYLAYER
 10
13.9794222311
 20
43.5089715536
 11
13.9794222311
 21
43.6089715536
  0
LINE
  5
21C
100
AcDbEntity
  8
0
100
AcDbLine
 62
7
  6
BYLAYER
 10
12.3640376157
 20
43.0589715536
 11
12.4794222311
 21
43.5089715536
  0
LINE
  5
21D
100
AcDbEntity
  8
0
100
AcDbLine
 62
7
  6
BYLAYER
 10
11.62856927
 20
36.1863218228
 11
12.62856927
 21
35.6089715536
  0
LINE
  5
21E
100
AcDbEntity
  8
0
100
AcDbLine
 62
7
  6
BYLAYER
 10
14.8039957505
 20
37.6089715536
 11
14.8039957505
 21
36.1863218228
  0
LINE
  5
21F
100
AcDbEntity
  8
0
100
AcDbLine
 62
7
  6
BYLAYER
 10
15.4794222311
 20
49.6089715536
 11
15.4794222311
 21
51.6089715536
  0
LINE
  5
220
100
AcDbEntity
  8
0
100
AcDbLine
 62
7
  6
BYLAYER
 10
17.2002555644
 20
44.2089715536
 11
17.2002555644
 21
49.2089715536
  0
LINE
  5
221
100
AcDbEntity
  8
0
100
AcDbLine
 62
7
  6
BYLAYER
 10
15.9794222311
 20
52.1089715536
 11
15.4794222311
 21
51.6089715536
  0
LINE
  5
222
100
AcDbEntity
  8
0
100
AcDbLine
 62
7
  6
BYLAYER
 10
20.4794222311
 20
49.6089715536
 11
20.4794222311
 21
51.6089715536
  0
LINE
  5
223
100
AcDbEntity
  8
0
100
AcDbLine
 62
7
  6
BYLAYER
 10
21.1548487116
 20
37.6089715536
 11
21.1548487116
 21
36.1863218228
  0
LINE
  5
224
100
AcDbEntity
  8
0
100
AcDbLine
 62
7
  6
BYLAYER
 10
14.1794222311
 20
43.8089715536
 11
13.9794222311
 21
43.6089715536
  0
LINE
  5
225
100
AcDbEntity
  8
0
100
AcDbLine
 62
7
  6
BYLAYER
 10
23.3302751921
 20
35.6089715536
 11
12.62856927
 21
35.6089715536
  0
LINE
  5
226
100
AcDbEntity
  8
0
100
AcDbLine
 62
7
  6
BYLAYER
 10
21.9794222311
 20
43.5089715536
 11
21.9794222311
 21
43.6089715536
  0
LINE
  5
227
100
AcDbEntity
  8
0
100
AcDbLine
 62
7
  6
BYLAYER
 10
23.4794222311
 20
43.8089715536
 11
23.4794222311
 21
44.2089715536
  0
LINE
  5
228
100
AcDbEntity
  8
0
100
AcDbLine
 62
7
  6
BYLAYER
 10
23.4794222311
 20
49.2089715536
 11
23.4794222311
 21
49.6089715536
  0
LINE
  5
229
100
AcDbEntity
  8
0
100
AcDbLine
 62
7
  6
BYLAYER
 10
21.7794222311
 20
43.8089715536
 11
21.9794222311
 21
43.6089715536
  0
LINE
  5
22A
100
AcDbEntity
  8
0
100
AcDbLine
 62
7
  6
BYLAYER
 10
23.5948068464
 20
43.0589715536
 11
23.4794222311
 21
43.5089715536
  0
LINE
  5
22B
100
AcDbEntity
  8
0
100
AcDbLine
 62
7
  6
BYLAYER
 10
24.3302751921
 20
37.6089715536
 11
24.3302751921
 21
36.1863218228
  0
LINE
  5
22C
100
AcDbEntity
  8
0
100
AcDbLine
 62
7
  6
BYLAYER
 10
11.62856927
 20
37.6089715536
 11
24.3302751921
 21
37.6089715536
  0
LINE
  5
22D
100
AcDbEntity
  8
0
100
AcDbLine
 62
7
  6
BYLAYER
 10
28.9794222311
 20
38.0589715536
 11
6.9794222311
 21
38.0589715536
  0
LINE
  5
22E
100
AcDbEntity
  8
0
100
AcDbLine
 62
7
  6
BYLAYER
 10
23.4794222311
 20
37.6089715536
 11
23.5948068464
 21
38.0589715536
  0
LINE
  5
22F
100
AcDbEntity
  8
0
100
AcDbLine
 62
7
  6
BYLAYER
 10
57.7294222311
 20
40.5589715536
 11
38.2294222311
 21
40.5589715536
  0
LINE
  5
230
100
AcDbEntity
  8
0
100
AcDbLine
 62
7
  6
BYLAYER
 10
28.9794222311
 20
38.0589715536
 11
28.9794222311
 21
43.0589715536
  0
LINE
  5
231
100
AcDbEntity
  8
0
100
AcDbLine
 62
7
  6
BYLAYER
 10
41.62856927
 20
57.2316212844
 11
42.62856927
 21
57.8089715536
  0
LINE
  5
232
100
AcDbEntity
  8
0
100
AcDbLine
 62
7
  6
BYLAYER
 10
49.9794222311
 20
41.3089715536
 11
45.9794222311
 21
41.3089715536
  0
LINE
  5
233
100
AcDbEntity
  8
0
100
AcDbLine
 62
7
  6
BYLAYER
 10
50.4794222311
 20
41.8089715536
 11
45.4794222311
 21
41.8089715536
  0
LINE
  5
234
100
AcDbEntity
  8
0
100
AcDbLine
 62
7
  6
BYLAYER
 10
6.9794222311
 20
43.0589715536
 11
28.9794222311
 21
43.0589715536
  0
LINE
  5
235
100
AcDbEntity
  8
0
100
AcDbLine
 62
7
  6
BYLAYER
 10
19.9794222311
 20
52.1089715536
 11
20.4794222311
 21
51.6089715536
  0
LINE
  5
236
100
AcDbEntity
  8
0
100
AcDbLine
 62
7
  6
BYLAYER
 10
12.4794222311
 20
43.5089715536
 11
23.4794222311
 21
43.5089715536
  0
LINE
  5
237
100
AcDbEntity
  8
0
100
AcDbLine
 62
7
  6
BYLAYER
 10
13.9794222311
 20
43.6089715536
 11
21.9794222311
 21
43.6089715536
  0
LINE
  5
238
100
AcDbEntity
  8
0
100
AcDbLine
 62
7
  6
BYLAYER
 10
53.4794222311
 20
43.8089715536
 11
42.4794222311
 21
43.8089715536
  0
LINE
  5
239
100
AcDbEntity
  8
0
100
AcDbLine
 62
7
  6
BYLAYER
 10
23.4794222311
 20
43.8089715536
 11
12.4794222311
 21
43.8089715536
  0
LINE
  5
23A
100
AcDbEntity
  8
0
100
AcDbLine
 62
7
  6
BYLAYER
 10
57.6310878095
 20
44.2089715536
 11
53.4239515317
 21
44.2089715536
  0
LINE
  5
23B
100
AcDbEntity
  8
0
100
AcDbLine
 62
7
  6
BYLAYER
 10
42.5348929304
 20
44.2089715536
 11
17.2002555644
 21
44.2089715536
  0
LINE
  5
23C
100
AcDbEntity
  8
0
100
AcDbLine
 62
7
  6
BYLAYER
 10
36.9794222311
 20
50.3589715536
 11
36.9794222311
 21
55.3589715536
  0
LINE
  5
23D
100
AcDbEntity
  8
0
100
AcDbLine
 62
7
  6
BYLAYER
 10
17.2002555644
 20
49.2089715536
 11
42.5348929304
 21
49.2089715536
  0
LINE
  5
23E
100
AcDbEntity
  8
0
100
AcDbLine
 62
7
  6
BYLAYER
 10
53.4239515317
 20
49.2089715536
 11
57.6310878095
 21
49.2089715536
  0
LINE
  5
23F
100
AcDbEntity
  8
0
100
AcDbLine
 62
7
  6
BYLAYER
 10
12.4794222311
 20
49.6089715536
 11
23.4794222311
 21
49.6089715536
  0
LINE
  5
240
100
AcDbEntity
  8
0
100
AcDbLine
 62
7
  6
BYLAYER
 10
42.4794222311
 20
49.6089715536
 11
53.4794222311
 21
49.6089715536
  0
LINE
  5
241
100
AcDbEntity
  8
0
100
AcDbLine
 62
7
  6
BYLAYER
 10
51.9794222311
 20
49.8089715536
 11
43.9794222311
 21
49.8089715536
  0
LINE
  5
242
100
AcDbEntity
  8
0
100
AcDbLine
 62
7
  6
BYLAYER
 10
53.4794222311
 20
49.9089715536
 11
42.4794222311
 21
49.9089715536
  0
LINE
  5
243
100
AcDbEntity
  8
0
100
AcDbLine
 62
7
  6
BYLAYER
 10
58.9794222311
 20
50.3589715536
 11
36.9794222311
 21
50.3589715536
  0
LINE
  5
244
100
AcDbEntity
  8
0
100
AcDbLine
 62
7
  6
BYLAYER
 10
38.2294222311
 20
40.5589715536
 11
38.2294222311
 21
44.2089715536
  0
LINE
  5
245
100
AcDbEntity
  8
0
100
AcDbLine
 62
7
  6
BYLAYER
 10
38.2294222311
 20
49.2089715536
 11
38.2294222311
 21
50.3589715536
  0
LINE
  5
246
100
AcDbEntity
  8
0
100
AcDbLine
 62
7
  6
BYLAYER
 10
24.3302751921
 20
36.1863218228
 11
23.3302751921
 21
35.6089715536
  0
LINE
  5
247
100
AcDbEntity
  8
0
100
AcDbLine
 62
7
  6
BYLAYER
 10
15.4794222311
 20
51.6089715536
 11
20.4794222311
 21
51.6089715536
  0
LINE
  5
248
100
AcDbEntity
  8
0
100
AcDbLine
 62
7
  6
BYLAYER
 10
15.9794222311
 20
52.1089715536
 11
19.9794222311
 21
52.1089715536
  0
LINE
  5
249
100
AcDbEntity
  8
0
100
AcDbLine
 62
7
  6
BYLAYER
 10
45.9794222311
 20
41.3089715536
 11
45.4794222311
 21
41.8089715536
  0
LINE
  5
24A
100
AcDbEntity
  8
0
100
AcDbLine
 62
7
  6
BYLAYER
 10
39.3631594378
 20
44.2089715536
 11
39.3631594378
 21
49.2089715536
  0
LINE
  5
24B
100
AcDbEntity
  8
0
100
AcDbLine
 62
7
  6
BYLAYER
 10
42.3640376157
 20
55.3589715536
 11
42.4794222311
 21
55.8089715536
  0
LINE
  5
24C
100
AcDbEntity
  8
0
100
AcDbLine
 62
7
  6
BYLAYER
 10
41.62856927
 20
55.8089715536
 11
41.62856927
 21
57.2316212844
  0
LINE
  5
24D
100
AcDbEntity
  8
0
100
AcDbLine
 62
7
  6
BYLAYER
 10
42.4794222311
 20
43.8089715536
 11
42.4794222311
 21
44.2089715536
  0
LINE
  5
24E
100
AcDbEntity
  8
0
100
AcDbLine
 62
7
  6
BYLAYER
 10
42.4794222311
 20
49.2089715536
 11
42.4794222311
 21
49.6089715536
  0
LINE
  5
24F
100
AcDbEntity
  8
0
100
AcDbLine
 62
7
  6
BYLAYER
 10
42.5348929304
 20
49.2089715536
 11
42.5348929304
 21
44.2089715536
  0
LINE
  5
250
100
AcDbEntity
  8
0
100
AcDbLine
 62
7
  6
BYLAYER
 10
36.9794222311
 20
55.3589715536
 11
58.9794222311
 21
55.3589715536
  0
LINE
  5
251
100
AcDbEntity
  8
0
100
AcDbLine
 62
7
  6
BYLAYER
 10
41.62856927
 20
55.8089715536
 11
54.3302751921
 21
55.8089715536
  0
LINE
  5
252
100
AcDbEntity
  8
0
100
AcDbLine
 62
7
  6
BYLAYER
 10
43.9794222311
 20
49.9089715536
 11
43.9794222311
 21
49.8089715536
  0
LINE
  5
253
100
AcDbEntity
  8
0
100
AcDbLine
 62
7
  6
BYLAYER
 10
51.7794222311
 20
49.6089715536
 11
51.9794222311
 21
49.8089715536
  0
LINE
  5
254
100
AcDbEntity
  8
0
100
AcDbLine
 62
7
  6
BYLAYER
 10
42.62856927
 20
57.8089715536
 11
53.3302751921
 21
57.8089715536
  0
LINE
  5
255
100
AcDbEntity
  8
0
100
AcDbLine
 62
7
  6
BYLAYER
 10
44.1794222311
 20
49.6089715536
 11
43.9794222311
 21
49.8089715536
  0
LINE
  5
256
100
AcDbEntity
  8
0
100
AcDbLine
 62
7
  6
BYLAYER
 10
42.4794222311
 20
49.9089715536
 11
42.3640376157
 21
50.3589715536
  0
LINE
  5
257
100
AcDbEntity
  8
0
100
AcDbLine
 62
7
  6
BYLAYER
 10
44.8039957505
 20
55.8089715536
 11
44.8039957505
 21
57.2316212844
  0
LINE
  5
258
100
AcDbEntity
  8
0
100
AcDbLine
 62
7
  6
BYLAYER
 10
45.4794222311
 20
43.8089715536
 11
45.4794222311
 21
41.8089715536
  0
LINE
  5
259
100
AcDbEntity
  8
0
100
AcDbLine
 62
7
  6
BYLAYER
 10
49.9794222311
 20
41.3089715536
 11
50.4794222311
 21
41.8089715536
  0
LINE
  5
25A
100
AcDbEntity
  8
0
100
AcDbLine
 62
7
  6
BYLAYER
 10
50.4794222311
 20
43.8089715536
 11
50.4794222311
 21
41.8089715536
  0
LINE
  5
25B
100
AcDbEntity
  8
0
100
AcDbLine
 62
7
  6
BYLAYER
 10
51.1548487116
 20
55.8089715536
 11
51.1548487116
 21
57.2316212844
  0
LINE
  5
25C
100
AcDbEntity
  8
0
100
AcDbLine
 62
7
  6
BYLAYER
 10
51.9794222311
 20
49.9089715536
 11
51.9794222311
 21
49.8089715536
  0
LINE
  5
25D
100
AcDbEntity
  8
0
100
AcDbLine
 62
7
  6
BYLAYER
 10
53.4794222311
 20
49.9089715536
 11
53.5948068464
 21
50.3589715536
  0
LINE
  5
25E
100
AcDbEntity
  8
0
100
AcDbLine
 62
7
  6
BYLAYER
 10
53.4239515317
 20
44.2089715536
 11
53.4239515317
 21
49.2089715536
  0
LINE
  5
25F
100
AcDbEntity
  8
0
100
AcDbLine
 62
7
  6
BYLAYER
 10
53.4794222311
 20
43.8089715536
 11
53.4794222311
 21
44.2089715536
  0
LINE
  5
260
100
AcDbEntity
  8
0
100
AcDbLine
 62
7
  6
BYLAYER
 10
53.4794222311
 20
49.2089715536
 11
53.4794222311
 21
49.6089715536
  0
LINE
  5
261
100
AcDbEntity
  8
0
100
AcDbLine
 62
7
  6
BYLAYER
 10
54.3302751921
 20
57.2316212844
 11
53.3302751921
 21
57.8089715536
  0
LINE
  5
262
100
AcDbEntity
  8
0
100
AcDbLine
 62
7
  6
BYLAYER
 10
54.3302751921
 20
55.8089715536
 11
54.3302751921
 21
57.2316212844
  0
LINE
  5
263
100
AcDbEntity
  8
0
100
AcDbLine
 62
7
  6
BYLAYER
 10
53.5948068464
 20
55.3589715536
 11
53.4794222311
 21
55.8089715536
  0
LINE
  5
264
100
AcDbEntity
  8
0
100
AcDbLine
 62
7
  6
BYLAYER
 10
57.6310878095
 20
49.2089715536
 11
57.6310878095
 21
44.2089715536
  0
LINE
  5
265
100
AcDbEntity
  8
0
100
AcDbLine
 62
7
  6
BYLAYER
 10
57.7294222311
 20
50.3589715536
 11
57.7294222311
 21
40.5589715536
  0
LINE
  5
266
100
AcDbEntity
  8
0
100
AcDbLine
 62
7
  6
BYLAYER
 10
58.9794222311
 20
50.3589715536
 11
58.9794222311
 21
55.3589715536
  0
SPLINE
  5
267
100
AcDbEntity
  8
0
100
AcDbSpline
 62
7
  6
BYLAYER
 70
0
 71
3
 72
19
 73
15
 74
0
 42
0.0000001
 43
0.0000001
 44
0.0000000001
 40
0.0
 40
0.0
 40
0.0
 40
0.0
 40
0.1307720006
 40
0.2571509669
 40
0.3188549264
 40
0.379738183
 40
0.4400268652
 40
0.5000012641
 40
0.55997571
 40
0.6202640312
 40
0.6811471725
 40
0.7428507784
 40
0.86922899
 40
1.0
 40
1.0
 40
1.0
 40
1.0
 10
14.8039957505
 20
36.1863218228
 30
0.0
 10
14.6770768391
 20
36.1130451551
 30
0.0
 10
14.4217757702
 20
35.9784725923
 30
0.0
 10
14.0891527735
 20
35.8453455073
 30
0.0
 10
13.8207712723
 20
35.7682763538
 30
0.0
 10
13.6199451974
 20
35.7263800302
 30
0.0
 10
13.4183264816
 20
35.7008091076
 30
0.0
 10
13.2162782792
 20
35.692246186
 30
0.0
 10
13.0142301419
 20
35.7008068058
 30
0.0
 10
12.8126126807
 20
35.7263833251
 30
0.0
 10
12.6117868822
 20
35.7682760309
 30
0.0
 10
12.3434076325
 20
35.8453486688
 30
0.0
 10
12.0107877415
 20
35.9784762232
 30
0.0
 10
11.75548722
 20
36.1130457102
 30
0.0
 10
11.62856927
 20
36.1863218228
 30
0.0
  0
SPLINE
  5
268
100
AcDbEntity
  8
0
100
AcDbSpline
 62
7
  6
BYLAYER
 70
0
 71
3
 72
17
 73
13
 74
0
 42
0.0000001
 43
0.0000001
 44
0.0000000001
 40
0.0
 40
0.0
 40
0.0
 40
0.0
 40
0.1249980147
 40
0.2499921905
 40
0.3749835887
 40
0.4374924083
 40
0.5000013202
 40
0.5625102905
 40
0.6250186532
 40
0.7500095041
 40
0.8750027734
 40
1.0
 40
1.0
 40
1.0
 40
1.0
 10
21.1548487116
 20
36.1863218228
 30
0.0
 10
20.8967609857
 20
36.1118183138
 30
0.0
 10
20.3768293155
 20
35.9753191446
 30
0.0
 10
19.5859294703
 20
35.8179285052
 30
0.0
 10
18.9187933553
 20
35.7346821805
 30
0.0
 10
18.382449726
 20
35.7007769865
 30
0.0
 10
17.9794136598
 20
35.6922547354
 30
0.0
 10
17.5763784314
 20
35.7007748585
 30
0.0
 10
17.0400372424
 20
35.7346862088
 30
0.0
 10
16.3729049268
 20
35.8179290342
 30
0.0
 10
15.5820107662
 20
35.9753238129
 30
0.0
 10
15.0620818493
 20
36.1118187835
 30
0.0
 10
14.8039957505
 20
36.1863218228
 30
0.0
  0
SPLINE
  5
269
100
AcDbEntity
  8
0
100
AcDbSpline
 62
7
  6
BYLAYER
 70
0
 71
3
 72
19
 73
15
 74
0
 42
0.0000001
 43
0.0000001
 44
0.0000000001
 40
0.0
 40
0.0
 40
0.0
 40
0.0
 40
0.1307720006
 40
0.2571509669
 40
0.3188549264
 40
0.379738183
 40
0.4400268652
 40
0.5000012641
 40
0.55997571
 40
0.6202640312
 40
0.6811471725
 40
0.7428507784
 40
0.86922899
 40
1.0
 40
1.0
 40
1.0
 40
1.0
 10
24.3302751921
 20
36.1863218228
 30
0.0
 10
24.2033562807
 20
36.1130451551
 30
0.0
 10
23.9480552118
 20
35.9784725923
 30
0.0
 10
23.6154322151
 20
35.8453455073
 30
0.0
 10
23.3470507139
 20
35.7682763538
 30
0.0
 10
23.146224639
 20
35.7263800302
 30
0.0
 10
22.9446059233
 20
35.7008091076
 30
0.0
 10
22.7425577208
 20
35.692246186
 30
0.0
 10
22.5405095835
 20
35.7008068058
 30
0.0
 10
22.3388921224
 20
35.7263833251
 30
0.0
 10
22.1380663238
 20
35.7682760309
 30
0.0
 10
21.8696870741
 20
35.8453486688
 30
0.0
 10
21.5370671831
 20
35.9784762232
 30
0.0
 10
21.2817666617
 20
36.1130457102
 30
0.0
 10
21.1548487116
 20
36.1863218228
 30
0.0
  0
SPLINE
  5
26A
100
AcDbEntity
  8
0
100
AcDbSpline
 62
7
  6
BYLAYER
 70
0
 71
3
 72
19
 73
15
 74
0
 42
0.0000001
 43
0.0000001
 44
0.0000000001
 40
0.0
 40
0.0
 40
0.0
 40
0.0
 40
0.1307720006
 40
0.2571509669
 40
0.3188549264
 40
0.379738183
 40
0.4400268652
 40
0.5000012641
 40
0.55997571
 40
0.6202640312
 40
0.6811471725
 40
0.7428507784
 40
0.86922899
 40
1.0
 40
1.0
 40
1.0
 40
1.0
 10
51.1548487116
 20
57.2316212844
 30
0.0
 10
51.2817676231
 20
57.3048979521
 30
0.0
 10
51.537068692
 20
57.4394705149
 30
0.0
 10
51.8696916886
 20
57.5725975999
 30
0.0
 10
52.1380731898
 20
57.6496667534
 30
0.0
 10
52.3388992648
 20
57.691563077
 30
0.0
 10
52.5405179805
 20
57.7171339997
 30
0.0
 10
52.742566183
 20
57.7256969212
 30
0.0
 10
52.9446143203
 20
57.7171363014
 30
0.0
 10
53.1462317814
 20
57.6915597822
 30
0.0
 10
53.34705758
 20
57.6496670763
 30
0.0
 10
53.6154368296
 20
57.5725944384
 30
0.0
 10
53.9480567206
 20
57.439466884
 30
0.0
 10
54.2033572421
 20
57.3048973971
 30
0.0
 10
54.3302751921
 20
57.2316212844
 30
0.0
  0
SPLINE
  5
26B
100
AcDbEntity
  8
0
100
AcDbSpline
 62
7
  6
BYLAYER
 70
0
 71
3
 72
17
 73
13
 74
0
 42
0.0000001
 43
0.0000001
 44
0.0000000001
 40
0.0
 40
0.0
 40
0.0
 40
0.0
 40
0.1249980147
 40
0.2499921905
 40
0.3749835887
 40
0.4374924083
 40
0.5000013202
 40
0.5625102905
 40
0.6250186532
 40
0.7500095041
 40
0.8750027734
 40
1.0
 40
1.0
 40
1.0
 40
1.0
 10
44.8039957505
 20
57.2316212844
 30
0.0
 10
45.0620834764
 20
57.3061247934
 30
0.0
 10
45.5820151466
 20
57.4426239626
 30
0.0
 10
46.3729149918
 20
57.600014602
 30
0.0
 10
47.0400511068
 20
57.6832609267
 30
0.0
 10
47.5763947361
 20
57.7171661207
 30
0.0
 10
47.9794308023
 20
57.7256883718
 30
0.0
 10
48.3824660308
 20
57.7171682487
 30
0.0
 10
48.9188072198
 20
57.6832568984
 30
0.0
 10
49.5859395354
 20
57.6000140731
 30
0.0
 10
50.376833696
 20
57.4426192943
 30
0.0
 10
50.8967626129
 20
57.3061243237
 30
0.0
 10
51.1548487116
 20
57.2316212844
 30
0.0
  0
SPLINE
  5
26C
100
AcDbEntity
  8
0
100
AcDbSpline
 62
7
  6
BYLAYER
 70
0
 71
3
 72
19
 73
15
 74
0
 42
0.0000001
 43
0.0000001
 44
0.0000000001
 40
0.0
 40
0.0
 40
0.0
 40
0.0
 40
0.1307720006
 40
0.2571509669
 40
0.3188549264
 40
0.379738183
 40
0.4400268652
 40
0.5000012641
 40
0.55997571
 40
0.6202640312
 40
0.6811471725
 40
0.7428507784
 40
0.86922899
 40
1.0
 40
1.0
 40
1.0
 40
1.0
 10
41.62856927
 20
57.2316212844
 30
0.0
 10
41.7554881814
 20
57.3048979521
 30
0.0
 10
42.0107892503
 20
57.4394705149
 30
0.0
 10
42.343412247
 20
57.5725975999
 30
0.0
 10
42.6117937482
 20
57.6496667534
 30
0.0
 10
42.8126198231
 20
57.691563077
 30
0.0
 10
43.0142385389
 20
57.7171339997
 30
0.0
 10
43.2162867413
 20
57.7256969212
 30
0.0
 10
43.4183348786
 20
57.7171363014
 30
0.0
 10
43.6199523398
 20
57.6915597822
 30
0.0
 10
43.8207781383
 20
57.6496670763
 30
0.0
 10
44.089157388
 20
57.5725944384
 30
0.0
 10
44.421777279
 20
57.439466884
 30
0.0
 10
44.6770778005
 20
57.3048973971
 30
0.0
 10
44.8039957505
 20
57.2316212844
 30
0.0
  0
ENDSEC
  0
SECTION
  2
OBJECTS
  0
DICTIONARY
  5
C
100
AcDbDictionary
280
0
281
1
  3
ACAD_GROUP
350
D
  3
ACAD_MLINESTYLE
350
17
  3
ACAD_LAYOUT
350
1A
  3
ACAD_PLOTSETTINGS
350
19
  3
ACAD_PLOTSTYLENAME
350
E
  0
DICTIONARY
  5
D
102
{ACAD_REACTORS
330
C
102
}
100
AcDbDictionary
280
0
281
1
  0
ACDBDICTIONARYWDFLT
  5
E
102
{ACAD_REACTORS
330
C
102
}
100
AcDbDictionary
281
1
  3
Normal
350
F
100
AcDbDictionaryWithDefault
340
F
  0
DICTIONARY
  5
17
102
{ACAD_REACTORS
330
C
102
}
100
AcDbDictionary
280
0
281
1
  3
Standard
350
18
  0
DICTIONARY
  5
19
102
{ACAD_REACTORS
330
C
102
}
100
AcDbDictionary
281
1
  0
DICTIONARY
  5
1A
102
{ACAD_REACTORS
330
C
102
}
100
AcDbDictionary
281
1
  3
Model
350
26D
  3
Layout1
350
26E
  0
ACDBPLACEHOLDER
  5
F
102
{ACAD_REACTORS
330
E
102
}
  0
MLINESTYLE
  5
18
102
{ACAD_REACTORS
330
17
102
}
100
AcDbMlineStyle
  2
STANDARD
 70
0
  3

 62
256
 51
90.0
 52
90.0
 71
2
 49
0.5
 62
256
  6
BYLAYER
 49
-0.5
 62
256
  6
BYLAYER
  0
LAYOUT
  5
26D
102
{ACAD_REACTORS
330
1A
102
}
100
AcDbPlotSettings
  1

  2
none_device
  4

  6

 40
0.0
 41
0.0
 42
0.0
 43
0.0
 44
210.0
 45
297.0
 46
0.0
 47
0.0
 48
0.0
 49
0.0
140
0.0
141
0.0
142
1.0
143
1.0
 70
1024
 72
1
 73
0
 74
0
  7

 75
0
147
1.0
148
0.0
149
0.0
100
AcDbLayout
  1
Model
 70
0
 71
0
 10
0.0
 20
0.0
 11
210.0
 21
297.0
 12
0.0
 22
0.0
 32
0.0
 14
0.0
 24
0.0
 34
0.0
 15
0.0
 25
0.0
 35
0.0
146
0.0
 13
0.0
 23
0.0
 33
0.0
 16
1.0
 26
0.0
 36
0.0
 17
0.0
 27
1.0
 37
0.0
 76
0
330
210
345
0
346
0
  0
LAYOUT
  5
26E
102
{ACAD_REACTORS
330
1A
102
}
100
AcDbPlotSettings
  1

  2
none_device
  4

  6

 40
0.0
 41
0.0
 42
0.0
 43
0.0
 44
210.0
 45
297.0
 46
0.0
 47
0.0
 48
0.0
 49
0.0
140
0.0
141
0.0
142
1.0
143
1.0
 70
0
 72
1
 73
0
 74
0
  7

 75
0
147
1.0
148
0.0
149
0.0
100
AcDbLayout
  1
Layout1
 70
0
 71
1
 10
0.0
 20
0.0
 11
210.0
 21
297.0
 12
0.0
 22
0.0
 32
0.0
 14
0.0
 24
0.0
 34
0.0
 15
0.0
 25
0.0
 35
0.0
146
0.0
 13
0.0
 23
0.0
 33
0.0
 16
1.0
 26
0.0
 36
0.0
 17
0.0
 27
1.0
 37
0.0
 76
0
330
211
345
0
346
0
  0
ENDSEC
  0
EOF
